999
dxflib 2.2.0.0
  0
SECTION
  2
HEADER
  9
$ACADVER
  1
AC1015
  9
$HANDSEED
  5
FFFF
  9
$DIMASZ
 40
2.5
  9
$PLIMMIN
 10
0.0
 20
0.0
  9
$DIMEXE
 40
1.25
  9
$DIMGAP
 40
0.625
  9
$PLIMMAX
 10
210.0
 20
297.0
  9
$INSUNITS
 70
4
  9
$DIMSTYLE
  2
Standard
  9
$CLAYER
  8
0
  9
$DIMEXO
 40
0.625
  9
$DIMTXT
 40
2.5
  9
$CLAYER
  8
0
  0
ENDSEC
  0
SECTION
  2
TABLES
  0
TABLE
  2
VPORT
  5
8
100
AcDbSymbolTable
 70
1
  0
VPORT
  5
30
100
AcDbSymbolTableRecord
100
AcDbViewportTableRecord
  2
*Active
 70
0
 10
0.0
 20
0.0
 11
1.0
 21
1.0
 12
286.3055555555554861
 22
148.5
 13
0.0
 23
0.0
 14
10.0
 24
10.0
 15
10.0
 25
10.0
 16
0.0
 26
0.0
 36
1.0
 17
0.0
 27
0.0
 37
0.0
 40
297.0
 41
1.92798353909465
 42
50.0
 43
0.0
 44
0.0
 50
0.0
 51
0.0
 71
0
 72
100
 73
1
 74
3
 75
1
 76
1
 77
0
 78
0
281
0
 65
1
110
0.0
120
0.0
130
0.0
111
1.0
121
0.0
131
0.0
112
0.0
122
1.0
132
0.0
 79
0
146
0.0
  0
ENDTAB
  0
TABLE
  2
LTYPE
  5
5
100
AcDbSymbolTable
 70
21
  0
LTYPE
  5
14
100
AcDbSymbolTableRecord
100
AcDbLinetypeTableRecord
  2
ByBlock
 70
0
  3

 72
65
 73
0
 40
0.0
  0
LTYPE
  5
15
100
AcDbSymbolTableRecord
100
AcDbLinetypeTableRecord
  2
ByLayer
 70
0
  3

 72
65
 73
0
 40
0.0
  0
LTYPE
  5
16
100
AcDbSymbolTableRecord
100
AcDbLinetypeTableRecord
  2
CONTINUOUS
 70
0
  3
Solid line
 72
65
 73
0
 40
0.0
  0
LTYPE
  5
31
100
AcDbSymbolTableRecord
100
AcDbLinetypeTableRecord
  2
DOT
 70
0
  3
Dot . . . . . . . . . . . . . . . . . . . . . .
 72
65
 73
2
 40
6.3499999999999996
 49
0.0
 74
0
 49
-6.3499999999999996
 74
0
  0
LTYPE
  5
32
100
AcDbSymbolTableRecord
100
AcDbLinetypeTableRecord
  2
DOT2
 70
0
  3
Dot (.5x) .....................................
 72
65
 73
2
 40
3.1749999999999998
 49
0.0
 74
0
 49
-3.1749999999999998
 74
0
  0
LTYPE
  5
33
100
AcDbSymbolTableRecord
100
AcDbLinetypeTableRecord
  2
DOTX2
 70
0
  3
Dot (2x) .  .  .  .  .  .  .  .  .  .  .  .  .
 72
65
 73
2
 40
12.6999999999999993
 49
0.0
 74
0
 49
-12.6999999999999993
 74
0
  0
LTYPE
  5
34
100
AcDbSymbolTableRecord
100
AcDbLinetypeTableRecord
  2
DASHED
 70
0
  3
Dashed __ __ __ __ __ __ __ __ __ __ __ __ __ _
 72
65
 73
2
 40
19.0500000000000007
 49
12.6999999999999993
 74
0
 49
-6.3499999999999996
 74
0
  0
LTYPE
  5
35
100
AcDbSymbolTableRecord
100
AcDbLinetypeTableRecord
  2
DASHED2
 70
0
  3
Dashed (.5x) _ _ _ _ _ _ _ _ _ _ _ _ _ _ _ _ _
 72
65
 73
2
 40
9.5250000000000004
 49
6.3499999999999996
 74
0
 49
-3.1749999999999998
 74
0
  0
LTYPE
  5
36
100
AcDbSymbolTableRecord
100
AcDbLinetypeTableRecord
  2
DASHEDX2
 70
0
  3
Dashed (2x) ____  ____  ____  ____  ____  ___
 72
65
 73
2
 40
38.1000000000000014
 49
25.3999999999999986
 74
0
 49
-12.6999999999999993
 74
0
  0
LTYPE
  5
37
100
AcDbSymbolTableRecord
100
AcDbLinetypeTableRecord
  2
DASHDOT
 70
0
  3
Dash dot __ . __ . __ . __ . __ . __ . __ . __
 72
65
 73
4
 40
25.3999999999999986
 49
12.6999999999999993
 74
0
 49
-6.3499999999999996
 74
0
 49
0.0
 74
0
 49
-6.3499999999999996
 74
0
  0
LTYPE
  5
38
100
AcDbSymbolTableRecord
100
AcDbLinetypeTableRecord
  2
DASHDOT2
 70
0
  3
Dash dot (.5x) _._._._._._._._._._._._._._._.
 72
65
 73
4
 40
12.6999999999999993
 49
6.3499999999999996
 74
0
 49
-3.1749999999999998
 74
0
 49
0.0
 74
0
 49
-3.1749999999999998
 74
0
  0
LTYPE
  5
39
100
AcDbSymbolTableRecord
100
AcDbLinetypeTableRecord
  2
DASHDOTX2
 70
0
  3
Dash dot (2x) ____  .  ____  .  ____  .  ___
 72
65
 73
4
 40
50.7999999999999972
 49
25.3999999999999986
 74
0
 49
-12.6999999999999993
 74
0
 49
0.0
 74
0
 49
-12.6999999999999993
 74
0
  0
LTYPE
  5
3A
100
AcDbSymbolTableRecord
100
AcDbLinetypeTableRecord
  2
DIVIDE
 70
0
  3
Divide ____ . . ____ . . ____ . . ____ . . ____
 72
65
 73
6
 40
31.75
 49
12.6999999999999993
 74
0
 49
-6.3499999999999996
 74
0
 49
0.0
 74
0
 49
-6.3499999999999996
 74
0
 49
0.0
 74
0
 49
-6.3499999999999996
 74
0
  0
LTYPE
  5
3B
100
AcDbSymbolTableRecord
100
AcDbLinetypeTableRecord
  2
DIVIDE2
 70
0
  3
Divide (.5x) __..__..__..__..__..__..__..__.._
 72
65
 73
6
 40
15.875
 49
6.3499999999999996
 74
0
 49
-3.1749999999999998
 74
0
 49
0.0
 74
0
 49
-3.1749999999999998
 74
0
 49
0.0
 74
0
 49
-3.1749999999999998
 74
0
  0
LTYPE
  5
3C
100
AcDbSymbolTableRecord
100
AcDbLinetypeTableRecord
  2
DIVIDEX2
 70
0
  3
Divide (2x) ________  .  .  ________  .  .  _
 72
65
 73
6
 40
63.5
 49
25.3999999999999986
 74
0
 49
-12.6999999999999993
 74
0
 49
0.0
 74
0
 49
-12.6999999999999993
 74
0
 49
0.0
 74
0
 49
-12.6999999999999993
 74
0
  0
LTYPE
  5
3D
100
AcDbSymbolTableRecord
100
AcDbLinetypeTableRecord
  2
CENTER
 70
0
  3
Center ____ _ ____ _ ____ _ ____ _ ____ _ ____
 72
65
 73
4
 40
50.7999999999999972
 49
31.75
 74
0
 49
-6.3499999999999996
 74
0
 49
6.3499999999999996
 74
0
 49
-6.3499999999999996
 74
0
  0
LTYPE
  5
3E
100
AcDbSymbolTableRecord
100
AcDbLinetypeTableRecord
  2
CENTER2
 70
0
  3
Center (.5x) ___ _ ___ _ ___ _ ___ _ ___ _ ___
 72
65
 73
4
 40
28.5749999999999993
 49
19.0500000000000007
 74
0
 49
-3.1749999999999998
 74
0
 49
3.1749999999999998
 74
0
 49
-3.1749999999999998
 74
0
  0
LTYPE
  5
3F
100
AcDbSymbolTableRecord
100
AcDbLinetypeTableRecord
  2
CENTERX2
 70
0
  3
Center (2x) ________  __  ________  __  _____
 72
65
 73
4
 40
101.5999999999999943
 49
63.5
 74
0
 49
-12.6999999999999993
 74
0
 49
12.6999999999999993
 74
0
 49
-12.6999999999999993
 74
0
  0
LTYPE
  5
40
100
AcDbSymbolTableRecord
100
AcDbLinetypeTableRecord
  2
BORDER
 70
0
  3
Border __ __ . __ __ . __ __ . __ __ . __ __ .
 72
65
 73
6
 40
44.4500000000000028
 49
12.6999999999999993
 74
0
 49
-6.3499999999999996
 74
0
 49
12.6999999999999993
 74
0
 49
-6.3499999999999996
 74
0
 49
0.0
 74
0
 49
-6.3499999999999996
 74
0
  0
LTYPE
  5
41
100
AcDbSymbolTableRecord
100
AcDbLinetypeTableRecord
  2
BORDER2
 70
0
  3
Border (.5x) __.__.__.__.__.__.__.__.__.__.__.
 72
65
 73
6
 40
22.2250000000000014
 49
6.3499999999999996
 74
0
 49
-3.1749999999999998
 74
0
 49
6.3499999999999996
 74
0
 49
-3.1749999999999998
 74
0
 49
0.0
 74
0
 49
-3.1749999999999998
 74
0
  0
LTYPE
  5
42
100
AcDbSymbolTableRecord
100
AcDbLinetypeTableRecord
  2
BORDERX2
 70
0
  3
Border (2x) ____  ____  .  ____  ____  .  ___
 72
65
 73
6
 40
88.9000000000000057
 49
25.3999999999999986
 74
0
 49
-12.6999999999999993
 74
0
 49
25.3999999999999986
 74
0
 49
-12.6999999999999993
 74
0
 49
0.0
 74
0
 49
-12.6999999999999993
 74
0
  0
ENDTAB
  0
TABLE
  2
LAYER
  5
2
100
AcDbSymbolTable
 70
9
  0
LAYER
  5
10
100
AcDbSymbolTableRecord
100
AcDbLayerTableRecord
  2
0
 70
0
 62
7
420
16777215
  6
CONTINUOUS
370
0
390
F
  0
LAYER
  5
43
100
AcDbSymbolTableRecord
100
AcDbLayerTableRecord
  2
Bottom
 70
0
 62
7
420
16777215
  6
CONTINUOUS
370
0
390
F
  0
LAYER
  5
44
100
AcDbSymbolTableRecord
100
AcDbLayerTableRecord
  2
Bottom Text
 70
0
 62
4
420
65535
  6
CONTINUOUS
370
0
390
F
  0
LAYER
  5
45
100
AcDbSymbolTableRecord
100
AcDbLayerTableRecord
  2
Top
 70
0
 62
7
420
16777215
  6
CONTINUOUS
370
0
390
F
  0
LAYER
  5
46
100
AcDbSymbolTableRecord
100
AcDbLayerTableRecord
  2
Top Text
 70
0
 62
4
420
65535
  6
CONTINUOUS
370
0
390
F
  0
LAYER
  5
47
100
AcDbSymbolTableRecord
100
AcDbLayerTableRecord
  2
Notes
 70
0
 62
7
420
16777215
  6
CONTINUOUS
370
0
390
F
  0
LAYER
  5
48
100
AcDbSymbolTableRecord
100
AcDbLayerTableRecord
  2
Text
 70
0
 62
4
420
65535
  6
CONTINUOUS
370
0
390
F
  0
LAYER
  5
49
100
AcDbSymbolTableRecord
100
AcDbLayerTableRecord
  2
Main Plate Top Layer
 70
0
 62
7
420
0
  6
CONTINUOUS
370
0
390
F
  0
LAYER
  5
4A
100
AcDbSymbolTableRecord
100
AcDbLayerTableRecord
  2
Main Plate Top Text
 70
0
 62
4
420
65535
  6
CONTINUOUS
370
0
390
F
  0
ENDTAB
  0
TABLE
  2
STYLE
  5
3
100
AcDbSymbolTable
 70
1
  0
STYLE
  5
11
100
AcDbSymbolTableRecord
100
AcDbTextStyleTableRecord
  2
Standard
 70
0
 40
0.0
 41
0.75
 50
0.0
 71
0
 42
2.5
  3
txt
  4

  0
ENDTAB
  0
TABLE
  2
VIEW
  5
6
100
AcDbSymbolTable
 70
0
  0
ENDTAB
  0
TABLE
  2
UCS
  5
7
100
AcDbSymbolTable
 70
0
  0
ENDTAB
  0
TABLE
  2
APPID
  5
9
100
AcDbSymbolTable
 70
1
  0
APPID
  5
12
100
AcDbSymbolTableRecord
100
AcDbRegAppTableRecord
  2
ACAD
 70
0
  0
ENDTAB
  0
TABLE
  2
DIMSTYLE
  5
A
100
AcDbSymbolTable
 70
1
100
AcDbDimStyleTable
 71
0
  0
DIMSTYLE
105
27
100
AcDbSymbolTableRecord
100
AcDbDimStyleTableRecord
  2
Standard
 41
2.5
 42
0.625
 43
3.75
 44
1.25
 70
0
 73
0
 74
0
 77
1
 78
8
140
2.5
141
2.5
143
0.03937007874016
147
0.625
171
3
172
1
271
2
272
2
274
3
278
44
283
0
284
8
340
11
  0
ENDTAB
  0
TABLE
  2
BLOCK_RECORD
  5
1
100
AcDbSymbolTable
 70
1
  0
BLOCK_RECORD
  5
1F
100
AcDbSymbolTableRecord
100
AcDbBlockTableRecord
  2
*Model_Space
340
22
  0
BLOCK_RECORD
  5
1B
100
AcDbSymbolTableRecord
100
AcDbBlockTableRecord
  2
*Paper_Space
340
1E
  0
BLOCK_RECORD
  5
23
100
AcDbSymbolTableRecord
100
AcDbBlockTableRecord
  2
*Paper_Space0
340
26
  0
ENDTAB
  0
ENDSEC
  0
SECTION
  2
BLOCKS
  0
BLOCK
  5
20
100
AcDbEntity
  8
0
100
AcDbBlockBegin
  2
*Model_Space
 70
0
 10
0.0
 20
0.0
 30
0.0
  3
*Model_Space
  1

  0
ENDBLK
  5
21
100
AcDbEntity
  8
0
100
AcDbBlockEnd
  0
BLOCK
  5
1C
100
AcDbEntity
 67
1
  8
0
100
AcDbBlockBegin
  2
*Paper_Space
 70
0
 10
0.0
 20
0.0
 30
0.0
  3
*Paper_Space
  1

  0
ENDBLK
  5
1D
100
AcDbEntity
 67
1
  8
0
100
AcDbBlockEnd
  0
BLOCK
  5
24
100
AcDbEntity
  8
0
100
AcDbBlockBegin
  2
*Paper_Space0
 70
0
 10
0.0
 20
0.0
 30
0.0
  3
*Paper_Space0
  1

  0
ENDBLK
  5
25
100
AcDbEntity
  8
0
100
AcDbBlockEnd
  0
ENDSEC
  0
SECTION
  2
ENTITIES
  0
LINE
  5
4B
100
AcDbEntity
100
AcDbLine
  8
Main Plate Top Layer
 62
256
370
-1
  6
ByLayer
 10
52.8506344040277298
 20
11.6830178228066082
 30
0.0
 11
45.333093437740402
 21
8.9468566762012216
 31
0.0
  0
LINE
  5
4C
100
AcDbEntity
100
AcDbLine
  8
Main Plate Top Layer
 62
256
370
-1
  6
ByLayer
 10
46.4282662097149199
 20
61.4901778178984273
 30
0.0
 11
44.3761453497609324
 21
67.1283335426139161
 31
0.0
  0
LINE
  5
4D
100
AcDbEntity
100
AcDbLine
  8
Main Plate Top Layer
 62
256
370
-1
  6
ByLayer
 10
50.0143010744763643
 20
69.1804544025679462
 30
0.0
 11
52.0664219344303518
 21
63.5422986778524503
 31
0.0
  0
LINE
  5
4E
100
AcDbEntity
100
AcDbLine
  8
Main Plate Top Layer
 62
256
370
-1
  6
ByLayer
 10
63.7008777041851459
 20
43.2721117634600034
 30
0.0
 11
53.7730715576199572
 21
70.5485349758706093
 31
0.0
  0
LINE
  5
4F
100
AcDbEntity
100
AcDbLine
  8
Main Plate Top Layer
 62
256
370
-1
  6
ByLayer
 10
69.1285418334532977
 20
1.7416445902057944
 30
0.0
 11
69.1285418334533972
 21
12.4902988641498034
 31
0.0
  0
LINE
  5
50
100
AcDbEntity
100
AcDbLine
  8
Main Plate Top Layer
 62
256
370
-1
  6
ByLayer
 10
63.1285418334533972
 20
1.7416445902058086
 30
0.0
 11
69.1285418334532977
 21
1.7416445902057944
 31
0.0
  0
LINE
  5
51
100
AcDbEntity
100
AcDbLine
  8
Main Plate Top Layer
 62
256
370
-1
  6
ByLayer
 10
63.1285418334533972
 20
9.7416445902058584
 30
0.0
 11
63.1285418334533972
 21
1.7416445902058086
 31
0.0
  0
LINE
  5
52
100
AcDbEntity
100
AcDbLine
  8
Main Plate Top Layer
 62
256
370
-1
  6
ByLayer
 10
57.1285418334533404
 20
1.7416445902057873
 30
0.0
 11
57.128541833453454
 21
9.7416445902058584
 31
0.0
  0
LINE
  5
53
100
AcDbEntity
100
AcDbLine
  8
Main Plate Top Layer
 62
256
370
-1
  6
ByLayer
 10
31.128541833453319
 20
1.7416445902058513
 30
0.0
 11
57.1285418334533404
 21
1.7416445902057873
 31
0.0
  0
LINE
  5
54
100
AcDbEntity
100
AcDbLine
  8
Main Plate Top Layer
 62
256
370
-1
  6
ByLayer
 10
31.1285418334533404
 20
9.7416445902058371
 30
0.0
 11
31.128541833453319
 21
1.7416445902058513
 31
0.0
  0
LINE
  5
55
100
AcDbEntity
100
AcDbLine
  8
Main Plate Top Layer
 62
256
370
-1
  6
ByLayer
 10
25.1285418334534256
 20
1.7416445902058513
 30
0.0
 11
25.1285418334534221
 21
9.7416445902058193
 31
0.0
  0
LINE
  5
56
100
AcDbEntity
100
AcDbLine
  8
Main Plate Top Layer
 62
256
370
-1
  6
ByLayer
 10
19.1285418334533794
 20
1.7416445902058584
 30
0.0
 11
25.1285418334534256
 21
1.7416445902058513
 31
0.0
  0
LINE
  5
57
100
AcDbEntity
100
AcDbLine
  8
Main Plate Top Layer
 62
256
370
-1
  6
ByLayer
 10
19.1285418334533901
 20
3.6739498287265491
 30
0.0
 11
19.1285418334533794
 21
1.7416445902058584
 31
0.0
  0
LINE
  5
58
100
AcDbEntity
100
AcDbLine
  8
Main Plate Top Layer
 62
256
370
-1
  6
ByLayer
 10
12.5993318614222076
 20
49.1774526581743601
 30
0.0
 11
10.5472110014682521
 21
54.8156083828898346
 31
0.0
  0
LINE
  5
59
100
AcDbEntity
100
AcDbLine
  8
Main Plate Top Layer
 62
256
370
-1
  6
ByLayer
 10
16.1853667261836343
 20
56.8677292428438506
 30
0.0
 11
18.2374875861375969
 21
51.2295735181284329
 31
0.0
  0
ARC
  5
5A
100
AcDbEntity
  8
Main Plate Top Layer
 62
256
370
-1
  6
ByLayer
100
AcDbCircle
 10
45.1278813517450317
 20
9.5106722486727655
 30
0.0
 40
0.599999999999996
100
AcDbArc
 50
199.9999999999997158
 51
289.9999999999998863
  0
ARC
  5
5B
100
AcDbEntity
  8
Main Plate Top Layer
 62
256
370
-1
  6
ByLayer
100
AcDbCircle
 10
52.6454223180323169
 20
12.2468333952781165
 30
0.0
 40
0.5999999999999983
100
AcDbArc
 50
289.9999999999998295
 51
20.000000000000103
  0
ARC
  5
5C
100
AcDbEntity
  8
Main Plate Top Layer
 62
256
370
-1
  6
ByLayer
100
AcDbCircle
 10
-20.8714581665460415
 20
12.4902988641500379
 30
0.0
 40
89.9999999999993463
100
AcDbArc
 50
0.0
 51
20.000000000000103
  0
ARC
  5
5D
100
AcDbEntity
  8
Main Plate Top Layer
 62
256
370
-1
  6
ByLayer
100
AcDbCircle
 10
-70.8714581665462617
 20
3.6739498287284107
 30
0.0
 40
89.9999999999996447
100
AcDbArc
 50
0.0
 51
20.000000000000103
  0
LINE
  5
5E
100
AcDbEntity
100
AcDbLine
  8
Main Plate Top Layer
 62
256
370
-1
  6
ByLayer
 10
6.7884405183246415
 20
53.4475278095871502
 30
0.0
 11
13.7008777041852312
 21
34.4557627280367456
 31
0.0
  0
MTEXT
  5
5F
100
AcDbEntity
100
AcDbMText
  8
Main Plate Top Text
 62
256
370
-1
  6
ByLayer
 10
59.8296901241451877
 20
44.4258786707127769
 30
0.0
 40
2.0
 41
100.0
 71
3
 72
2
  1
Main\~Plate\PTop
  7
standard
 50
360.0
 73
1
 44
1.0
  0
LINE
  5
60
100
AcDbEntity
100
AcDbLine
  8
Main Plate Top Layer
 62
256
370
-1
  6
ByLayer
 10
39.0496039568212012
 20
51.3553199818101405
 30
0.0
 11
53.2092378905038146
 21
12.4520454812735544
 31
0.0
  0
LINE
  5
61
100
AcDbEntity
100
AcDbLine
  8
Main Plate Top Layer
 62
256
370
-1
  6
ByLayer
 10
39.0496039568211444
 20
51.355319981810112
 30
0.0
 11
42.3385281295718272
 21
52.5523904834499405
 31
0.0
  0
LINE
  5
62
100
AcDbEntity
100
AcDbLine
  8
Main Plate Top Layer
 62
256
370
-1
  6
ByLayer
 10
42.3385281295718272
 20
52.5523904834499405
 30
0.0
 11
37.892266266338126
 21
64.7683945536667807
 31
0.0
  0
LINE
  5
63
100
AcDbEntity
100
AcDbLine
  8
Main Plate Top Layer
 62
256
370
-1
  6
ByLayer
 10
37.892266266338126
 20
64.7683945536667807
 30
0.0
 11
44.376145349760904
 21
67.1283335426139161
 31
0.0
  0
LINE
  5
64
100
AcDbEntity
100
AcDbLine
  8
Main Plate Top Layer
 62
256
370
-1
  6
ByLayer
 10
30.4044318455907927
 20
48.2087346632139599
 30
0.0
 11
27.1155076728401134
 21
47.0116641615741457
 31
0.0
  0
LINE
  5
65
100
AcDbEntity
100
AcDbLine
  8
Main Plate Top Layer
 62
256
370
-1
  6
ByLayer
 10
27.1155076728401134
 20
47.0116641615741457
 30
0.0
 11
22.6692458096064122
 21
59.2276682317909788
 31
0.0
  0
LINE
  5
66
100
AcDbEntity
100
AcDbLine
  8
Main Plate Top Layer
 62
256
370
-1
  6
ByLayer
 10
22.6692458096064122
 20
59.2276682317909788
 30
0.0
 11
16.1853667261836343
 21
56.8677292428438506
 31
0.0
  0
LINE
  5
67
100
AcDbEntity
100
AcDbLine
  8
Main Plate Top Layer
 62
256
370
-1
  6
ByLayer
 10
10.5472110014682521
 20
54.8156083828898346
 30
0.0
 11
6.7884405183246415
 21
53.4475278095871502
 31
0.0
  0
LINE
  5
68
100
AcDbEntity
100
AcDbLine
  8
Main Plate Top Layer
 62
256
370
-1
  6
ByLayer
 10
53.7730715576199572
 20
70.5485349758706093
 30
0.0
 11
50.0143010744763643
 21
69.1804544025679462
 31
0.0
  0
LINE
  5
69
100
AcDbEntity
100
AcDbLine
  8
Main Plate Top Layer
 62
256
370
-1
  6
ByLayer
 10
30.4044318455907927
 20
48.2087346632139599
 30
0.0
 11
44.5640657792734558
 21
9.3054601626773454
 31
0.0
  0
LINE
  5
6A
100
AcDbEntity
100
AcDbLine
  8
Main Plate Top Layer
 62
256
370
-1
  6
ByLayer
 10
62.6285418334529496
 20
32.6269786101988402
 30
0.0
 11
65.3785418334529425
 21
31.039265610198818
 31
0.0
  0
LINE
  5
6B
100
AcDbEntity
100
AcDbLine
  8
Main Plate Top Layer
 62
256
370
-1
  6
ByLayer
 10
65.3785418334529425
 20
31.039265610198818
 30
0.0
 11
65.3785418334529425
 21
27.8638396101988199
 31
0.0
  0
LINE
  5
6C
100
AcDbEntity
100
AcDbLine
  8
Main Plate Top Layer
 62
256
370
-1
  6
ByLayer
 10
65.3785418334529425
 20
27.8638396101988199
 30
0.0
 11
62.6285418334529425
 21
26.2761266101988156
 31
0.0
  0
LINE
  5
6D
100
AcDbEntity
100
AcDbLine
  8
Main Plate Top Layer
 62
256
370
-1
  6
ByLayer
 10
59.8785418334529425
 20
27.8638396101988377
 30
0.0
 11
62.6285418334529425
 21
26.2761266101988156
 31
0.0
  0
LINE
  5
6E
100
AcDbEntity
100
AcDbLine
  8
Main Plate Top Layer
 62
256
370
-1
  6
ByLayer
 10
59.8785418334529567
 20
31.039265610198818
 30
0.0
 11
59.8785418334529425
 21
27.8638396101988377
 31
0.0
  0
LINE
  5
6F
100
AcDbEntity
100
AcDbLine
  8
Main Plate Top Layer
 62
256
370
-1
  6
ByLayer
 10
62.6285418334529496
 20
32.6269786101988402
 30
0.0
 11
59.8785418334529567
 21
31.039265610198818
 31
0.0
  0
LINE
  5
70
100
AcDbEntity
100
AcDbLine
  8
Main Plate Top Layer
 62
256
370
-1
  6
ByLayer
 10
11.7536085027149504
 20
48.8696345291812548
 30
0.0
 11
12.5993318614222076
 21
49.1774526581743601
 31
0.0
  0
LINE
  5
71
100
AcDbEntity
100
AcDbLine
  8
Main Plate Top Layer
 62
256
370
-1
  6
ByLayer
 10
18.2374875861375969
 20
51.2295735181284329
 30
0.0
 11
19.0832109448450282
 21
51.5373916471212539
 31
0.0
  0
LINE
  5
72
100
AcDbEntity
100
AcDbLine
  8
Main Plate Top Layer
 62
256
370
-1
  6
ByLayer
 10
19.0832109448450282
 20
51.5373916471212539
 30
0.0
 11
20.4512915181474995
 21
47.77862116397813
 31
0.0
  0
LINE
  5
73
100
AcDbEntity
100
AcDbLine
  8
Main Plate Top Layer
 62
256
370
-1
  6
ByLayer
 10
20.4512915181474995
 20
47.77862116397813
 30
0.0
 11
19.6055681594403239
 21
47.4708030349846979
 31
0.0
  0
LINE
  5
74
100
AcDbEntity
100
AcDbLine
  8
Main Plate Top Layer
 62
256
370
-1
  6
ByLayer
 10
13.1216890760176241
 20
45.1108640460375341
 30
0.0
 11
11.7536085027149504
 21
48.8696345291812548
 31
0.0
  0
LINE
  5
75
100
AcDbEntity
100
AcDbLine
  8
Main Plate Top Layer
 62
256
370
-1
  6
ByLayer
 10
13.9674124347248885
 20
45.4186821750307459
 30
0.0
 11
13.1216890760176241
 21
45.1108640460375341
 31
0.0
  0
LINE
  5
76
100
AcDbEntity
100
AcDbLine
  8
Main Plate Top Layer
 62
256
370
-1
  6
ByLayer
 10
45.5825428510075739
 20
61.1823596889053221
 30
0.0
 11
46.4282662097149199
 21
61.4901778178984273
 31
0.0
  0
LINE
  5
77
100
AcDbEntity
100
AcDbLine
  8
Main Plate Top Layer
 62
256
370
-1
  6
ByLayer
 10
47.7963467830175972
 20
57.7314073347547918
 30
0.0
 11
46.9506234243102796
 21
57.4235892057617292
 31
0.0
  0
LINE
  5
78
100
AcDbEntity
100
AcDbLine
  8
Main Plate Top Layer
 62
256
370
-1
  6
ByLayer
 10
46.9506234243102796
 20
57.4235892057617292
 30
0.0
 11
45.5825428510075739
 21
61.1823596889053221
 31
0.0
  0
LINE
  5
79
100
AcDbEntity
100
AcDbLine
  8
Main Plate Top Layer
 62
256
370
-1
  6
ByLayer
 10
54.2802258664403183
 20
60.0913463237020338
 30
0.0
 11
53.4345025077330291
 21
59.783528194708822
 31
0.0
  0
LINE
  5
7A
100
AcDbEntity
100
AcDbLine
  8
Main Plate Top Layer
 62
256
370
-1
  6
ByLayer
 10
52.0664219344303518
 20
63.5422986778524503
 30
0.0
 11
52.9121452931376126
 21
63.8501168068456266
 31
0.0
  0
LINE
  5
7B
100
AcDbEntity
100
AcDbLine
  8
Main Plate Top Layer
 62
256
370
-1
  6
ByLayer
 10
52.9121452931376126
 20
63.8501168068456266
 30
0.0
 11
54.2802258664403183
 21
60.0913463237020338
 31
0.0
  0
LINE
  5
7C
100
AcDbEntity
100
AcDbLine
  8
Main Plate Top Layer
 62
256
370
-1
  6
ByLayer
 10
14.9934728647020989
 20
42.5996043126730797
 30
0.0
 11
13.9674124347248885
 21
45.4186821750307459
 31
0.0
  0
LINE
  5
7D
100
AcDbEntity
100
AcDbLine
  8
Main Plate Top Layer
 62
256
370
-1
  6
ByLayer
 10
20.6316285894174172
 20
44.651725172627124
 30
0.0
 11
14.9934728647020989
 21
42.5996043126730797
 31
0.0
  0
LINE
  5
7E
100
AcDbEntity
100
AcDbLine
  8
Main Plate Top Layer
 62
256
370
-1
  6
ByLayer
 10
19.6055681594403239
 20
47.4708030349846979
 30
0.0
 11
20.6316285894174172
 21
44.651725172627124
 31
0.0
  0
LINE
  5
7F
100
AcDbEntity
100
AcDbLine
  8
Main Plate Top Layer
 62
256
370
-1
  6
ByLayer
 10
48.8224072129945768
 20
54.9123294723971043
 30
0.0
 11
47.7963467830175972
 21
57.7314073347547918
 31
0.0
  0
LINE
  5
80
100
AcDbEntity
100
AcDbLine
  8
Main Plate Top Layer
 62
256
370
-1
  6
ByLayer
 10
54.4605629377099802
 20
56.9644503323511486
 30
0.0
 11
48.8224072129945768
 21
54.9123294723971043
 31
0.0
  0
LINE
  5
81
100
AcDbEntity
100
AcDbLine
  8
Main Plate Top Layer
 62
256
370
-1
  6
ByLayer
 10
53.4345025077330291
 20
59.783528194708822
 30
0.0
 11
54.4605629377099802
 21
56.9644503323511486
 31
0.0
  0
LINE
  5
82
100
AcDbEntity
100
AcDbLine
  8
Main Plate Top Layer
 62
256
370
-1
  6
ByLayer
 10
24.2285418334533666
 20
13.7416445902055777
 30
0.0
 11
25.1285418334533759
 21
13.7416445902058832
 31
0.0
  0
LINE
  5
83
100
AcDbEntity
100
AcDbLine
  8
Main Plate Top Layer
 62
256
370
-1
  6
ByLayer
 10
25.1285418334534221
 20
9.7416445902058193
 30
0.0
 11
24.2285418334533844
 21
9.7416445902055138
 31
0.0
  0
LINE
  5
84
100
AcDbEntity
100
AcDbLine
  8
Main Plate Top Layer
 62
256
370
-1
  6
ByLayer
 10
24.2285418334533844
 20
9.7416445902055138
 30
0.0
 11
24.2285418334533666
 21
13.7416445902055777
 31
0.0
  0
LINE
  5
85
100
AcDbEntity
100
AcDbLine
  8
Main Plate Top Layer
 62
256
370
-1
  6
ByLayer
 10
25.1285418334533759
 20
13.7416445902058832
 30
0.0
 11
25.1285418334533617
 21
15.7416445902058619
 31
0.0
  0
LINE
  5
86
100
AcDbEntity
100
AcDbLine
  8
Main Plate Top Layer
 62
256
370
-1
  6
ByLayer
 10
31.1285418334534008
 20
15.7416445902058868
 30
0.0
 11
25.1285418334533617
 21
15.7416445902058619
 31
0.0
  0
LINE
  5
87
100
AcDbEntity
100
AcDbLine
  8
Main Plate Top Layer
 62
256
370
-1
  6
ByLayer
 10
31.1285418334534008
 20
15.7416445902058868
 30
0.0
 11
31.1285418334534008
 21
13.7416445902058655
 31
0.0
  0
LINE
  5
88
100
AcDbEntity
100
AcDbLine
  8
Main Plate Top Layer
 62
256
370
-1
  6
ByLayer
 10
31.1285418334534008
 20
13.7416445902058655
 30
0.0
 11
32.0285418334533816
 21
13.7416445902059365
 31
0.0
  0
LINE
  5
89
100
AcDbEntity
100
AcDbLine
  8
Main Plate Top Layer
 62
256
370
-1
  6
ByLayer
 10
32.0285418334533816
 20
13.7416445902059365
 30
0.0
 11
32.0285418334533745
 21
9.741644590205965
 31
0.0
  0
LINE
  5
8A
100
AcDbEntity
100
AcDbLine
  8
Main Plate Top Layer
 62
256
370
-1
  6
ByLayer
 10
32.0285418334533745
 20
9.741644590205965
 30
0.0
 11
31.1285418334533404
 21
9.7416445902058371
 31
0.0
  0
LINE
  5
8B
100
AcDbEntity
100
AcDbLine
  8
Main Plate Top Layer
 62
256
370
-1
  6
ByLayer
 10
57.1285418334534256
 20
13.741644590205869
 30
0.0
 11
57.1285418334532906
 21
15.7416445902058406
 31
0.0
  0
LINE
  5
8C
100
AcDbEntity
100
AcDbLine
  8
Main Plate Top Layer
 62
256
370
-1
  6
ByLayer
 10
57.1285418334532906
 20
15.7416445902058406
 30
0.0
 11
63.1285418334533901
 21
15.74164459020583
 31
0.0
  0
LINE
  5
8D
100
AcDbEntity
100
AcDbLine
  8
Main Plate Top Layer
 62
256
370
-1
  6
ByLayer
 10
63.1285418334533901
 20
15.74164459020583
 30
0.0
 11
63.128541833453383
 21
13.7416445902058726
 31
0.0
  0
LINE
  5
8E
100
AcDbEntity
100
AcDbLine
  8
Main Plate Top Layer
 62
256
370
-1
  6
ByLayer
 10
56.2285418334534342
 20
13.7416445902058371
 30
0.0
 11
57.1285418334534256
 21
13.741644590205869
 31
0.0
  0
LINE
  5
8F
100
AcDbEntity
100
AcDbLine
  8
Main Plate Top Layer
 62
256
370
-1
  6
ByLayer
 10
57.128541833453454
 20
9.7416445902058584
 30
0.0
 11
56.2285418334533063
 21
9.7416445902058655
 31
0.0
  0
LINE
  5
90
100
AcDbEntity
100
AcDbLine
  8
Main Plate Top Layer
 62
256
370
-1
  6
ByLayer
 10
56.2285418334533063
 20
9.7416445902058655
 30
0.0
 11
56.2285418334534342
 21
13.7416445902058371
 31
0.0
  0
LINE
  5
91
100
AcDbEntity
100
AcDbLine
  8
Main Plate Top Layer
 62
256
370
-1
  6
ByLayer
 10
64.0285418334534029
 20
9.7416445902058975
 30
0.0
 11
63.1285418334533972
 21
9.7416445902058584
 31
0.0
  0
LINE
  5
92
100
AcDbEntity
100
AcDbLine
  8
Main Plate Top Layer
 62
256
370
-1
  6
ByLayer
 10
63.128541833453383
 20
13.7416445902058726
 30
0.0
 11
64.0285418334533887
 21
13.7416445902059223
 31
0.0
  0
LINE
  5
93
100
AcDbEntity
100
AcDbLine
  8
Main Plate Top Layer
 62
256
370
-1
  6
ByLayer
 10
64.0285418334533887
 20
13.7416445902059223
 30
0.0
 11
64.0285418334534029
 21
9.7416445902058975
 31
0.0
  0
LINE
  5
94
100
AcDbEntity
100
AcDbLine
  8
Main Plate Top Layer
 62
256
370
-1
  6
ByLayer
 10
61.0408288334531193
 20
21.2015521940364522
 30
0.0
 11
64.2162551938603343
 21
21.2015524021176276
 31
0.0
  0
LINE
  5
95
100
AcDbEntity
100
AcDbLine
  8
Main Plate Top Layer
 62
256
370
-1
  6
ByLayer
 10
64.2162551938603343
 20
21.2015524021176276
 30
0.0
 11
65.803968193860328
 21
18.4515528182800104
 31
0.0
  0
LINE
  5
96
100
AcDbEntity
100
AcDbLine
  8
Main Plate Top Layer
 62
256
370
-1
  6
ByLayer
 10
65.803968193860328
 20
18.4515528182800104
 30
0.0
 11
64.2162548334531209
 21
15.7015530263612177
 31
0.0
  0
LINE
  5
97
100
AcDbEntity
100
AcDbLine
  8
Main Plate Top Layer
 62
256
370
-1
  6
ByLayer
 10
61.040828473045913
 20
15.701552818280053
 30
0.0
 11
64.2162548334531209
 21
15.7015530263612177
 31
0.0
  0
LINE
  5
98
100
AcDbEntity
100
AcDbLine
  8
Main Plate Top Layer
 62
256
370
-1
  6
ByLayer
 10
59.4531154730459406
 20
18.4515524021176311
 30
0.0
 11
61.040828473045913
 21
15.701552818280053
 31
0.0
  0
LINE
  5
99
100
AcDbEntity
100
AcDbLine
  8
Main Plate Top Layer
 62
256
370
-1
  6
ByLayer
 10
61.0408288334531193
 20
21.2015521940364522
 30
0.0
 11
59.4531154730459406
 21
18.4515524021176311
 31
0.0
  0
LINE
  5
9A
100
AcDbEntity
100
AcDbLine
  8
Main Plate Top Layer
 62
256
370
-1
  6
ByLayer
 10
22.7285418334534768
 20
32.6269786101988686
 30
0.0
 11
25.4785418334534768
 21
31.03926561019885
 31
0.0
  0
LINE
  5
9B
100
AcDbEntity
100
AcDbLine
  8
Main Plate Top Layer
 62
256
370
-1
  6
ByLayer
 10
25.4785418334534768
 20
31.03926561019885
 30
0.0
 11
25.4785418334534697
 21
27.8638396101988448
 31
0.0
  0
LINE
  5
9C
100
AcDbEntity
100
AcDbLine
  8
Main Plate Top Layer
 62
256
370
-1
  6
ByLayer
 10
25.4785418334534697
 20
27.8638396101988448
 30
0.0
 11
22.7285418334534697
 21
26.2761266101988653
 31
0.0
  0
LINE
  5
9D
100
AcDbEntity
100
AcDbLine
  8
Main Plate Top Layer
 62
256
370
-1
  6
ByLayer
 10
19.9785418334534981
 20
27.8638396101988519
 30
0.0
 11
22.7285418334534697
 21
26.2761266101988653
 31
0.0
  0
LINE
  5
9E
100
AcDbEntity
100
AcDbLine
  8
Main Plate Top Layer
 62
256
370
-1
  6
ByLayer
 10
19.9785418334535052
 20
31.0392656101988536
 30
0.0
 11
19.9785418334534981
 21
27.8638396101988519
 31
0.0
  0
LINE
  5
9F
100
AcDbEntity
100
AcDbLine
  8
Main Plate Top Layer
 62
256
370
-1
  6
ByLayer
 10
22.7285418334534768
 20
32.6269786101988686
 30
0.0
 11
19.9785418334535052
 21
31.0392656101988536
 31
0.0
  0
LINE
  5
A0
100
AcDbEntity
100
AcDbLine
  8
Main Plate Top Layer
 62
256
370
-1
  6
ByLayer
 10
19.5531158334540223
 20
18.4515526101982097
 30
0.0
 11
21.140828833454016
 21
21.2015526101982026
 31
0.0
  0
LINE
  5
A1
100
AcDbEntity
100
AcDbLine
  8
Main Plate Top Layer
 62
256
370
-1
  6
ByLayer
 10
21.140828833454016
 20
21.2015526101982026
 30
0.0
 11
24.3162548334540389
 21
21.2015526101981919
 31
0.0
  0
LINE
  5
A2
100
AcDbEntity
100
AcDbLine
  8
Main Plate Top Layer
 62
256
370
-1
  6
ByLayer
 10
24.3162548334540389
 20
21.2015526101981919
 30
0.0
 11
25.9039678334540255
 21
18.4515526101981919
 31
0.0
  0
LINE
  5
A3
100
AcDbEntity
100
AcDbLine
  8
Main Plate Top Layer
 62
256
370
-1
  6
ByLayer
 10
24.3162548334540034
 20
15.701552610198199
 30
0.0
 11
25.9039678334540255
 21
18.4515526101981919
 31
0.0
  0
LINE
  5
A4
100
AcDbEntity
100
AcDbLine
  8
Main Plate Top Layer
 62
256
370
-1
  6
ByLayer
 10
21.1408288334540231
 20
15.7015526101982061
 30
0.0
 11
24.3162548334540034
 21
15.701552610198199
 31
0.0
  0
LINE
  5
A5
100
AcDbEntity
100
AcDbLine
  8
Main Plate Top Layer
 62
256
370
-1
  6
ByLayer
 10
19.5531158334540223
 20
18.4515526101982097
 30
0.0
 11
21.1408288334540231
 21
15.7015526101982061
 31
0.0
  0
CIRCLE
  5
A6
100
AcDbEntity
100
AcDbCircle
  8
Main Plate Top Layer
 62
256
370
-1
  6
ByLayer
 10
56.7884405183246201
 20
23.4475278095871289
 30
0.0
 40
1.45
  0
CIRCLE
  5
A7
100
AcDbEntity
100
AcDbCircle
  8
Main Plate Top Layer
 62
256
370
-1
  6
ByLayer
 10
30.510464092323236
 20
23.9515526101989735
 30
0.0
 40
1.45
  0
CIRCLE
  5
A8
100
AcDbEntity
100
AcDbCircle
  8
Main Plate Top Layer
 62
256
370
-1
  6
ByLayer
 10
53.7884405183246344
 20
47.447527809587541
 30
0.0
 40
1.45
  0
CIRCLE
  5
A9
100
AcDbEntity
100
AcDbCircle
  8
Main Plate Top Layer
 62
256
370
-1
  6
ByLayer
 10
51.7884405183244496
 20
6.4475278095866777
 30
0.0
 40
1.45
  0
CIRCLE
  5
AA
100
AcDbEntity
100
AcDbCircle
  8
Main Plate Top Layer
 62
256
370
-1
  6
ByLayer
 10
36.7884405183246486
 20
6.4475278095871396
 30
0.0
 40
1.45
  0
CIRCLE
  5
AB
100
AcDbEntity
100
AcDbCircle
  8
Main Plate Top Layer
 62
256
370
-1
  6
ByLayer
 10
24.7884405183245633
 20
40.9975278095870124
 30
0.0
 40
1.45
  0
CIRCLE
  5
AC
100
AcDbEntity
100
AcDbCircle
  8
Top
 62
256
370
-1
  6
ByLayer
 10
8.6057530704998868
 20
11.4712084736862323
 30
0.0
 40
3.999999999999992
  0
CIRCLE
  5
AD
100
AcDbEntity
100
AcDbCircle
  8
Top
 62
256
370
-1
  6
ByLayer
 10
8.6057530704998868
 20
11.4712084736862323
 30
0.0
 40
9.499999999999984
  0
MTEXT
  5
AE
100
AcDbEntity
100
AcDbMText
  8
Text
 62
256
370
-1
  6
ByLayer
 10
8.6057530704998939
 20
18.2212084736862288
 30
0.0
 40
2.0
 41
100.0
 71
5
 72
2
  1
Drive
  7
standard
 50
0.0
 73
1
 44
1.0
  0
MTEXT
  5
AF
100
AcDbEntity
100
AcDbMText
  8
Text
 62
256
370
-1
  6
ByLayer
 10
8.6057530704998833
 20
5.7506115223755145
 30
0.0
 40
2.0
 41
100.0
 71
5
 72
2
  1
Spacer
  7
standard
 50
0.0
 73
1
 44
1.0
  0
ENDSEC
  0
SECTION
  2
OBJECTS
  0
DICTIONARY
  5
C
100
AcDbDictionary
280
0
281
1
  3
ACAD_GROUP
350
D
  3
ACAD_LAYOUT
350
1A
  3
ACAD_MLINESTYLE
350
17
  3
ACAD_PLOTSETTINGS
350
19
  3
ACAD_PLOTSTYLENAME
350
E
  3
AcDbVariableDictionary
350
B0
  0
DICTIONARY
  5
D
100
AcDbDictionary
280
0
281
1
  0
ACDBDICTIONARYWDFLT
  5
E
100
AcDbDictionary
281
1
  3
Normal
350
F
100
AcDbDictionaryWithDefault
340
F
  0
ACDBPLACEHOLDER
  5
F
  0
DICTIONARY
  5
17
100
AcDbDictionary
280
0
281
1
  3
Standard
350
18
  0
MLINESTYLE
  5
18
100
AcDbMlineStyle
  2
STANDARD
 70
0
  3

 62
256
 51
90.0
 52
90.0
 71
2
 49
0.5
 62
256
  6
BYLAYER
 49
-0.5
 62
256
  6
BYLAYER
  0
DICTIONARY
  5
19
100
AcDbDictionary
280
0
281
1
  0
DICTIONARY
  5
1A
100
AcDbDictionary
281
1
  3
Layout1
350
1E
  3
Layout2
350
26
  3
Model
350
22
  0
LAYOUT
  5
1E
100
AcDbPlotSettings
  1

  2
C:\Program Files\AutoCAD 2002\plotters\DWF ePlot (optimized for plotting).pc3
  4

  6

 40
0.0
 41
0.0
 42
0.0
 43
0.0
 44
0.0
 45
0.0
 46
0.0
 47
0.0
 48
0.0
 49
0.0
140
0.0
141
0.0
142
1.0
143
1.0
 70
688
 72
0
 73
0
 74
5
  7

 75
16
147
1.0
148
0.0
149
0.0
100
AcDbLayout
  1
Layout1
 70
1
 71
1
 10
0.0
 20
0.0
 11
420.0
 21
297.0
 12
0.0
 22
0.0
 32
0.0
 14
100000000000000000000.0
 24
100000000000000000000.0
 34
100000000000000000000.0
 15
-100000000000000000000.0
 25
-100000000000000000000.0
 35
-100000000000000000000.0
146
0.0
 13
0.0
 23
0.0
 33
0.0
 16
1.0
 26
0.0
 36
0.0
 17
0.0
 27
1.0
 37
0.0
 76
0
330
1B
  0
LAYOUT
  5
22
100
AcDbPlotSettings
  1

  2
C:\Program Files\AutoCAD 2002\plotters\DWF ePlot (optimized for plotting).pc3
  4

  6

 40
0.0
 41
0.0
 42
0.0
 43
0.0
 44
0.0
 45
0.0
 46
0.0
 47
0.0
 48
0.0
 49
0.0
140
0.0
141
0.0
142
1.0
143
1.0
 70
1712
 72
0
 73
0
 74
0
  7

 75
0
147
1.0
148
0.0
149
0.0
100
AcDbLayout
  1
Model
 70
1
 71
0
 10
0.0
 20
0.0
 11
12.0
 21
9.0
 12
0.0
 22
0.0
 32
0.0
 14
0.0
 24
0.0
 34
0.0
 15
0.0
 25
0.0
 35
0.0
146
0.0
 13
0.0
 23
0.0
 33
0.0
 16
1.0
 26
0.0
 36
0.0
 17
0.0
 27
1.0
 37
0.0
 76
0
330
1F
  0
LAYOUT
  5
26
100
AcDbPlotSettings
  1

  2
C:\Program Files\AutoCAD 2002\plotters\DWF ePlot (optimized for plotting).pc3
  4

  6

 40
0.0
 41
0.0
 42
0.0
 43
0.0
 44
0.0
 45
0.0
 46
0.0
 47
0.0
 48
0.0
 49
0.0
140
0.0
141
0.0
142
1.0
143
1.0
 70
688
 72
0
 73
0
 74
5
  7

 75
16
147
1.0
148
0.0
149
0.0
100
AcDbLayout
  1
Layout2
 70
1
 71
2
 10
0.0
 20
0.0
 11
12.0
 21
9.0
 12
0.0
 22
0.0
 32
0.0
 14
0.0
 24
0.0
 34
0.0
 15
0.0
 25
0.0
 35
0.0
146
0.0
 13
0.0
 23
0.0
 33
0.0
 16
1.0
 26
0.0
 36
0.0
 17
0.0
 27
1.0
 37
0.0
 76
0
330
23
  0
DICTIONARY
  5
B0
100
AcDbDictionary
281
1
  3
DIMASSOC
350
B2
  3
HIDETEXT
350
B1
  0
DICTIONARYVAR
  5
B1
100
DictionaryVariables
280
0
  1
2
  0
DICTIONARYVAR
  5
B2
100
DictionaryVariables
280
0
  1
1
  0
ENDSEC
  0
EOF
