999
dxflib 2.2.0.0
  0
SECTION
  2
HEADER
  9
$ACADVER
  1
AC1015
  9
$HANDSEED
  5
FFFF
  9
$DIMLIM
 70
0
  9
$DIMLUNIT
 70
2
  9
$DIMTIX
 70
0
  9
$AUNITS
 70
0
  9
$QTEXTMODE
 70
0
  9
$USERR1
 40
0.0
  9
$DIMALTU
 70
2
  9
$USERR2
 40
0.0
  9
$UCSORGBOTTOM
 10
0.0
 20
0.0
 30
0.0
  9
$USERR3
 40
0.0
  9
$USERR4
 40
0.0
  9
$USERR5
 40
0.0
  9
$LIMMAX
 10
420.0
 20
297.0
  9
$PELEVATION
 40
0.0
  9
$DIMALTZ
 70
0
  9
$DIMADEC
 70
0
  9
$JOINSTYLE
280
0
  9
$TILEMODE
 70
1
  9
$DIMATFIT
 70
3
  9
$PEXTMIN
 10
0.0
 20
0.0
 30
0.0
  9
$TDUSRTIMER
 40
0.0000187731
  9
$DWGCODEPAGE
  3
ANSI_1252
  9
$UCSORTHOVIEW
 70
0
  9
$DIMSOXD
 70
0
  9
$DIMTZIN
 70
0
  9
$SPLINETYPE
 70
6
  9
$DIMLFAC
 40
1.0
  9
$DIMSE1
 70
0
  9
$FILLETRAD
 40
0.0
  9
$DIMSE2
 70
0
  9
$PSTYLEMODE
290
1
  9
$TEXTSTYLE
  7
Standard
  9
$DIMTSZ
 40
0.0
  9
$PUCSXDIR
 10
1.0
 20
0.0
 30
0.0
  9
$DIMTXSTY
  7
Standard
  9
$PLIMMAX
 10
215.9000000000000057
 20
279.3999999999999773
  9
$DIMTM
 40
0.0
  9
$UCSORG
 10
0.0
 20
0.0
 30
0.0
  9
$DIMTP
 40
0.0
  9
$PSLTSCALE
 70
1
  9
$EXTNAMES
290
1
  9
$ANGBASE
 50
0.0
  9
$PUCSYDIR
 10
0.0
 20
1.0
 30
0.0
  9
$DIMASZ
 40
1.8
  9
$PUCSORTHOVIEW
 70
0
  9
$UNITMODE
 70
0
  9
$MEASUREMENT
 70
1
  9
$INSBASE
 10
0.0
 20
0.0
 30
0.0
  9
$EXTMAX
 10
420.0
 20
297.0
 30
0.0
  9
$ELEVATION
 40
0.0
  9
$TDCREATE
 40
2454670.4520583911798894
  9
$DIMDEC
 70
4
  9
$CELTYPE
  6
ByLayer
  9
$GRIDUNIT
 10
0.0
 20
0.0
  9
$MENU
  1
.
  9
$ANGDIR
 70
0
  9
$DIMALTTD
 70
2
  9
$TREEDEPTH
 70
3020
  9
$PROXYGRAPHICS
 70
1
  9
$LTSCALE
 40
1.0
  9
$DIMTMOVE
 70
0
  9
$DIMAZIN
 70
0
  9
$TDUPDATE
 40
2454670.4520583911798894
  9
$DIMTOLJ
 70
1
  9
$DIMCEN
 40
0.09
  9
$DIMTVP
 40
0.0
  9
$TRACEWID
 40
0.05
  9
$CMLSTYLE
  2
Standard
  9
$DISPSILH
 70
0
  9
$DIMSTYLE
  2
Standard
  9
$SKETCHINC
 40
0.1
  9
$FILLMODE
 70
1
  9
$PLINEGEN
 70
0
  9
$DIMLWD
 70
-2
  9
$THICKNESS
 40
0.0
  9
$PUCSORG
 10
0.0
 20
0.0
 30
0.0
  9
$DIMLWE
 70
-2
  9
$CELTSCALE
 40
1.0
  9
$DIMALTTZ
 70
0
  9
$INSUNITS
 70
4
  9
$UCSORGBACK
 10
0.0
 20
0.0
 30
0.0
  9
$PLINEWID
 40
0.0
  9
$PEXTMAX
 10
420.0
 20
297.0
 30
0.0
  9
$DIMJUST
 70
0
  9
$UCSYDIR
 10
0.0
 20
1.0
 30
0.0
  9
$PUCSORGBACK
 10
0.0
 20
0.0
 30
0.0
  9
$GRIDMODE
 70
1
  9
$PUCSORGBOTTOM
 10
0.0
 20
0.0
 30
0.0
  9
$PDSIZE
 40
0.0
  9
$DIMUPT
 70
0
  9
$DIMTAD
 70
0
  9
$MAXACTVP
 70
64
  9
$UCSXDIR
 10
1.0
 20
0.0
 30
0.0
  9
$DIMSAH
 70
0
  9
$TDUCREATE
 40
2454670.4103917251341045
  9
$DIMFRAC
 70
0
  9
$USERI1
 70
0
  9
$USERI2
 70
0
  9
$CELWEIGHT
370
-1
  9
$USERI3
 70
0
  9
$UCSORGRIGHT
 10
0.0
 20
0.0
 30
0.0
  9
$LWDISPLAY
290
0
  9
$SKPOLY
 70
0
  9
$USERI4
 70
0
  9
$USERI5
 70
0
  9
$UCSORGTOP
 10
0.0
 20
0.0
 30
0.0
  9
$LIMMIN
 10
0.0
 20
0.0
  9
$ACADMAINTVER
 70
18
  9
$MIRRTEXT
 70
0
  9
$TDUUPDATE
 40
2454670.4103917251341045
  9
$TEXTSIZE
 40
0.2
  9
$DIMGAP
 40
0.09
  9
$LUPREC
 70
4
  9
$CECOLOR
 62
256
  9
$DIMSD1
 70
0
  9
$DIMSD2
 70
0
  9
$WORLDVIEW
 70
1
  9
$PUCSORGRIGHT
 10
0.0
 20
0.0
 30
0.0
  9
$PLIMCHECK
 70
0
  9
$DIMTFAC
 40
1.0
  9
$CMLJUST
 70
0
  9
$USRTIMER
 70
1
  9
$SURFU
 70
6
  9
$SURFV
 70
6
  9
$DIMASO
 70
1
  9
$DIMDLE
 40
0.0
  9
$EXTMIN
 10
0.0
 20
0.0
 30
0.0
  9
$UCSORGLEFT
 10
0.0
 20
0.0
 30
0.0
  9
$OLESTARTUP
290
0
  9
$PUCSORGFRONT
 10
0.0
 20
0.0
 30
0.0
  9
$DIMDLI
 40
0.38
  9
$LUNITS
 70
2
  9
$DIMCLRD
 70
0
  9
$SHADEDIF
 70
70
  9
$DIMCLRE
 70
0
  9
$SPLINESEGS
 70
8
  9
$PUCSORGLEFT
 10
0.0
 20
0.0
 30
0.0
  9
$DIMALTRND
 40
0.0
  9
$DIMRND
 40
0.0
  9
$DIMALT
 70
0
  9
$FINGERPRINTGUID
  2
{957EB8BD-B1CB-432B-9497-5194FA736EDC}
  9
$DIMCLRT
 70
0
  9
$PUCSORGTOP
 10
0.0
 20
0.0
 30
0.0
  9
$DIMTOH
 70
1
  9
$UCSORGFRONT
 10
0.0
 20
0.0
 30
0.0
  9
$VISRETAIN
 70
1
  9
$SHADEDGE
 70
3
  9
$DIMTOL
 70
0
  9
$SURFTYPE
 70
6
  9
$VERSIONGUID
  2
{F0539855-98D3-4F5B-8BA8-A3C366CB493D}
  9
$CHAMFERA
 40
0.0
  9
$SURFTAB1
 70
6
  9
$CHAMFERB
 40
0.0
  9
$SURFTAB2
 70
6
  9
$CHAMFERC
 40
0.0
  9
$AUPREC
 70
0
  9
$CHAMFERD
 40
0.0
  9
$DIMTDEC
 70
4
  9
$PDMODE
 70
0
  9
$PLIMMIN
 10
0.0
 20
0.0
  9
$SPLFRAME
 70
0
  9
$XEDIT
290
1
  9
$DIMDSEP
 70
46
  9
$LIMCHECK
 70
0
  9
$PINSBASE
 10
0.0
 20
0.0
 30
0.0
  9
$ORTHOMODE
 70
0
  9
$PSVPSCALE
 40
0.0
  9
$CLAYER
  8
drawings
  9
$DIMSHO
 70
1
  9
$DIMTOFL
 70
0
  9
$DIMTXT
 40
0.35
  9
$DIMEXE
 40
0.18
  9
$TDINDWG
 40
0.0000187731
  9
$REGENMODE
 70
1
  9
$ATTMODE
 70
1
  9
$CMLSCALE
 40
1.0
  9
$DIMTIH
 70
1
  9
$DIMZIN
 70
0
  9
$CEPSNTYPE
380
0
  9
$DIMSCALE
 40
1.0
  9
$DIMALTD
 70
2
  9
$DIMAUNIT
 70
0
  9
$DIMEXO
 40
0.0625
  9
$DIMALTF
 40
25.3999999999999986
  9
$ENDCAPS
280
0
  9
$CLAYER
  8
drawings
  0
ENDSEC
  0
SECTION
  2
TABLES
  0
TABLE
  2
VPORT
  5
8
100
AcDbSymbolTable
 70
1
  0
VPORT
  5
30
100
AcDbSymbolTableRecord
100
AcDbViewportTableRecord
  2
*Active
 70
0
 10
0.0
 20
0.0
 11
1.0
 21
1.0
 12
286.3055555555554861
 22
148.5
 13
0.0
 23
0.0
 14
10.0
 24
10.0
 15
10.0
 25
10.0
 16
0.0
 26
0.0
 36
1.0
 17
0.0
 27
0.0
 37
0.0
 40
297.0
 41
1.92798353909465
 42
50.0
 43
0.0
 44
0.0
 50
0.0
 51
0.0
 71
0
 72
100
 73
1
 74
3
 75
1
 76
1
 77
0
 78
0
281
0
 65
1
110
0.0
120
0.0
130
0.0
111
1.0
121
0.0
131
0.0
112
0.0
122
1.0
132
0.0
 79
0
146
0.0
  0
ENDTAB
  0
TABLE
  2
LTYPE
  5
5
100
AcDbSymbolTable
 70
21
  0
LTYPE
  5
14
100
AcDbSymbolTableRecord
100
AcDbLinetypeTableRecord
  2
ByBlock
 70
0
  3

 72
65
 73
0
 40
0.0
  0
LTYPE
  5
15
100
AcDbSymbolTableRecord
100
AcDbLinetypeTableRecord
  2
ByLayer
 70
0
  3

 72
65
 73
0
 40
0.0
  0
LTYPE
  5
16
100
AcDbSymbolTableRecord
100
AcDbLinetypeTableRecord
  2
CONTINUOUS
 70
0
  3
Solid line
 72
65
 73
0
 40
0.0
  0
LTYPE
  5
31
100
AcDbSymbolTableRecord
100
AcDbLinetypeTableRecord
  2
DOT
 70
0
  3
Dot . . . . . . . . . . . . . . . . . . . . . .
 72
65
 73
2
 40
6.3499999999999996
 49
0.0
 74
0
 49
-6.3499999999999996
 74
0
  0
LTYPE
  5
32
100
AcDbSymbolTableRecord
100
AcDbLinetypeTableRecord
  2
DOT2
 70
0
  3
Dot (.5x) .....................................
 72
65
 73
2
 40
3.1749999999999998
 49
0.0
 74
0
 49
-3.1749999999999998
 74
0
  0
LTYPE
  5
33
100
AcDbSymbolTableRecord
100
AcDbLinetypeTableRecord
  2
DOTX2
 70
0
  3
Dot (2x) .  .  .  .  .  .  .  .  .  .  .  .  .
 72
65
 73
2
 40
12.6999999999999993
 49
0.0
 74
0
 49
-12.6999999999999993
 74
0
  0
LTYPE
  5
34
100
AcDbSymbolTableRecord
100
AcDbLinetypeTableRecord
  2
DASHED
 70
0
  3
Dashed __ __ __ __ __ __ __ __ __ __ __ __ __ _
 72
65
 73
2
 40
19.0500000000000007
 49
12.6999999999999993
 74
0
 49
-6.3499999999999996
 74
0
  0
LTYPE
  5
35
100
AcDbSymbolTableRecord
100
AcDbLinetypeTableRecord
  2
DASHED2
 70
0
  3
Dashed (.5x) _ _ _ _ _ _ _ _ _ _ _ _ _ _ _ _ _
 72
65
 73
2
 40
9.5250000000000004
 49
6.3499999999999996
 74
0
 49
-3.1749999999999998
 74
0
  0
LTYPE
  5
36
100
AcDbSymbolTableRecord
100
AcDbLinetypeTableRecord
  2
DASHEDX2
 70
0
  3
Dashed (2x) ____  ____  ____  ____  ____  ___
 72
65
 73
2
 40
38.1000000000000014
 49
25.3999999999999986
 74
0
 49
-12.6999999999999993
 74
0
  0
LTYPE
  5
37
100
AcDbSymbolTableRecord
100
AcDbLinetypeTableRecord
  2
DASHDOT
 70
0
  3
Dash dot __ . __ . __ . __ . __ . __ . __ . __
 72
65
 73
4
 40
25.3999999999999986
 49
12.6999999999999993
 74
0
 49
-6.3499999999999996
 74
0
 49
0.0
 74
0
 49
-6.3499999999999996
 74
0
  0
LTYPE
  5
38
100
AcDbSymbolTableRecord
100
AcDbLinetypeTableRecord
  2
DASHDOT2
 70
0
  3
Dash dot (.5x) _._._._._._._._._._._._._._._.
 72
65
 73
4
 40
12.6999999999999993
 49
6.3499999999999996
 74
0
 49
-3.1749999999999998
 74
0
 49
0.0
 74
0
 49
-3.1749999999999998
 74
0
  0
LTYPE
  5
39
100
AcDbSymbolTableRecord
100
AcDbLinetypeTableRecord
  2
DASHDOTX2
 70
0
  3
Dash dot (2x) ____  .  ____  .  ____  .  ___
 72
65
 73
4
 40
50.7999999999999972
 49
25.3999999999999986
 74
0
 49
-12.6999999999999993
 74
0
 49
0.0
 74
0
 49
-12.6999999999999993
 74
0
  0
LTYPE
  5
3A
100
AcDbSymbolTableRecord
100
AcDbLinetypeTableRecord
  2
DIVIDE
 70
0
  3
Divide ____ . . ____ . . ____ . . ____ . . ____
 72
65
 73
6
 40
31.75
 49
12.6999999999999993
 74
0
 49
-6.3499999999999996
 74
0
 49
0.0
 74
0
 49
-6.3499999999999996
 74
0
 49
0.0
 74
0
 49
-6.3499999999999996
 74
0
  0
LTYPE
  5
3B
100
AcDbSymbolTableRecord
100
AcDbLinetypeTableRecord
  2
DIVIDE2
 70
0
  3
Divide (.5x) __..__..__..__..__..__..__..__.._
 72
65
 73
6
 40
15.875
 49
6.3499999999999996
 74
0
 49
-3.1749999999999998
 74
0
 49
0.0
 74
0
 49
-3.1749999999999998
 74
0
 49
0.0
 74
0
 49
-3.1749999999999998
 74
0
  0
LTYPE
  5
3C
100
AcDbSymbolTableRecord
100
AcDbLinetypeTableRecord
  2
DIVIDEX2
 70
0
  3
Divide (2x) ________  .  .  ________  .  .  _
 72
65
 73
6
 40
63.5
 49
25.3999999999999986
 74
0
 49
-12.6999999999999993
 74
0
 49
0.0
 74
0
 49
-12.6999999999999993
 74
0
 49
0.0
 74
0
 49
-12.6999999999999993
 74
0
  0
LTYPE
  5
3D
100
AcDbSymbolTableRecord
100
AcDbLinetypeTableRecord
  2
CENTER
 70
0
  3
Center ____ _ ____ _ ____ _ ____ _ ____ _ ____
 72
65
 73
4
 40
50.7999999999999972
 49
31.75
 74
0
 49
-6.3499999999999996
 74
0
 49
6.3499999999999996
 74
0
 49
-6.3499999999999996
 74
0
  0
LTYPE
  5
3E
100
AcDbSymbolTableRecord
100
AcDbLinetypeTableRecord
  2
CENTER2
 70
0
  3
Center (.5x) ___ _ ___ _ ___ _ ___ _ ___ _ ___
 72
65
 73
4
 40
28.5749999999999993
 49
19.0500000000000007
 74
0
 49
-3.1749999999999998
 74
0
 49
3.1749999999999998
 74
0
 49
-3.1749999999999998
 74
0
  0
LTYPE
  5
3F
100
AcDbSymbolTableRecord
100
AcDbLinetypeTableRecord
  2
CENTERX2
 70
0
  3
Center (2x) ________  __  ________  __  _____
 72
65
 73
4
 40
101.5999999999999943
 49
63.5
 74
0
 49
-12.6999999999999993
 74
0
 49
12.6999999999999993
 74
0
 49
-12.6999999999999993
 74
0
  0
LTYPE
  5
40
100
AcDbSymbolTableRecord
100
AcDbLinetypeTableRecord
  2
BORDER
 70
0
  3
Border __ __ . __ __ . __ __ . __ __ . __ __ .
 72
65
 73
6
 40
44.4500000000000028
 49
12.6999999999999993
 74
0
 49
-6.3499999999999996
 74
0
 49
12.6999999999999993
 74
0
 49
-6.3499999999999996
 74
0
 49
0.0
 74
0
 49
-6.3499999999999996
 74
0
  0
LTYPE
  5
41
100
AcDbSymbolTableRecord
100
AcDbLinetypeTableRecord
  2
BORDER2
 70
0
  3
Border (.5x) __.__.__.__.__.__.__.__.__.__.__.
 72
65
 73
6
 40
22.2250000000000014
 49
6.3499999999999996
 74
0
 49
-3.1749999999999998
 74
0
 49
6.3499999999999996
 74
0
 49
-3.1749999999999998
 74
0
 49
0.0
 74
0
 49
-3.1749999999999998
 74
0
  0
LTYPE
  5
42
100
AcDbSymbolTableRecord
100
AcDbLinetypeTableRecord
  2
BORDERX2
 70
0
  3
Border (2x) ____  ____  .  ____  ____  .  ___
 72
65
 73
6
 40
88.9000000000000057
 49
25.3999999999999986
 74
0
 49
-12.6999999999999993
 74
0
 49
25.3999999999999986
 74
0
 49
-12.6999999999999993
 74
0
 49
0.0
 74
0
 49
-12.6999999999999993
 74
0
  0
ENDTAB
  0
TABLE
  2
LAYER
  5
2
100
AcDbSymbolTable
 70
6
  0
LAYER
  5
10
100
AcDbSymbolTableRecord
100
AcDbLayerTableRecord
  2
0
 70
0
 62
7
420
16777215
  6
CONTINUOUS
370
0
390
F
  0
LAYER
  5
43
100
AcDbSymbolTableRecord
100
AcDbLayerTableRecord
  2
Notes
 70
0
 62
7
420
16777215
  6
CONTINUOUS
370
0
390
F
  0
LAYER
  5
44
100
AcDbSymbolTableRecord
100
AcDbLayerTableRecord
  2
Original Nut
 70
0
 62
5
420
255
  6
CONTINUOUS
370
0
390
F
  0
LAYER
  5
45
100
AcDbSymbolTableRecord
100
AcDbLayerTableRecord
  2
Text
 70
0
 62
4
420
65535
  6
CONTINUOUS
370
0
390
F
  0
LAYER
  5
46
100
AcDbSymbolTableRecord
100
AcDbLayerTableRecord
  2
gear1
 70
0
 62
7
420
0
  6
CONTINUOUS
370
0
390
F
  0
LAYER
  5
47
100
AcDbSymbolTableRecord
100
AcDbLayerTableRecord
  2
drawings
 70
0
 62
7
420
0
  6
CONTINUOUS
370
0
390
F
  0
ENDTAB
  0
TABLE
  2
STYLE
  5
3
100
AcDbSymbolTable
 70
1
  0
STYLE
  5
11
100
AcDbSymbolTableRecord
100
AcDbTextStyleTableRecord
  2
Standard
 70
0
 40
0.0
 41
0.75
 50
0.0
 71
0
 42
2.5
  3
txt
  4

  0
ENDTAB
  0
TABLE
  2
VIEW
  5
6
100
AcDbSymbolTable
 70
0
  0
ENDTAB
  0
TABLE
  2
UCS
  5
7
100
AcDbSymbolTable
 70
0
  0
ENDTAB
  0
TABLE
  2
APPID
  5
9
100
AcDbSymbolTable
 70
1
  0
APPID
  5
12
100
AcDbSymbolTableRecord
100
AcDbRegAppTableRecord
  2
ACAD
 70
0
  0
ENDTAB
  0
TABLE
  2
DIMSTYLE
  5
A
100
AcDbSymbolTable
 70
1
100
AcDbDimStyleTable
 71
0
  0
DIMSTYLE
105
27
100
AcDbSymbolTableRecord
100
AcDbDimStyleTableRecord
  2
Standard
 41
1.8
 42
0.0625
 43
3.75
 44
0.18
 70
0
 73
0
 74
0
 77
1
 78
8
140
0.35
141
2.5
143
0.03937007874016
147
0.09
171
3
172
1
271
2
272
2
274
3
278
44
283
0
284
8
340
11
  0
ENDTAB
  0
TABLE
  2
BLOCK_RECORD
  5
1
100
AcDbSymbolTable
 70
1
  0
BLOCK_RECORD
  5
1F
100
AcDbSymbolTableRecord
100
AcDbBlockTableRecord
  2
*Model_Space
340
22
  0
BLOCK_RECORD
  5
1B
100
AcDbSymbolTableRecord
100
AcDbBlockTableRecord
  2
*Paper_Space
340
1E
  0
BLOCK_RECORD
  5
23
100
AcDbSymbolTableRecord
100
AcDbBlockTableRecord
  2
*Paper_Space0
340
26
  0
ENDTAB
  0
ENDSEC
  0
SECTION
  2
BLOCKS
  0
BLOCK
  5
20
100
AcDbEntity
  8
0
100
AcDbBlockBegin
  2
*Model_Space
 70
0
 10
0.0
 20
0.0
 30
0.0
  3
*Model_Space
  1

  0
ENDBLK
  5
21
100
AcDbEntity
  8
0
100
AcDbBlockEnd
  0
BLOCK
  5
1C
100
AcDbEntity
 67
1
  8
0
100
AcDbBlockBegin
  2
*Paper_Space
 70
0
 10
0.0
 20
0.0
 30
0.0
  3
*Paper_Space
  1

  0
ENDBLK
  5
1D
100
AcDbEntity
 67
1
  8
0
100
AcDbBlockEnd
  0
BLOCK
  5
24
100
AcDbEntity
  8
0
100
AcDbBlockBegin
  2
*Paper_Space0
 70
0
 10
0.0
 20
0.0
 30
0.0
  3
*Paper_Space0
  1

  0
ENDBLK
  5
25
100
AcDbEntity
  8
0
100
AcDbBlockEnd
  0
ENDSEC
  0
SECTION
  2
ENTITIES
  0
LINE
  5
48
100
AcDbEntity
100
AcDbLine
  8
Original Nut
 62
256
370
-1
  6
ByLayer
 10
61.5423957740416725
 20
46.7742655393194582
 30
0.0
 11
59.720138245666071
 21
53.9361585037257498
 31
0.0
  0
LINE
  5
49
100
AcDbEntity
100
AcDbLine
  8
Original Nut
 62
256
370
-1
  6
ByLayer
 10
68.6559057845903453
 20
44.7714403689270455
 30
0.0
 11
61.5423957740416867
 21
46.7742655393195434
 31
0.0
  0
LINE
  5
4A
100
AcDbEntity
100
AcDbLine
  8
Original Nut
 62
256
370
-1
  6
ByLayer
 10
73.9471582667633811
 20
49.9305081629409528
 30
0.0
 11
68.6559057845903169
 21
44.7714403689270455
 31
0.0
  0
LINE
  5
4B
100
AcDbEntity
100
AcDbLine
  8
Original Nut
 62
256
370
-1
  6
ByLayer
 10
72.1249007383877796
 20
57.0924011273471592
 30
0.0
 11
73.9471582667633811
 21
49.9305081629409528
 31
0.0
  0
LINE
  5
4C
100
AcDbEntity
100
AcDbLine
  8
Original Nut
 62
256
370
-1
  6
ByLayer
 10
65.0113907278390855
 20
59.0952262977395435
 30
0.0
 11
72.1249007383877654
 21
57.0924011273471592
 31
0.0
  0
LINE
  5
4D
100
AcDbEntity
100
AcDbLine
  8
Original Nut
 62
256
370
-1
  6
ByLayer
 10
59.7201382456660497
 20
53.9361585037257498
 30
0.0
 11
65.0113907278390712
 21
59.0952262977395435
 31
0.0
  0
MTEXT
  5
4E
100
AcDbEntity
100
AcDbMText
  8
Notes
 62
256
370
-1
  6
ByLayer
 10
46.8336482562147296
 20
91.9333333333333371
 30
0.0
 40
3.0
 41
100.0
 71
1
 72
2
  1
Driven\~Gear\PMaterial:\~1/4"\~or\~5mm\~acrylic\PPress\~fit\~to\~bolt.
  7
standard
 50
0.0
 73
1
 44
1.0
  0
LINE
  5
4F
100
AcDbEntity
100
AcDbLine
  8
drawings
 62
256
370
-1
  6
ByLayer
 10
65.0113907278390712
 20
59.0952262977395435
 30
0.0
 11
68.6559057845903169
 21
44.7714403689270526
 31
0.0
  0
LINE
  5
50
100
AcDbEntity
100
AcDbLine
  8
drawings
 62
256
370
-1
  6
ByLayer
 10
72.1249007383877796
 20
57.0924011273471521
 30
0.0
 11
61.5423957740416512
 21
46.7742655393195577
 31
0.0
  0
LINE
  5
51
100
AcDbEntity
100
AcDbLine
  8
drawings
 62
256
370
-1
  6
ByLayer
 10
73.9471582667633811
 20
49.9305081629409528
 30
0.0
 11
59.7201382456660639
 21
53.936158503725764
 31
0.0
  0
MTEXT
  5
52
100
AcDbEntity
100
AcDbMText
  8
Text
 62
256
370
-1
  6
ByLayer
 10
60.0
 20
62.0
 30
0.0
 40
2.0
 41
100.0
 71
1
 72
2
  1
Driven\~Gear
  7
standard
 50
0.0
 73
1
 44
1.0
  0
LINE
  5
53
100
AcDbEntity
100
AcDbLine
  8
0
 62
256
370
0
  6
ByLayer
 10
59.8535165583638502
 20
53.8986055317809161
 30
0.0
 11
65.0455580564961195
 21
58.9609408046569357
 31
0.0
  0
LINE
  5
54
100
AcDbEntity
100
AcDbLine
  8
0
 62
256
370
0
  6
ByLayer
 10
65.0455580564961195
 20
58.9609408046569357
 30
0.0
 11
72.0256897543470416
 21
56.9956686062093993
 31
0.0
  0
LINE
  5
55
100
AcDbEntity
100
AcDbLine
  8
0
 62
256
370
0
  6
ByLayer
 10
72.0256897543470416
 20
56.9956686062093993
 30
0.0
 11
73.8137799540655948
 21
49.9680611348858079
 31
0.0
  0
LINE
  5
56
100
AcDbEntity
100
AcDbLine
  8
0
 62
256
370
0
  6
ByLayer
 10
73.8137799540655948
 20
49.9680611348858079
 30
0.0
 11
68.6217384559332686
 21
44.9057258620096604
 31
0.0
  0
LINE
  5
57
100
AcDbEntity
100
AcDbLine
  8
0
 62
256
370
0
  6
ByLayer
 10
68.6217384559332686
 20
44.9057258620096604
 30
0.0
 11
61.6416067580823892
 21
46.8709980604573104
 31
0.0
  0
LINE
  5
58
100
AcDbEntity
100
AcDbLine
  8
0
 62
256
370
0
  6
ByLayer
 10
61.6416067580823892
 20
46.8709980604573104
 30
0.0
 11
59.8535165583638502
 21
53.8986055317809161
 31
0.0
  0
CIRCLE
  5
59
100
AcDbEntity
100
AcDbCircle
  8
drawings
 62
7
420
0
370
-1
  6
ByLayer
 10
66.8336482562146728
 20
51.9333333333333727
 30
0.0
 40
15.1473683468846332
  0
LINE
  5
5A
100
AcDbEntity
100
AcDbLine
  8
0
 62
7
420
0
370
0
  6
ByLayer
 10
80.4067841702235597
 20
53.2053023928021958
 30
0.0
 11
81.0054249966714792
 21
53.261454346064248
 31
0.0
  0
LINE
  5
5B
100
AcDbEntity
100
AcDbLine
  8
0
 62
7
420
0
370
0
  6
ByLayer
 10
81.0054249966714792
 20
53.261454346064248
 30
0.0
 11
81.9343181186508502
 21
53.1217877016403932
 31
0.0
  0
LINE
  5
5C
100
AcDbEntity
100
AcDbLine
  8
0
 62
7
420
0
370
0
  6
ByLayer
 10
81.9343181186508502
 20
53.1217877016403932
 30
0.0
 11
83.4873103058124144
 21
52.4596188868711479
 31
0.0
  0
LINE
  5
5D
100
AcDbEntity
100
AcDbLine
  8
0
 62
7
420
0
370
0
  6
ByLayer
 10
83.4873103058124144
 20
52.4596188868711479
 30
0.0
 11
83.4873103058124144
 21
51.4069999218053724
 31
0.0
  0
LINE
  5
5E
100
AcDbEntity
100
AcDbLine
  8
0
 62
7
420
0
370
0
  6
ByLayer
 10
83.4873103058124144
 20
51.4069999218053724
 30
0.0
 11
81.9343181186508502
 21
50.74483110703612
 31
0.0
  0
LINE
  5
5F
100
AcDbEntity
100
AcDbLine
  8
0
 62
7
420
0
370
0
  6
ByLayer
 10
81.9343181186508502
 20
50.74483110703612
 30
0.0
 11
81.0054249966714792
 21
50.6051644626122723
 31
0.0
  0
LINE
  5
60
100
AcDbEntity
100
AcDbLine
  8
0
 62
7
420
0
370
0
  6
ByLayer
 10
81.0054249966714792
 20
50.6051644626122723
 30
0.0
 11
80.4067841702235597
 21
50.6613164158743317
 31
0.0
  0
LINE
  5
61
100
AcDbEntity
100
AcDbLine
  8
0
 62
7
420
0
370
0
  6
ByLayer
 10
80.4067841702235597
 20
50.6613164158743317
 30
0.0
 11
80.1355401551664812
 21
48.9486700383767186
 31
0.0
  0
LINE
  5
62
100
AcDbEntity
100
AcDbLine
  8
0
 62
7
420
0
370
0
  6
ByLayer
 10
80.1355401551664812
 20
48.9486700383767186
 30
0.0
 11
80.7220458063208497
 21
48.8170935108153117
 31
0.0
  0
LINE
  5
63
100
AcDbEntity
100
AcDbLine
  8
0
 62
7
420
0
370
0
  6
ByLayer
 10
80.7220458063208497
 20
48.8170935108153117
 30
0.0
 11
81.562427350660414
 21
48.397140063353369
 31
0.0
  0
LINE
  5
64
100
AcDbEntity
100
AcDbLine
  8
0
 62
7
420
0
370
0
  6
ByLayer
 10
81.562427350660414
 20
48.397140063353369
 30
0.0
 11
82.8348966746836481
 21
47.2874181600504642
 31
0.0
  0
LINE
  5
65
100
AcDbEntity
100
AcDbLine
  8
0
 62
7
420
0
370
0
  6
ByLayer
 10
82.8348966746836481
 20
47.2874181600504642
 30
0.0
 11
82.5096412656302505
 21
46.2866691866435502
 31
0.0
  0
LINE
  5
66
100
AcDbEntity
100
AcDbLine
  8
0
 62
7
420
0
370
0
  6
ByLayer
 10
82.5096412656302505
 20
46.2866691866435502
 30
0.0
 11
80.8279263489042563
 21
46.1367710230198824
 31
0.0
  0
LINE
  5
67
100
AcDbEntity
100
AcDbLine
  8
0
 62
7
420
0
370
0
  6
ByLayer
 10
80.8279263489042563
 20
46.1367710230198824
 30
0.0
 11
79.9014132185779005
 21
46.2909519913185505
 31
0.0
  0
LINE
  5
68
100
AcDbEntity
100
AcDbLine
  8
0
 62
7
420
0
370
0
  6
ByLayer
 10
79.9014132185779005
 20
46.2909519913185505
 30
0.0
 11
79.3494069079952595
 21
46.5291239863382771
 31
0.0
  0
LINE
  5
69
100
AcDbEntity
100
AcDbLine
  8
0
 62
7
420
0
370
0
  6
ByLayer
 10
79.3494069079952595
 20
46.5291239863382771
 30
0.0
 11
78.5620849296051915
 21
44.9842210729673297
 31
0.0
  0
LINE
  5
6A
100
AcDbEntity
100
AcDbLine
  8
0
 62
7
420
0
370
0
  6
ByLayer
 10
78.5620849296051915
 20
44.9842210729673297
 30
0.0
 11
79.0793524672288299
 21
44.6777627924637315
 31
0.0
  0
LINE
  5
6B
100
AcDbEntity
100
AcDbLine
  8
0
 62
7
420
0
370
0
  6
ByLayer
 10
79.0793524672288299
 20
44.6777627924637315
 30
0.0
 11
79.7488973170574127
 21
44.0189241112507617
 31
0.0
  0
LINE
  5
6C
100
AcDbEntity
100
AcDbLine
  8
0
 62
7
420
0
370
0
  6
ByLayer
 10
79.7488973170574127
 20
44.0189241112507617
 30
0.0
 11
80.6161652637374004
 21
42.5701465568227491
 31
0.0
  0
LINE
  5
6D
100
AcDbEntity
100
AcDbLine
  8
0
 62
7
420
0
370
0
  6
ByLayer
 10
80.6161652637374004
 20
42.5701465568227491
 30
0.0
 11
79.9975385775207997
 21
41.7188202545519715
 31
0.0
  0
LINE
  5
6E
100
AcDbEntity
100
AcDbLine
  8
0
 62
7
420
0
370
0
  6
ByLayer
 10
79.9975385775207997
 20
41.7188202545519715
 30
0.0
 11
78.3517520080444569
 21
42.095944812192478
 31
0.0
  0
LINE
  5
6F
100
AcDbEntity
100
AcDbLine
  8
0
 62
7
420
0
370
0
  6
ByLayer
 10
78.3517520080444569
 20
42.095944812192478
 30
0.0
 11
77.5180324169611339
 21
42.5289844199230487
 31
0.0
  0
LINE
  5
70
100
AcDbEntity
100
AcDbLine
  8
0
 62
7
420
0
370
0
  6
ByLayer
 10
77.5180324169611339
 20
42.5289844199230487
 30
0.0
 11
77.0669106055556483
 21
42.9260956804039324
 31
0.0
  0
LINE
  5
71
100
AcDbEntity
100
AcDbLine
  8
0
 62
7
420
0
370
0
  6
ByLayer
 10
77.0669106055556483
 20
42.9260956804039324
 30
0.0
 11
75.8408380511538667
 21
41.700023126002165
 31
0.0
  0
LINE
  5
72
100
AcDbEntity
100
AcDbLine
  8
0
 62
7
420
0
370
0
  6
ByLayer
 10
75.8408380511538667
 20
41.700023126002165
 30
0.0
 11
76.237949311634793
 21
41.248901314596722
 31
0.0
  0
LINE
  5
73
100
AcDbEntity
100
AcDbLine
  8
0
 62
7
420
0
370
0
  6
ByLayer
 10
76.237949311634793
 20
41.248901314596722
 30
0.0
 11
76.6709889193653424
 21
40.4151817235133137
 31
0.0
  0
LINE
  5
74
100
AcDbEntity
100
AcDbLine
  8
0
 62
7
420
0
370
0
  6
ByLayer
 10
76.6709889193653424
 20
40.4151817235133137
 30
0.0
 11
77.048113477005856
 21
38.7693951540369781
 31
0.0
  0
LINE
  5
75
100
AcDbEntity
100
AcDbLine
  8
0
 62
7
420
0
370
0
  6
ByLayer
 10
77.048113477005856
 20
38.7693951540369781
 30
0.0
 11
76.1967871747350927
 21
38.15076846782042
 31
0.0
  0
LINE
  5
76
100
AcDbEntity
100
AcDbLine
  8
0
 62
7
420
0
370
0
  6
ByLayer
 10
76.1967871747350927
 20
38.15076846782042
 30
0.0
 11
74.748009620307073
 21
39.0180364145004148
 31
0.0
  0
LINE
  5
77
100
AcDbEntity
100
AcDbLine
  8
0
 62
7
420
0
370
0
  6
ByLayer
 10
74.748009620307073
 20
39.0180364145004148
 30
0.0
 11
74.0891709390941031
 21
39.6875812643289976
 31
0.0
  0
LINE
  5
78
100
AcDbEntity
100
AcDbLine
  8
0
 62
7
420
0
370
0
  6
ByLayer
 10
74.0891709390941031
 20
39.6875812643289976
 30
0.0
 11
73.7827126585904978
 21
40.2048488019526218
 31
0.0
  0
LINE
  5
79
100
AcDbEntity
100
AcDbLine
  8
0
 62
7
420
0
370
0
  6
ByLayer
 10
73.7827126585904978
 20
40.2048488019526218
 30
0.0
 11
72.2378097452195362
 21
39.4175268235625538
 31
0.0
  0
LINE
  5
7A
100
AcDbEntity
100
AcDbLine
  8
0
 62
7
420
0
370
0
  6
ByLayer
 10
72.2378097452195362
 20
39.4175268235625538
 30
0.0
 11
72.4759817402393054
 21
38.8655205129799128
 31
0.0
  0
LINE
  5
7B
100
AcDbEntity
100
AcDbLine
  8
0
 62
7
420
0
370
0
  6
ByLayer
 10
72.4759817402393054
 20
38.8655205129799128
 30
0.0
 11
72.6301627085379522
 21
37.939007382653557
 31
0.0
  0
LINE
  5
7C
100
AcDbEntity
100
AcDbLine
  8
0
 62
7
420
0
370
0
  6
ByLayer
 10
72.6301627085379522
 20
37.939007382653557
 30
0.0
 11
72.4802645449142631
 21
36.2572924659275486
 31
0.0
  0
LINE
  5
7D
100
AcDbEntity
100
AcDbLine
  8
0
 62
7
420
0
370
0
  6
ByLayer
 10
72.4802645449142631
 20
36.2572924659275486
 30
0.0
 11
71.4795155715073633
 21
35.9320370568741296
 31
0.0
  0
LINE
  5
7E
100
AcDbEntity
100
AcDbLine
  8
0
 62
7
420
0
370
0
  6
ByLayer
 10
71.4795155715073633
 20
35.9320370568741296
 30
0.0
 11
70.3697936682044514
 21
37.204506380897449
 31
0.0
  0
LINE
  5
7F
100
AcDbEntity
100
AcDbLine
  8
0
 62
7
420
0
370
0
  6
ByLayer
 10
70.3697936682044514
 20
37.204506380897449
 30
0.0
 11
69.9498402207425585
 21
38.0448879252369991
 31
0.0
  0
LINE
  5
80
100
AcDbEntity
100
AcDbLine
  8
0
 62
7
420
0
370
0
  6
ByLayer
 10
69.9498402207425585
 20
38.0448879252369991
 30
0.0
 11
69.8182636931811231
 21
38.6313935763913321
 31
0.0
  0
LINE
  5
81
100
AcDbEntity
100
AcDbLine
  8
0
 62
7
420
0
370
0
  6
ByLayer
 10
69.8182636931811231
 20
38.6313935763913321
 30
0.0
 11
68.1056173156835172
 21
38.3601495613342891
 31
0.0
  0
LINE
  5
82
100
AcDbEntity
100
AcDbLine
  8
0
 62
7
420
0
370
0
  6
ByLayer
 10
68.1056173156835172
 20
38.3601495613342891
 30
0.0
 11
68.1617692689455765
 21
37.7615087348863341
 31
0.0
  0
LINE
  5
83
100
AcDbEntity
100
AcDbLine
  8
0
 62
7
420
0
370
0
  6
ByLayer
 10
68.1617692689455765
 20
37.7615087348863341
 30
0.0
 11
68.0221026245217502
 21
36.8326156129069631
 31
0.0
  0
LINE
  5
84
100
AcDbEntity
100
AcDbLine
  8
0
 62
7
420
0
370
0
  6
ByLayer
 10
68.0221026245217502
 20
36.8326156129069631
 30
0.0
 11
67.359933809752448
 21
35.2796234257454131
 31
0.0
  0
LINE
  5
85
100
AcDbEntity
100
AcDbLine
  8
0
 62
7
420
0
370
0
  6
ByLayer
 10
67.359933809752448
 20
35.2796234257454131
 30
0.0
 11
66.3073148446866583
 21
35.2796234257454131
 31
0.0
  0
LINE
  5
86
100
AcDbEntity
100
AcDbLine
  8
0
 62
7
420
0
370
0
  6
ByLayer
 10
66.3073148446866583
 20
35.2796234257454131
 30
0.0
 11
65.6451460299173704
 21
36.8326156129069631
 31
0.0
  0
LINE
  5
87
100
AcDbEntity
100
AcDbLine
  8
0
 62
7
420
0
370
0
  6
ByLayer
 10
65.6451460299173704
 20
36.8326156129069631
 30
0.0
 11
65.505479385493544
 21
37.7615087348863341
 31
0.0
  0
LINE
  5
88
100
AcDbEntity
100
AcDbLine
  8
0
 62
7
420
0
370
0
  6
ByLayer
 10
65.505479385493544
 20
37.7615087348863341
 30
0.0
 11
65.5616313387556175
 21
38.3601495613342891
 31
0.0
  0
LINE
  5
89
100
AcDbEntity
100
AcDbLine
  8
0
 62
7
420
0
370
0
  6
ByLayer
 10
65.5616313387556175
 20
38.3601495613342891
 30
0.0
 11
63.8489849612580329
 21
38.6313935763913321
 31
0.0
  0
LINE
  5
8A
100
AcDbEntity
100
AcDbLine
  8
0
 62
7
420
0
370
0
  6
ByLayer
 10
63.8489849612580329
 20
38.6313935763913321
 30
0.0
 11
63.7174084336965763
 21
38.0448879252369991
 31
0.0
  0
LINE
  5
8B
100
AcDbEntity
100
AcDbLine
  8
0
 62
7
420
0
370
0
  6
ByLayer
 10
63.7174084336965763
 20
38.0448879252369991
 30
0.0
 11
63.2974549862346905
 21
37.204506380897449
 31
0.0
  0
LINE
  5
8C
100
AcDbEntity
100
AcDbLine
  8
0
 62
7
420
0
370
0
  6
ByLayer
 10
63.2974549862346905
 20
37.204506380897449
 30
0.0
 11
62.1877330829317998
 21
35.9320370568741296
 31
0.0
  0
LINE
  5
8D
100
AcDbEntity
100
AcDbLine
  8
0
 62
7
420
0
370
0
  6
ByLayer
 10
62.1877330829317998
 20
35.9320370568741296
 30
0.0
 11
61.1869841095249001
 21
36.2572924659275486
 31
0.0
  0
LINE
  5
8E
100
AcDbEntity
100
AcDbLine
  8
0
 62
7
420
0
370
0
  6
ByLayer
 10
61.1869841095249001
 20
36.2572924659275486
 30
0.0
 11
61.0370859459011825
 21
37.939007382653557
 31
0.0
  0
LINE
  5
8F
100
AcDbEntity
100
AcDbLine
  8
0
 62
7
420
0
370
0
  6
ByLayer
 10
61.0370859459011825
 20
37.939007382653557
 30
0.0
 11
61.1912669141998293
 21
38.8655205129799199
 31
0.0
  0
LINE
  5
90
100
AcDbEntity
100
AcDbLine
  8
0
 62
7
420
0
370
0
  6
ByLayer
 10
61.1912669141998293
 20
38.8655205129799199
 30
0.0
 11
61.4294389092196269
 21
39.4175268235625538
 31
0.0
  0
LINE
  5
91
100
AcDbEntity
100
AcDbLine
  8
0
 62
7
420
0
370
0
  6
ByLayer
 10
61.4294389092196269
 20
39.4175268235625538
 30
0.0
 11
59.8845359958486654
 21
40.2048488019526218
 31
0.0
  0
LINE
  5
92
100
AcDbEntity
100
AcDbLine
  8
0
 62
7
420
0
370
0
  6
ByLayer
 10
59.8845359958486654
 20
40.2048488019526218
 30
0.0
 11
59.5780777153450529
 21
39.6875812643289976
 31
0.0
  0
LINE
  5
93
100
AcDbEntity
100
AcDbLine
  8
0
 62
7
420
0
370
0
  6
ByLayer
 10
59.5780777153450529
 20
39.6875812643289976
 30
0.0
 11
58.919239034132076
 21
39.0180364145004148
 31
0.0
  0
LINE
  5
94
100
AcDbEntity
100
AcDbLine
  8
0
 62
7
420
0
370
0
  6
ByLayer
 10
58.919239034132076
 20
39.0180364145004148
 30
0.0
 11
57.4704614797040207
 21
38.1507684678204413
 31
0.0
  0
LINE
  5
95
100
AcDbEntity
100
AcDbLine
  8
0
 62
7
420
0
370
0
  6
ByLayer
 10
57.4704614797040207
 20
38.1507684678204413
 30
0.0
 11
56.6191351774333
 21
38.7693951540369781
 31
0.0
  0
LINE
  5
96
100
AcDbEntity
100
AcDbLine
  8
0
 62
7
420
0
370
0
  6
ByLayer
 10
56.6191351774333
 20
38.7693951540369781
 30
0.0
 11
56.9962597350737639
 21
40.4151817235133279
 31
0.0
  0
LINE
  5
97
100
AcDbEntity
100
AcDbLine
  8
0
 62
7
420
0
370
0
  6
ByLayer
 10
56.9962597350737639
 20
40.4151817235133279
 30
0.0
 11
57.4292993428043559
 21
41.248901314596722
 31
0.0
  0
LINE
  5
98
100
AcDbEntity
100
AcDbLine
  8
0
 62
7
420
0
370
0
  6
ByLayer
 10
57.4292993428043559
 20
41.248901314596722
 30
0.0
 11
57.8264106032852538
 21
41.700023126002165
 31
0.0
  0
LINE
  5
99
100
AcDbEntity
100
AcDbLine
  8
0
 62
7
420
0
370
0
  6
ByLayer
 10
57.8264106032852538
 20
41.700023126002165
 30
0.0
 11
56.6003380488834793
 21
42.9260956804039395
 31
0.0
  0
LINE
  5
9A
100
AcDbEntity
100
AcDbLine
  8
0
 62
7
420
0
370
0
  6
ByLayer
 10
56.6003380488834793
 20
42.9260956804039395
 30
0.0
 11
56.1492162374779937
 21
42.5289844199230487
 31
0.0
  0
LINE
  5
9B
100
AcDbEntity
100
AcDbLine
  8
0
 62
7
420
0
370
0
  6
ByLayer
 10
56.1492162374779937
 20
42.5289844199230487
 30
0.0
 11
55.3154966463946565
 21
42.095944812192478
 31
0.0
  0
LINE
  5
9C
100
AcDbEntity
100
AcDbLine
  8
0
 62
7
420
0
370
0
  6
ByLayer
 10
55.3154966463946565
 20
42.095944812192478
 30
0.0
 11
53.6697100769183066
 21
41.7188202545519999
 31
0.0
  0
LINE
  5
9D
100
AcDbEntity
100
AcDbLine
  8
0
 62
7
420
0
370
0
  6
ByLayer
 10
53.6697100769183066
 20
41.7188202545519999
 30
0.0
 11
53.0510833907017414
 21
42.5701465568227562
 31
0.0
  0
LINE
  5
9E
100
AcDbEntity
100
AcDbLine
  8
0
 62
7
420
0
370
0
  6
ByLayer
 10
53.0510833907017414
 20
42.5701465568227562
 30
0.0
 11
53.9183513373817291
 21
44.0189241112507688
 31
0.0
  0
LINE
  5
9F
100
AcDbEntity
100
AcDbLine
  8
0
 62
7
420
0
370
0
  6
ByLayer
 10
53.9183513373817291
 20
44.0189241112507688
 30
0.0
 11
54.5878961872103119
 21
44.6777627924637386
 31
0.0
  0
LINE
  5
A0
100
AcDbEntity
100
AcDbLine
  8
0
 62
7
420
0
370
0
  6
ByLayer
 10
54.5878961872103119
 20
44.6777627924637386
 30
0.0
 11
55.105163724833929
 21
44.984221072967344
 31
0.0
  0
LINE
  5
A1
100
AcDbEntity
100
AcDbLine
  8
0
 62
7
420
0
370
0
  6
ByLayer
 10
55.105163724833929
 20
44.984221072967344
 30
0.0
 11
54.3178417464438823
 21
46.5291239863383055
 31
0.0
  0
LINE
  5
A2
100
AcDbEntity
100
AcDbLine
  8
0
 62
7
420
0
370
0
  6
ByLayer
 10
54.3178417464438823
 20
46.5291239863383055
 30
0.0
 11
53.7658354358612129
 21
46.2909519913185719
 31
0.0
  0
LINE
  5
A3
100
AcDbEntity
100
AcDbLine
  8
0
 62
7
420
0
370
0
  6
ByLayer
 10
53.7658354358612129
 20
46.2909519913185719
 30
0.0
 11
52.83932230553485
 21
46.1367710230199037
 31
0.0
  0
LINE
  5
A4
100
AcDbEntity
100
AcDbLine
  8
0
 62
7
420
0
370
0
  6
ByLayer
 10
52.83932230553485
 20
46.1367710230199037
 30
0.0
 11
51.1576073888088558
 21
46.2866691866435715
 31
0.0
  0
LINE
  5
A5
100
AcDbEntity
100
AcDbLine
  8
0
 62
7
420
0
370
0
  6
ByLayer
 10
51.1576073888088558
 20
46.2866691866435715
 30
0.0
 11
50.8323519797554582
 21
47.2874181600504713
 31
0.0
  0
LINE
  5
A6
100
AcDbEntity
100
AcDbLine
  8
0
 62
7
420
0
370
0
  6
ByLayer
 10
50.8323519797554582
 20
47.2874181600504713
 30
0.0
 11
52.1048213037787349
 21
48.3971400633533904
 31
0.0
  0
LINE
  5
A7
100
AcDbEntity
100
AcDbLine
  8
0
 62
7
420
0
370
0
  6
ByLayer
 10
52.1048213037787349
 20
48.3971400633533904
 30
0.0
 11
52.9452028481182992
 21
48.8170935108153117
 31
0.0
  0
LINE
  5
A8
100
AcDbEntity
100
AcDbLine
  8
0
 62
7
420
0
370
0
  6
ByLayer
 10
52.9452028481182992
 20
48.8170935108153117
 30
0.0
 11
53.5317084992726322
 21
48.9486700383767612
 31
0.0
  0
LINE
  5
A9
100
AcDbEntity
100
AcDbLine
  8
0
 62
7
420
0
370
0
  6
ByLayer
 10
53.5317084992726322
 20
48.9486700383767612
 30
0.0
 11
53.2604644842156176
 21
50.6613164158743032
 31
0.0
  0
LINE
  5
AA
100
AcDbEntity
100
AcDbLine
  8
0
 62
7
420
0
370
0
  6
ByLayer
 10
53.2604644842156176
 20
50.6613164158743032
 30
0.0
 11
52.6618236577676697
 21
50.6051644626123078
 31
0.0
  0
LINE
  5
AB
100
AcDbEntity
100
AcDbLine
  8
0
 62
7
420
0
370
0
  6
ByLayer
 10
52.6618236577676697
 20
50.6051644626123078
 30
0.0
 11
51.7329305357882561
 21
50.7448311070361129
 31
0.0
  0
LINE
  5
AC
100
AcDbEntity
100
AcDbLine
  8
0
 62
7
420
0
370
0
  6
ByLayer
 10
51.7329305357882561
 20
50.7448311070361129
 30
0.0
 11
50.1799383486267274
 21
51.4069999218053795
 31
0.0
  0
LINE
  5
AD
100
AcDbEntity
100
AcDbLine
  8
0
 62
7
420
0
370
0
  6
ByLayer
 10
50.1799383486267274
 20
51.4069999218053795
 30
0.0
 11
50.1799383486267274
 21
52.4596188868711479
 31
0.0
  0
LINE
  5
AE
100
AcDbEntity
100
AcDbLine
  8
0
 62
7
420
0
370
0
  6
ByLayer
 10
50.1799383486267274
 20
52.4596188868711479
 30
0.0
 11
51.7329305357882561
 21
53.1217877016404145
 31
0.0
  0
LINE
  5
AF
100
AcDbEntity
100
AcDbLine
  8
0
 62
7
420
0
370
0
  6
ByLayer
 10
51.7329305357882561
 20
53.1217877016404145
 30
0.0
 11
52.6618236577676697
 21
53.2614543460642622
 31
0.0
  0
LINE
  5
B0
100
AcDbEntity
100
AcDbLine
  8
0
 62
7
420
0
370
0
  6
ByLayer
 10
52.6618236577676697
 20
53.2614543460642622
 30
0.0
 11
53.2604644842156176
 21
53.2053023928022242
 31
0.0
  0
LINE
  5
B1
100
AcDbEntity
100
AcDbLine
  8
0
 62
7
420
0
370
0
  6
ByLayer
 10
53.2604644842156176
 20
53.2053023928022242
 30
0.0
 11
53.5317084992726322
 21
54.9179487702997662
 31
0.0
  0
LINE
  5
B2
100
AcDbEntity
100
AcDbLine
  8
0
 62
7
420
0
370
0
  6
ByLayer
 10
53.5317084992726322
 20
54.9179487702997662
 30
0.0
 11
52.9452028481182992
 21
55.0495252978612228
 31
0.0
  0
LINE
  5
B3
100
AcDbEntity
100
AcDbLine
  8
0
 62
7
420
0
370
0
  6
ByLayer
 10
52.9452028481182992
 20
55.0495252978612228
 30
0.0
 11
52.1048213037787349
 21
55.4694787453231513
 31
0.0
  0
LINE
  5
B4
100
AcDbEntity
100
AcDbLine
  8
0
 62
7
420
0
370
0
  6
ByLayer
 10
52.1048213037787349
 20
55.4694787453231513
 30
0.0
 11
50.8323519797554582
 21
56.579200648626049
 31
0.0
  0
LINE
  5
B5
100
AcDbEntity
100
AcDbLine
  8
0
 62
7
420
0
370
0
  6
ByLayer
 10
50.8323519797554582
 20
56.579200648626049
 30
0.0
 11
51.1576073888088558
 21
57.5799496220329416
 31
0.0
  0
LINE
  5
B6
100
AcDbEntity
100
AcDbLine
  8
0
 62
7
420
0
370
0
  6
ByLayer
 10
51.1576073888088558
 20
57.5799496220329416
 30
0.0
 11
52.8393223055348784
 21
57.7298477856566308
 31
0.0
  0
LINE
  5
B7
100
AcDbEntity
100
AcDbLine
  8
0
 62
7
420
0
370
0
  6
ByLayer
 10
52.8393223055348784
 20
57.7298477856566308
 30
0.0
 11
53.7658354358612129
 21
57.5756668173579698
 31
0.0
  0
LINE
  5
B8
100
AcDbEntity
100
AcDbLine
  8
0
 62
7
420
0
370
0
  6
ByLayer
 10
53.7658354358612129
 20
57.5756668173579698
 30
0.0
 11
54.3178417464438823
 21
57.3374948223382503
 31
0.0
  0
LINE
  5
B9
100
AcDbEntity
100
AcDbLine
  8
0
 62
7
420
0
370
0
  6
ByLayer
 10
54.3178417464438823
 20
57.3374948223382503
 30
0.0
 11
55.105163724833929
 21
58.8823977357091977
 31
0.0
  0
LINE
  5
BA
100
AcDbEntity
100
AcDbLine
  8
0
 62
7
420
0
370
0
  6
ByLayer
 10
55.105163724833929
 20
58.8823977357091977
 30
0.0
 11
54.5878961872103119
 21
59.1888560162127888
 31
0.0
  0
LINE
  5
BB
100
AcDbEntity
100
AcDbLine
  8
0
 62
7
420
0
370
0
  6
ByLayer
 10
54.5878961872103119
 20
59.1888560162127888
 30
0.0
 11
53.9183513373817291
 21
59.8476946974257658
 31
0.0
  0
LINE
  5
BC
100
AcDbEntity
100
AcDbLine
  8
0
 62
7
420
0
370
0
  6
ByLayer
 10
53.9183513373817291
 20
59.8476946974257658
 30
0.0
 11
53.0510833907017414
 21
61.2964722518537783
 31
0.0
  0
LINE
  5
BD
100
AcDbEntity
100
AcDbLine
  8
0
 62
7
420
0
370
0
  6
ByLayer
 10
53.0510833907017414
 20
61.2964722518537783
 30
0.0
 11
53.6697100769183066
 21
62.1477985541245275
 31
0.0
  0
LINE
  5
BE
100
AcDbEntity
100
AcDbLine
  8
0
 62
7
420
0
370
0
  6
ByLayer
 10
53.6697100769183066
 20
62.1477985541245275
 30
0.0
 11
55.3154966463946565
 21
61.7706739964840352
 31
0.0
  0
LINE
  5
BF
100
AcDbEntity
100
AcDbLine
  8
0
 62
7
420
0
370
0
  6
ByLayer
 10
55.3154966463946565
 20
61.7706739964840352
 30
0.0
 11
56.1492162374779937
 21
61.3376343887534858
 31
0.0
  0
LINE
  5
C0
100
AcDbEntity
100
AcDbLine
  8
0
 62
7
420
0
370
0
  6
ByLayer
 10
56.1492162374779937
 20
61.3376343887534858
 30
0.0
 11
56.6003380488835077
 21
60.9405231282725737
 31
0.0
  0
LINE
  5
C1
100
AcDbEntity
100
AcDbLine
  8
0
 62
7
420
0
370
0
  6
ByLayer
 10
56.6003380488835077
 20
60.9405231282725737
 30
0.0
 11
57.8264106032852538
 21
62.1665956826743482
 31
0.0
  0
LINE
  5
C2
100
AcDbEntity
100
AcDbLine
  8
0
 62
7
420
0
370
0
  6
ByLayer
 10
57.8264106032852538
 20
62.1665956826743482
 30
0.0
 11
57.4292993428043559
 21
62.6177174940798125
 31
0.0
  0
LINE
  5
C3
100
AcDbEntity
100
AcDbLine
  8
0
 62
7
420
0
370
0
  6
ByLayer
 10
57.4292993428043559
 20
62.6177174940798125
 30
0.0
 11
56.9962597350737923
 21
63.4514370851631995
 31
0.0
  0
LINE
  5
C4
100
AcDbEntity
100
AcDbLine
  8
0
 62
7
420
0
370
0
  6
ByLayer
 10
56.9962597350737923
 20
63.4514370851631995
 30
0.0
 11
56.6191351774333
 21
65.0972236546395493
 31
0.0
  0
LINE
  5
C5
100
AcDbEntity
100
AcDbLine
  8
0
 62
7
420
0
370
0
  6
ByLayer
 10
56.6191351774333
 20
65.0972236546395493
 30
0.0
 11
57.4704614797040207
 21
65.715850340856079
 31
0.0
  0
LINE
  5
C6
100
AcDbEntity
100
AcDbLine
  8
0
 62
7
420
0
370
0
  6
ByLayer
 10
57.4704614797040207
 20
65.715850340856079
 30
0.0
 11
58.919239034132076
 21
64.8485823941761197
 31
0.0
  0
LINE
  5
C7
100
AcDbEntity
100
AcDbLine
  8
0
 62
7
420
0
370
0
  6
ByLayer
 10
58.919239034132076
 20
64.8485823941761197
 30
0.0
 11
59.5780777153450529
 21
64.1790375443475369
 31
0.0
  0
LINE
  5
C8
100
AcDbEntity
100
AcDbLine
  8
0
 62
7
420
0
370
0
  6
ByLayer
 10
59.5780777153450529
 20
64.1790375443475369
 30
0.0
 11
59.8845359958486654
 21
63.6617700067239056
 31
0.0
  0
LINE
  5
C9
100
AcDbEntity
100
AcDbLine
  8
0
 62
7
420
0
370
0
  6
ByLayer
 10
59.8845359958486654
 20
63.6617700067239056
 30
0.0
 11
61.4294389092196269
 21
64.4490919851139665
 31
0.0
  0
LINE
  5
CA
100
AcDbEntity
100
AcDbLine
  8
0
 62
7
420
0
370
0
  6
ByLayer
 10
61.4294389092196269
 20
64.4490919851139665
 30
0.0
 11
61.1912669141998506
 21
65.0010982956966075
 31
0.0
  0
LINE
  5
CB
100
AcDbEntity
100
AcDbLine
  8
0
 62
7
420
0
370
0
  6
ByLayer
 10
61.1912669141998506
 20
65.0010982956966075
 30
0.0
 11
61.0370859459011825
 21
65.9276114260229633
 31
0.0
  0
LINE
  5
CC
100
AcDbEntity
100
AcDbLine
  8
0
 62
7
420
0
370
0
  6
ByLayer
 10
61.0370859459011825
 20
65.9276114260229633
 30
0.0
 11
61.1869841095249001
 21
67.6093263427489575
 31
0.0
  0
LINE
  5
CD
100
AcDbEntity
100
AcDbLine
  8
0
 62
7
420
0
370
0
  6
ByLayer
 10
61.1869841095249001
 20
67.6093263427489575
 30
0.0
 11
62.1877330829317998
 21
67.9345817518023978
 31
0.0
  0
LINE
  5
CE
100
AcDbEntity
100
AcDbLine
  8
0
 62
7
420
0
370
0
  6
ByLayer
 10
62.1877330829317998
 20
67.9345817518023978
 30
0.0
 11
63.2974549862346905
 21
66.6621124277790926
 31
0.0
  0
LINE
  5
CF
100
AcDbEntity
100
AcDbLine
  8
0
 62
7
420
0
370
0
  6
ByLayer
 10
63.2974549862346905
 20
66.6621124277790926
 30
0.0
 11
63.7174084336965763
 21
65.8217308834395283
 31
0.0
  0
LINE
  5
D0
100
AcDbEntity
100
AcDbLine
  8
0
 62
7
420
0
370
0
  6
ByLayer
 10
63.7174084336965763
 20
65.8217308834395283
 30
0.0
 11
63.8489849612580329
 21
65.2352252322851882
 31
0.0
  0
LINE
  5
D1
100
AcDbEntity
100
AcDbLine
  8
0
 62
7
420
0
370
0
  6
ByLayer
 10
63.8489849612580329
 20
65.2352252322851882
 30
0.0
 11
65.5616313387556175
 21
65.5064692473422383
 31
0.0
  0
LINE
  5
D2
100
AcDbEntity
100
AcDbLine
  8
0
 62
7
420
0
370
0
  6
ByLayer
 10
65.5616313387556175
 20
65.5064692473422383
 30
0.0
 11
65.505479385493544
 21
66.1051100737901862
 31
0.0
  0
LINE
  5
D3
100
AcDbEntity
100
AcDbLine
  8
0
 62
7
420
0
370
0
  6
ByLayer
 10
65.505479385493544
 20
66.1051100737901862
 30
0.0
 11
65.6451460299173988
 21
67.0340031957695572
 31
0.0
  0
LINE
  5
D4
100
AcDbEntity
100
AcDbLine
  8
0
 62
7
420
0
370
0
  6
ByLayer
 10
65.6451460299173988
 20
67.0340031957695572
 30
0.0
 11
66.3073148446866725
 21
68.5869953829311214
 31
0.0
  0
LINE
  5
D5
100
AcDbEntity
100
AcDbLine
  8
0
 62
7
420
0
370
0
  6
ByLayer
 10
66.3073148446866725
 20
68.5869953829311214
 30
0.0
 11
67.3599338097524623
 21
68.5869953829311214
 31
0.0
  0
LINE
  5
D6
100
AcDbEntity
100
AcDbLine
  8
0
 62
7
420
0
370
0
  6
ByLayer
 10
67.3599338097524623
 20
68.5869953829311214
 30
0.0
 11
68.0221026245217502
 21
67.0340031957695572
 31
0.0
  0
LINE
  5
D7
100
AcDbEntity
100
AcDbLine
  8
0
 62
7
420
0
370
0
  6
ByLayer
 10
68.0221026245217502
 20
67.0340031957695572
 30
0.0
 11
68.1617692689455765
 21
66.1051100737901862
 31
0.0
  0
LINE
  5
D8
100
AcDbEntity
100
AcDbLine
  8
0
 62
7
420
0
370
0
  6
ByLayer
 10
68.1617692689455765
 20
66.1051100737901862
 30
0.0
 11
68.1056173156835172
 21
65.5064692473422383
 31
0.0
  0
LINE
  5
D9
100
AcDbEntity
100
AcDbLine
  8
0
 62
7
420
0
370
0
  6
ByLayer
 10
68.1056173156835172
 20
65.5064692473422383
 30
0.0
 11
69.8182636931811231
 21
65.2352252322851882
 31
0.0
  0
LINE
  5
DA
100
AcDbEntity
100
AcDbLine
  8
0
 62
7
420
0
370
0
  6
ByLayer
 10
69.8182636931811231
 20
65.2352252322851882
 30
0.0
 11
69.9498402207425301
 21
65.8217308834395283
 31
0.0
  0
LINE
  5
DB
100
AcDbEntity
100
AcDbLine
  8
0
 62
7
420
0
370
0
  6
ByLayer
 10
69.9498402207425301
 20
65.8217308834395283
 30
0.0
 11
70.3697936682044656
 21
66.6621124277790926
 31
0.0
  0
LINE
  5
DC
100
AcDbEntity
100
AcDbLine
  8
0
 62
7
420
0
370
0
  6
ByLayer
 10
70.3697936682044656
 20
66.6621124277790926
 30
0.0
 11
71.4795155715073633
 21
67.9345817518023978
 31
0.0
  0
LINE
  5
DD
100
AcDbEntity
100
AcDbLine
  8
0
 62
7
420
0
370
0
  6
ByLayer
 10
71.4795155715073633
 20
67.9345817518023978
 30
0.0
 11
72.4802645449142631
 21
67.6093263427489575
 31
0.0
  0
LINE
  5
DE
100
AcDbEntity
100
AcDbLine
  8
0
 62
7
420
0
370
0
  6
ByLayer
 10
72.4802645449142631
 20
67.6093263427489575
 30
0.0
 11
72.6301627085379522
 21
65.9276114260229633
 31
0.0
  0
LINE
  5
DF
100
AcDbEntity
100
AcDbLine
  8
0
 62
7
420
0
370
0
  6
ByLayer
 10
72.6301627085379522
 20
65.9276114260229633
 30
0.0
 11
72.4759817402393054
 21
65.0010982956966075
 31
0.0
  0
LINE
  5
E0
100
AcDbEntity
100
AcDbLine
  8
0
 62
7
420
0
370
0
  6
ByLayer
 10
72.4759817402393054
 20
65.0010982956966075
 30
0.0
 11
72.2378097452195362
 21
64.4490919851139665
 31
0.0
  0
LINE
  5
E1
100
AcDbEntity
100
AcDbLine
  8
0
 62
7
420
0
370
0
  6
ByLayer
 10
72.2378097452195362
 20
64.4490919851139665
 30
0.0
 11
73.7827126585904978
 21
63.6617700067239056
 31
0.0
  0
LINE
  5
E2
100
AcDbEntity
100
AcDbLine
  8
0
 62
7
420
0
370
0
  6
ByLayer
 10
73.7827126585904978
 20
63.6617700067239056
 30
0.0
 11
74.0891709390941031
 21
64.1790375443475369
 31
0.0
  0
LINE
  5
E3
100
AcDbEntity
100
AcDbLine
  8
0
 62
7
420
0
370
0
  6
ByLayer
 10
74.0891709390941031
 20
64.1790375443475369
 30
0.0
 11
74.748009620307073
 21
64.8485823941761197
 31
0.0
  0
LINE
  5
E4
100
AcDbEntity
100
AcDbLine
  8
0
 62
7
420
0
370
0
  6
ByLayer
 10
74.748009620307073
 20
64.8485823941761197
 30
0.0
 11
76.1967871747351069
 21
65.715850340856079
 31
0.0
  0
LINE
  5
E5
100
AcDbEntity
100
AcDbLine
  8
0
 62
7
420
0
370
0
  6
ByLayer
 10
76.1967871747351069
 20
65.715850340856079
 30
0.0
 11
77.048113477005856
 21
65.0972236546395493
 31
0.0
  0
LINE
  5
E6
100
AcDbEntity
100
AcDbLine
  8
0
 62
7
420
0
370
0
  6
ByLayer
 10
77.048113477005856
 20
65.0972236546395493
 30
0.0
 11
76.6709889193653424
 21
63.4514370851631995
 31
0.0
  0
LINE
  5
E7
100
AcDbEntity
100
AcDbLine
  8
0
 62
7
420
0
370
0
  6
ByLayer
 10
76.6709889193653424
 20
63.4514370851631995
 30
0.0
 11
76.237949311634793
 21
62.6177174940798125
 31
0.0
  0
LINE
  5
E8
100
AcDbEntity
100
AcDbLine
  8
0
 62
7
420
0
370
0
  6
ByLayer
 10
76.237949311634793
 20
62.6177174940798125
 30
0.0
 11
75.8408380511538667
 21
62.1665956826743482
 31
0.0
  0
LINE
  5
E9
100
AcDbEntity
100
AcDbLine
  8
0
 62
7
420
0
370
0
  6
ByLayer
 10
75.8408380511538667
 20
62.1665956826743482
 30
0.0
 11
77.0669106055556483
 21
60.9405231282725737
 31
0.0
  0
LINE
  5
EA
100
AcDbEntity
100
AcDbLine
  8
0
 62
7
420
0
370
0
  6
ByLayer
 10
77.0669106055556483
 20
60.9405231282725737
 30
0.0
 11
77.5180324169611339
 21
61.3376343887534858
 31
0.0
  0
LINE
  5
EB
100
AcDbEntity
100
AcDbLine
  8
0
 62
7
420
0
370
0
  6
ByLayer
 10
77.5180324169611339
 20
61.3376343887534858
 30
0.0
 11
78.3517520080444569
 21
61.7706739964840352
 31
0.0
  0
LINE
  5
EC
100
AcDbEntity
100
AcDbLine
  8
0
 62
7
420
0
370
0
  6
ByLayer
 10
78.3517520080444569
 20
61.7706739964840352
 30
0.0
 11
79.9975385775208281
 21
62.1477985541245275
 31
0.0
  0
LINE
  5
ED
100
AcDbEntity
100
AcDbLine
  8
0
 62
7
420
0
370
0
  6
ByLayer
 10
79.9975385775208281
 20
62.1477985541245275
 30
0.0
 11
80.6161652637374004
 21
61.2964722518537783
 31
0.0
  0
LINE
  5
EE
100
AcDbEntity
100
AcDbLine
  8
0
 62
7
420
0
370
0
  6
ByLayer
 10
80.6161652637374004
 20
61.2964722518537783
 30
0.0
 11
79.7488973170574127
 21
59.8476946974257658
 31
0.0
  0
LINE
  5
EF
100
AcDbEntity
100
AcDbLine
  8
0
 62
7
420
0
370
0
  6
ByLayer
 10
79.7488973170574127
 20
59.8476946974257658
 30
0.0
 11
79.0793524672288584
 21
59.1888560162127888
 31
0.0
  0
LINE
  5
F0
100
AcDbEntity
100
AcDbLine
  8
0
 62
7
420
0
370
0
  6
ByLayer
 10
79.0793524672288584
 20
59.1888560162127888
 30
0.0
 11
78.5620849296051915
 21
58.8823977357091977
 31
0.0
  0
LINE
  5
F1
100
AcDbEntity
100
AcDbLine
  8
0
 62
7
420
0
370
0
  6
ByLayer
 10
78.5620849296051915
 20
58.8823977357091977
 30
0.0
 11
79.3494069079952595
 21
57.3374948223382503
 31
0.0
  0
LINE
  5
F2
100
AcDbEntity
100
AcDbLine
  8
0
 62
7
420
0
370
0
  6
ByLayer
 10
79.3494069079952595
 20
57.3374948223382503
 30
0.0
 11
79.9014132185779573
 21
57.5756668173579698
 31
0.0
  0
LINE
  5
F3
100
AcDbEntity
100
AcDbLine
  8
0
 62
7
420
0
370
0
  6
ByLayer
 10
79.9014132185779573
 20
57.5756668173579698
 30
0.0
 11
80.8279263489042847
 21
57.7298477856566308
 31
0.0
  0
LINE
  5
F4
100
AcDbEntity
100
AcDbLine
  8
0
 62
7
420
0
370
0
  6
ByLayer
 10
80.8279263489042847
 20
57.7298477856566308
 30
0.0
 11
82.5096412656302505
 21
57.5799496220329416
 31
0.0
  0
LINE
  5
F5
100
AcDbEntity
100
AcDbLine
  8
0
 62
7
420
0
370
0
  6
ByLayer
 10
82.5096412656302505
 20
57.5799496220329416
 30
0.0
 11
82.8348966746836481
 21
56.579200648626049
 31
0.0
  0
LINE
  5
F6
100
AcDbEntity
100
AcDbLine
  8
0
 62
7
420
0
370
0
  6
ByLayer
 10
82.8348966746836481
 20
56.579200648626049
 30
0.0
 11
81.562427350660414
 21
55.469478745323137
 31
0.0
  0
LINE
  5
F7
100
AcDbEntity
100
AcDbLine
  8
0
 62
7
420
0
370
0
  6
ByLayer
 10
81.562427350660414
 20
55.469478745323137
 30
0.0
 11
80.7220458063208497
 21
55.0495252978612157
 31
0.0
  0
LINE
  5
F8
100
AcDbEntity
100
AcDbLine
  8
0
 62
7
420
0
370
0
  6
ByLayer
 10
80.7220458063208497
 20
55.0495252978612157
 30
0.0
 11
80.1355401551664812
 21
54.9179487702997662
 31
0.0
  0
LINE
  5
F9
100
AcDbEntity
100
AcDbLine
  8
0
 62
7
420
0
370
0
  6
ByLayer
 10
80.1355401551664812
 20
54.9179487702997662
 30
0.0
 11
80.4067841702235597
 21
53.2053023928021958
 31
0.0
  0
ENDSEC
  0
SECTION
  2
OBJECTS
  0
DICTIONARY
  5
C
100
AcDbDictionary
280
0
281
1
  3
ACAD_GROUP
350
D
  3
ACAD_LAYOUT
350
1A
  3
ACAD_MLINESTYLE
350
17
  3
ACAD_PLOTSETTINGS
350
19
  3
ACAD_PLOTSTYLENAME
350
E
  3
AcDbVariableDictionary
350
FA
  0
DICTIONARY
  5
D
100
AcDbDictionary
280
0
281
1
  0
ACDBDICTIONARYWDFLT
  5
E
100
AcDbDictionary
281
1
  3
Normal
350
F
100
AcDbDictionaryWithDefault
340
F
  0
ACDBPLACEHOLDER
  5
F
  0
DICTIONARY
  5
17
100
AcDbDictionary
280
0
281
1
  3
Standard
350
18
  0
MLINESTYLE
  5
18
100
AcDbMlineStyle
  2
STANDARD
 70
0
  3

 62
256
 51
90.0
 52
90.0
 71
2
 49
0.5
 62
256
  6
BYLAYER
 49
-0.5
 62
256
  6
BYLAYER
  0
DICTIONARY
  5
19
100
AcDbDictionary
280
0
281
1
  0
DICTIONARY
  5
1A
100
AcDbDictionary
281
1
  3
Layout1
350
1E
  3
Layout2
350
26
  3
Model
350
22
  0
LAYOUT
  5
1E
100
AcDbPlotSettings
  1

  2
C:\Program Files\AutoCAD 2002\plotters\DWF ePlot (optimized for plotting).pc3
  4

  6

 40
0.0
 41
0.0
 42
0.0
 43
0.0
 44
0.0
 45
0.0
 46
0.0
 47
0.0
 48
0.0
 49
0.0
140
0.0
141
0.0
142
1.0
143
1.0
 70
688
 72
0
 73
0
 74
5
  7

 75
16
147
1.0
148
0.0
149
0.0
100
AcDbLayout
  1
Layout1
 70
1
 71
1
 10
0.0
 20
0.0
 11
420.0
 21
297.0
 12
0.0
 22
0.0
 32
0.0
 14
100000000000000000000.0
 24
100000000000000000000.0
 34
100000000000000000000.0
 15
-100000000000000000000.0
 25
-100000000000000000000.0
 35
-100000000000000000000.0
146
0.0
 13
0.0
 23
0.0
 33
0.0
 16
1.0
 26
0.0
 36
0.0
 17
0.0
 27
1.0
 37
0.0
 76
0
330
1B
  0
LAYOUT
  5
22
100
AcDbPlotSettings
  1

  2
C:\Program Files\AutoCAD 2002\plotters\DWF ePlot (optimized for plotting).pc3
  4

  6

 40
0.0
 41
0.0
 42
0.0
 43
0.0
 44
0.0
 45
0.0
 46
0.0
 47
0.0
 48
0.0
 49
0.0
140
0.0
141
0.0
142
1.0
143
1.0
 70
1712
 72
0
 73
0
 74
0
  7

 75
0
147
1.0
148
0.0
149
0.0
100
AcDbLayout
  1
Model
 70
1
 71
0
 10
0.0
 20
0.0
 11
12.0
 21
9.0
 12
0.0
 22
0.0
 32
0.0
 14
0.0
 24
0.0
 34
0.0
 15
0.0
 25
0.0
 35
0.0
146
0.0
 13
0.0
 23
0.0
 33
0.0
 16
1.0
 26
0.0
 36
0.0
 17
0.0
 27
1.0
 37
0.0
 76
0
330
1F
  0
LAYOUT
  5
26
100
AcDbPlotSettings
  1

  2
C:\Program Files\AutoCAD 2002\plotters\DWF ePlot (optimized for plotting).pc3
  4

  6

 40
0.0
 41
0.0
 42
0.0
 43
0.0
 44
0.0
 45
0.0
 46
0.0
 47
0.0
 48
0.0
 49
0.0
140
0.0
141
0.0
142
1.0
143
1.0
 70
688
 72
0
 73
0
 74
5
  7

 75
16
147
1.0
148
0.0
149
0.0
100
AcDbLayout
  1
Layout2
 70
1
 71
2
 10
0.0
 20
0.0
 11
12.0
 21
9.0
 12
0.0
 22
0.0
 32
0.0
 14
0.0
 24
0.0
 34
0.0
 15
0.0
 25
0.0
 35
0.0
146
0.0
 13
0.0
 23
0.0
 33
0.0
 16
1.0
 26
0.0
 36
0.0
 17
0.0
 27
1.0
 37
0.0
 76
0
330
23
  0
DICTIONARY
  5
FA
100
AcDbDictionary
281
1
  3
DIMASSOC
350
FC
  3
HIDETEXT
350
FB
  0
DICTIONARYVAR
  5
FB
100
DictionaryVariables
280
0
  1
2
  0
DICTIONARYVAR
  5
FC
100
DictionaryVariables
280
0
  1
1
  0
ENDSEC
  0
EOF
