999
dxflib 2.0.4.8
  0
SECTION
  2
HEADER
  9
$ACADVER
  1
AC1015
  9
$HANDSEED
  5
FFFF
  9
$USERR4
 40
0.0
  9
$DIMTDEC
 70
2
  9
$DIMTAD
 70
1
  9
$CMLSTYLE
  2
Standard
  9
$VISRETAIN
 70
1
  9
$TILEMODE
 70
1
  9
$SHADEDIF
 70
70
  9
$USERR5
 40
0.0
  9
$UCSYDIR
 10
0.0
 20
1.0
 30
0.0
  9
$CHAMFERA
 40
10.0
  9
$MENU
  1
.
  9
$DIMALTZ
 70
0
  9
$CLAYER
  8
0
  9
$OLESTARTUP
290
0
  9
$UCSXDIR
 10
1.0
 20
0.0
 30
0.0
  9
$CHAMFERB
 40
10.0
  9
$DIMADEC
 70
0
  9
$DIMUPT
 70
0
  9
$DIMASZ
 40
2.5
  9
$TRACEWID
 40
1.0
  9
$REGENMODE
 70
1
  9
$ORTHOMODE
 70
0
  9
$EXTMIN
 10
0.0
 20
0.0
 30
0.0
  9
$ENDCAPS
280
0
  9
$MEASUREMENT
 70
1
  9
$CMLJUST
 70
0
  9
$PUCSYDIR
 10
0.0
 20
1.0
 30
0.0
  9
$ANGBASE
 50
0.0
  9
$USRTIMER
 70
1
  9
$CHAMFERC
 40
20.0
  9
$SKETCHINC
 40
1.0
  9
$DIMGAP
 40
0.625
  9
$DIMTFAC
 40
1.0
  9
$DIMSAH
 70
0
  9
$DIMALT
 70
0
  9
$DIMSHO
 70
1
  9
$VERSIONGUID
  2
{FAEB1C32-E019-11D5-929B-00C0DF256EC4}
  9
$LWDISPLAY
290
0
  9
$PUCSXDIR
 10
1.0
 20
0.0
 30
0.0
  9
$SURFTYPE
 70
6
  9
$SPLFRAME
 70
0
  9
$CHAMFERD
 40
0.0
  9
$DIMALTRND
 40
0.0
  9
$DIMALTTD
 70
3
  9
$DIMTSZ
 40
0.0
  9
$LIMMIN
 10
0.0
 20
0.0
  9
$CELWEIGHT
370
-1
  9
$SURFTAB1
 70
6
  9
$SPLINESEGS
 70
8
  9
$AUPREC
 70
0
  9
$LUNITS
 70
2
  9
$DWGCODEPAGE
  3
ANSI_1252
  9
$PSTYLEMODE
290
1
  9
$UNITMODE
 70
0
  9
$USERI1
 70
0
  9
$UCSORTHOVIEW
 70
0
  9
$SURFTAB2
 70
6
  9
$TDUUPDATE
 40
2455116.7715013311244547
  9
$TDUCREATE
 40
2455116.7715013190172613
  9
$SKPOLY
 70
0
  9
$ELEVATION
 40
0.0
  9
$DIMDSEP
 70
44
  9
$DIMCEN
 40
2.5
  9
$DIMRND
 40
0.0
  9
$INSBASE
 10
0.0
 20
0.0
 30
0.0
  9
$INSUNITS
 70
4
  9
$USERI2
 70
0
  9
$UCSORGRIGHT
 10
0.0
 20
0.0
 30
0.0
  9
$UCSORG
 10
0.0
 20
0.0
 30
0.0
  9
$PELEVATION
 40
0.0
  9
$DIMEXO
 40
0.625
  9
$TEXTSIZE
 40
2.5
  9
$FILLMODE
 70
1
  9
$EXTMAX
 10
297.0
 20
420.0
 30
0.0
  9
$JOINSTYLE
280
0
  9
$USERI3
 70
0
  9
$PUCSORGBOTTOM
 10
0.0
 20
0.0
 30
0.0
  9
$SURFU
 70
6
  9
$ANGDIR
 70
0
  9
$TDUSRTIMER
 40
0.0000000116
  9
$DIMLWD
 70
-2
  9
$DIMTZIN
 70
8
  9
$DIMTOLJ
 70
0
  9
$DIMZIN
 70
8
  9
$DIMDLE
 40
0.0
  9
$DIMSCALE
 40
1.0
  9
$WORLDVIEW
 70
1
  9
$USERI4
 70
0
  9
$SURFV
 70
6
  9
$DIMLWE
 70
-2
  9
$DIMLUNIT
 70
2
  9
$DIMATFIT
 70
3
  9
$DIMALTTZ
 70
0
  9
$DIMJUST
 70
0
  9
$QTEXTMODE
 70
0
  9
$LIMMAX
 10
297.0
 20
420.0
  9
$ACADMAINTVER
 70
6
  9
$EXTNAMES
290
1
  9
$PROXYGRAPHICS
 70
1
  9
$USERI5
 70
0
  9
$UCSORGTOP
 10
0.0
 20
0.0
 30
0.0
  9
$PDMODE
 70
0
  9
$LIMCHECK
 70
0
  9
$THICKNESS
 40
0.0
  9
$DIMAZIN
 70
0
  9
$DIMSE1
 70
0
  9
$DIMLIM
 70
0
  9
$DIMTXT
 40
2.5
  9
$ATTMODE
 70
1
  9
$XEDIT
290
1
  9
$PEXTMAX
 10
297.0
 20
420.0
 30
0.0
  9
$PEXTMIN
 10
0.0
 20
0.0
 30
0.0
  9
$PUCSORG
 10
0.0
 20
0.0
 30
0.0
  9
$SPLINETYPE
 70
6
  9
$TDINDWG
 40
0.0000000116
  9
$LUPREC
 70
4
  9
$DIMSOXD
 70
0
  9
$DIMLFAC
 40
1.0
  9
$DIMSE2
 70
0
  9
$DIMTOH
 70
0
  9
$CELTYPE
  6
ByLayer
  9
$PSVPSCALE
 40
0.0
  9
$FINGERPRINTGUID
  2
{90E381D3-E679-43D0-8DBE-0ACE83286878}
  9
$PLIMCHECK
 70
0
  9
$PUCSORGRIGHT
 10
0.0
 20
0.0
 30
0.0
  9
$PLINEWID
 40
0.0
  9
$DIMFRAC
 70
0
  9
$DIMSTYLE
  2
ISO-25
  9
$DIMTVP
 40
0.0
  9
$DIMASO
 70
1
  9
$DIMTM
 40
0.0
  9
$DIMDLI
 40
3.75
  9
$DISPSILH
 70
0
  9
$CECOLOR
 62
256
  9
$TREEDEPTH
 70
3020
  9
$PLIMMAX
 10
297.0
 20
420.0
  9
$PLIMMIN
 10
0.0
 20
0.0
  9
$MAXACTVP
 70
64
  9
$UCSORGBACK
 10
0.0
 20
0.0
 30
0.0
  9
$UCSORGLEFT
 10
0.0
 20
0.0
 30
0.0
  9
$TDUPDATE
 40
2455116.8131679981015623
  9
$FILLETRAD
 40
10.0
  9
$DIMALTU
 70
2
  9
$DIMDEC
 70
2
  9
$DIMCLRT
 70
0
  9
$DIMALTD
 70
3
  9
$DIMTIH
 70
0
  9
$LTSCALE
 40
1.0
  9
$CEPSNTYPE
380
0
  9
$CMLSCALE
 40
20.0
  9
$PINSBASE
 10
0.0
 20
0.0
 30
0.0
  9
$USERR1
 40
0.0
  9
$PUCSORTHOVIEW
 70
0
  9
$PDSIZE
 40
0.0
  9
$DIMTXSTY
  7
Standard
  9
$DIMCLRD
 70
0
  9
$DIMEXE
 40
1.25
  9
$CELTSCALE
 40
1.0
  9
$PSLTSCALE
 70
1
  9
$PLINEGEN
 70
0
  9
$SHADEDGE
 70
3
  9
$USERR2
 40
0.0
  9
$PUCSORGTOP
 10
0.0
 20
0.0
 30
0.0
  9
$UCSORGFRONT
 10
0.0
 20
0.0
 30
0.0
  9
$TDCREATE
 40
2455116.8131679859943688
  9
$DIMTMOVE
 70
0
  9
$DIMAUNIT
 70
0
  9
$DIMSD1
 70
0
  9
$DIMCLRE
 70
0
  9
$DIMTOFL
 70
1
  9
$DIMALTF
 40
0.0393700787
  9
$DIMTOL
 70
0
  9
$DIMTP
 40
0.0
  9
$TEXTSTYLE
  7
Standard
  9
$USERR3
 40
0.0
  9
$PUCSORGBACK
 10
0.0
 20
0.0
 30
0.0
  9
$PUCSORGFRONT
 10
0.0
 20
0.0
 30
0.0
  9
$PUCSORGLEFT
 10
0.0
 20
0.0
 30
0.0
  9
$UCSORGBOTTOM
 10
0.0
 20
0.0
 30
0.0
  9
$AUNITS
 70
0
  9
$DIMSD2
 70
0
  9
$DIMTIX
 70
0
  9
$MIRRTEXT
 70
1
  0
ENDSEC
  0
SECTION
  2
TABLES
  0
TABLE
  2
VPORT
  5
8
100
AcDbSymbolTable
 70
1
  0
VPORT
  5
30
100
AcDbSymbolTableRecord
100
AcDbViewportTableRecord
  2
*Active
 70
0
 10
0.0
 20
0.0
 11
1.0
 21
1.0
 12
286.3055555555554861
 22
148.5
 13
0.0
 23
0.0
 14
10.0
 24
10.0
 15
10.0
 25
10.0
 16
0.0
 26
0.0
 36
1.0
 17
0.0
 27
0.0
 37
0.0
 40
297.0
 41
1.92798353909465
 42
50.0
 43
0.0
 44
0.0
 50
0.0
 51
0.0
 71
0
 72
100
 73
1
 74
3
 75
1
 76
1
 77
0
 78
0
281
0
 65
1
110
0.0
120
0.0
130
0.0
111
1.0
121
0.0
131
0.0
112
0.0
122
1.0
132
0.0
 79
0
146
0.0
  0
ENDTAB
  0
TABLE
  2
LTYPE
  5
5
100
AcDbSymbolTable
 70
21
  0
LTYPE
  5
14
100
AcDbSymbolTableRecord
100
AcDbLinetypeTableRecord
  2
ByBlock
 70
0
  3

 72
65
 73
0
 40
0.0
  0
LTYPE
  5
15
100
AcDbSymbolTableRecord
100
AcDbLinetypeTableRecord
  2
ByLayer
 70
0
  3

 72
65
 73
0
 40
0.0
  0
LTYPE
  5
16
100
AcDbSymbolTableRecord
100
AcDbLinetypeTableRecord
  2
CONTINUOUS
 70
0
  3
Solid line
 72
65
 73
0
 40
0.0
  0
LTYPE
  5
31
100
AcDbSymbolTableRecord
100
AcDbLinetypeTableRecord
  2
DOT
 70
0
  3
Dot . . . . . . . . . . . . . . . . . . . . . .
 72
65
 73
2
 40
6.3499999999999996
 49
0.0
 74
0
 49
-6.3499999999999996
 74
0
  0
LTYPE
  5
32
100
AcDbSymbolTableRecord
100
AcDbLinetypeTableRecord
  2
DOT2
 70
0
  3
Dot (.5x) .....................................
 72
65
 73
2
 40
3.1749999999999998
 49
0.0
 74
0
 49
-3.1749999999999998
 74
0
  0
LTYPE
  5
33
100
AcDbSymbolTableRecord
100
AcDbLinetypeTableRecord
  2
DOTX2
 70
0
  3
Dot (2x) .  .  .  .  .  .  .  .  .  .  .  .  .
 72
65
 73
2
 40
12.6999999999999993
 49
0.0
 74
0
 49
-12.6999999999999993
 74
0
  0
LTYPE
  5
34
100
AcDbSymbolTableRecord
100
AcDbLinetypeTableRecord
  2
DASHED
 70
0
  3
Dashed __ __ __ __ __ __ __ __ __ __ __ __ __ _
 72
65
 73
2
 40
19.0500000000000007
 49
12.6999999999999993
 74
0
 49
-6.3499999999999996
 74
0
  0
LTYPE
  5
35
100
AcDbSymbolTableRecord
100
AcDbLinetypeTableRecord
  2
DASHED2
 70
0
  3
Dashed (.5x) _ _ _ _ _ _ _ _ _ _ _ _ _ _ _ _ _
 72
65
 73
2
 40
9.5250000000000004
 49
6.3499999999999996
 74
0
 49
-3.1749999999999998
 74
0
  0
LTYPE
  5
36
100
AcDbSymbolTableRecord
100
AcDbLinetypeTableRecord
  2
DASHEDX2
 70
0
  3
Dashed (2x) ____  ____  ____  ____  ____  ___
 72
65
 73
2
 40
38.1000000000000014
 49
25.3999999999999986
 74
0
 49
-12.6999999999999993
 74
0
  0
LTYPE
  5
37
100
AcDbSymbolTableRecord
100
AcDbLinetypeTableRecord
  2
DASHDOT
 70
0
  3
Dash dot __ . __ . __ . __ . __ . __ . __ . __
 72
65
 73
4
 40
25.3999999999999986
 49
12.6999999999999993
 74
0
 49
-6.3499999999999996
 74
0
 49
0.0
 74
0
 49
-6.3499999999999996
 74
0
  0
LTYPE
  5
38
100
AcDbSymbolTableRecord
100
AcDbLinetypeTableRecord
  2
DASHDOT2
 70
0
  3
Dash dot (.5x) _._._._._._._._._._._._._._._.
 72
65
 73
4
 40
12.6999999999999993
 49
6.3499999999999996
 74
0
 49
-3.1749999999999998
 74
0
 49
0.0
 74
0
 49
-3.1749999999999998
 74
0
  0
LTYPE
  5
39
100
AcDbSymbolTableRecord
100
AcDbLinetypeTableRecord
  2
DASHDOTX2
 70
0
  3
Dash dot (2x) ____  .  ____  .  ____  .  ___
 72
65
 73
4
 40
50.7999999999999972
 49
25.3999999999999986
 74
0
 49
-12.6999999999999993
 74
0
 49
0.0
 74
0
 49
-12.6999999999999993
 74
0
  0
LTYPE
  5
3A
100
AcDbSymbolTableRecord
100
AcDbLinetypeTableRecord
  2
DIVIDE
 70
0
  3
Divide ____ . . ____ . . ____ . . ____ . . ____
 72
65
 73
6
 40
31.75
 49
12.6999999999999993
 74
0
 49
-6.3499999999999996
 74
0
 49
0.0
 74
0
 49
-6.3499999999999996
 74
0
 49
0.0
 74
0
 49
-6.3499999999999996
 74
0
  0
LTYPE
  5
3B
100
AcDbSymbolTableRecord
100
AcDbLinetypeTableRecord
  2
DIVIDE2
 70
0
  3
Divide (.5x) __..__..__..__..__..__..__..__.._
 72
65
 73
6
 40
15.875
 49
6.3499999999999996
 74
0
 49
-3.1749999999999998
 74
0
 49
0.0
 74
0
 49
-3.1749999999999998
 74
0
 49
0.0
 74
0
 49
-3.1749999999999998
 74
0
  0
LTYPE
  5
3C
100
AcDbSymbolTableRecord
100
AcDbLinetypeTableRecord
  2
DIVIDEX2
 70
0
  3
Divide (2x) ________  .  .  ________  .  .  _
 72
65
 73
6
 40
63.5
 49
25.3999999999999986
 74
0
 49
-12.6999999999999993
 74
0
 49
0.0
 74
0
 49
-12.6999999999999993
 74
0
 49
0.0
 74
0
 49
-12.6999999999999993
 74
0
  0
LTYPE
  5
3D
100
AcDbSymbolTableRecord
100
AcDbLinetypeTableRecord
  2
CENTER
 70
0
  3
Center ____ _ ____ _ ____ _ ____ _ ____ _ ____
 72
65
 73
4
 40
50.7999999999999972
 49
31.75
 74
0
 49
-6.3499999999999996
 74
0
 49
6.3499999999999996
 74
0
 49
-6.3499999999999996
 74
0
  0
LTYPE
  5
3E
100
AcDbSymbolTableRecord
100
AcDbLinetypeTableRecord
  2
CENTER2
 70
0
  3
Center (.5x) ___ _ ___ _ ___ _ ___ _ ___ _ ___
 72
65
 73
4
 40
28.5749999999999993
 49
19.0500000000000007
 74
0
 49
-3.1749999999999998
 74
0
 49
3.1749999999999998
 74
0
 49
-3.1749999999999998
 74
0
  0
LTYPE
  5
3F
100
AcDbSymbolTableRecord
100
AcDbLinetypeTableRecord
  2
CENTERX2
 70
0
  3
Center (2x) ________  __  ________  __  _____
 72
65
 73
4
 40
101.5999999999999943
 49
63.5
 74
0
 49
-12.6999999999999993
 74
0
 49
12.6999999999999993
 74
0
 49
-12.6999999999999993
 74
0
  0
LTYPE
  5
40
100
AcDbSymbolTableRecord
100
AcDbLinetypeTableRecord
  2
BORDER
 70
0
  3
Border __ __ . __ __ . __ __ . __ __ . __ __ .
 72
65
 73
6
 40
44.4500000000000028
 49
12.6999999999999993
 74
0
 49
-6.3499999999999996
 74
0
 49
12.6999999999999993
 74
0
 49
-6.3499999999999996
 74
0
 49
0.0
 74
0
 49
-6.3499999999999996
 74
0
  0
LTYPE
  5
41
100
AcDbSymbolTableRecord
100
AcDbLinetypeTableRecord
  2
BORDER2
 70
0
  3
Border (.5x) __.__.__.__.__.__.__.__.__.__.__.
 72
65
 73
6
 40
22.2250000000000014
 49
6.3499999999999996
 74
0
 49
-3.1749999999999998
 74
0
 49
6.3499999999999996
 74
0
 49
-3.1749999999999998
 74
0
 49
0.0
 74
0
 49
-3.1749999999999998
 74
0
  0
LTYPE
  5
42
100
AcDbSymbolTableRecord
100
AcDbLinetypeTableRecord
  2
BORDERX2
 70
0
  3
Border (2x) ____  ____  .  ____  ____  .  ___
 72
65
 73
6
 40
88.9000000000000057
 49
25.3999999999999986
 74
0
 49
-12.6999999999999993
 74
0
 49
25.3999999999999986
 74
0
 49
-12.6999999999999993
 74
0
 49
0.0
 74
0
 49
-12.6999999999999993
 74
0
  0
ENDTAB
  0
TABLE
  2
LAYER
  5
2
100
AcDbSymbolTable
 70
5
  0
LAYER
  5
10
100
AcDbSymbolTableRecord
100
AcDbLayerTableRecord
  2
0
 70
0
 62
7
  6
CONTINUOUS
370
-3
390
F
  0
LAYER
  5
43
100
AcDbSymbolTableRecord
100
AcDbLayerTableRecord
  2
Default
 70
0
 62
7
  6
CONTINUOUS
370
-3
390
F
  0
LAYER
  5
44
100
AcDbSymbolTableRecord
100
AcDbLayerTableRecord
  2
MOTHERBOARD-PLAT
 70
1
 62
7
  6
CONTINUOUS
370
-3
390
F
  0
LAYER
  5
45
100
AcDbSymbolTableRecord
100
AcDbLayerTableRecord
  2
centres
 70
0
 62
7
  6
CONTINUOUS
370
0
390
F
  0
LAYER
  5
46
100
AcDbSymbolTableRecord
100
AcDbLayerTableRecord
  2
mother
 70
0
 62
7
  6
CONTINUOUS
370
0
390
F
  0
ENDTAB
  0
TABLE
  2
STYLE
  5
3
100
AcDbSymbolTable
 70
1
  0
STYLE
  5
11
100
AcDbSymbolTableRecord
100
AcDbTextStyleTableRecord
  2
Standard
 70
0
 40
0.0
 41
0.75
 50
0.0
 71
0
 42
2.5
  3
txt
  4

  0
ENDTAB
  0
TABLE
  2
VIEW
  5
6
100
AcDbSymbolTable
 70
0
  0
ENDTAB
  0
TABLE
  2
UCS
  5
7
100
AcDbSymbolTable
 70
0
  0
ENDTAB
  0
TABLE
  2
APPID
  5
9
100
AcDbSymbolTable
 70
1
  0
APPID
  5
12
100
AcDbSymbolTableRecord
100
AcDbRegAppTableRecord
  2
ACAD
 70
0
  0
ENDTAB
  0
TABLE
  2
DIMSTYLE
  5
A
100
AcDbSymbolTable
 70
1
100
AcDbDimStyleTable
 71
0
  0
DIMSTYLE
105
27
100
AcDbSymbolTableRecord
100
AcDbDimStyleTableRecord
  2
Standard
 41
2.5
 42
0.625
 43
3.75
 44
1.25
 70
0
 73
0
 74
0
 77
1
 78
8
140
2.5
141
2.5
143
0.03937007874016
147
0.625
171
3
172
1
271
2
272
2
274
3
278
44
283
0
284
8
340
11
  0
ENDTAB
  0
TABLE
  2
BLOCK_RECORD
  5
1
100
AcDbSymbolTable
 70
1
  0
BLOCK_RECORD
  5
1F
100
AcDbSymbolTableRecord
100
AcDbBlockTableRecord
  2
*Model_Space
340
22
  0
BLOCK_RECORD
  5
1B
100
AcDbSymbolTableRecord
100
AcDbBlockTableRecord
  2
*Paper_Space
340
1E
  0
BLOCK_RECORD
  5
23
100
AcDbSymbolTableRecord
100
AcDbBlockTableRecord
  2
*Paper_Space0
340
26
  0
BLOCK_RECORD
  5
47
100
AcDbSymbolTableRecord
100
AcDbBlockTableRecord
  2
SE
340
0
  0
ENDTAB
  0
ENDSEC
  0
SECTION
  2
BLOCKS
  0
BLOCK
  5
20
100
AcDbEntity
  8
0
100
AcDbBlockBegin
  2
*Model_Space
 70
0
 10
0.0
 20
0.0
 30
0.0
  3
*Model_Space
  1

  0
ENDBLK
  5
21
100
AcDbEntity
  8
0
100
AcDbBlockEnd
  0
BLOCK
  5
1C
100
AcDbEntity
 67
1
  8
0
100
AcDbBlockBegin
  2
*Paper_Space
 70
0
 10
0.0
 20
0.0
 30
0.0
  3
*Paper_Space
  1

  0
ENDBLK
  5
1D
100
AcDbEntity
 67
1
  8
0
100
AcDbBlockEnd
  0
BLOCK
  5
24
100
AcDbEntity
  8
0
100
AcDbBlockBegin
  2
*Paper_Space0
 70
0
 10
0.0
 20
0.0
 30
0.0
  3
*Paper_Space0
  1

  0
ENDBLK
  5
25
100
AcDbEntity
  8
0
100
AcDbBlockEnd
  0
BLOCK
  5
48
100
AcDbEntity
  8
0
100
AcDbBlockBegin
  2
SE
 70
0
 10
0.0
 20
0.0
 30
0.0
  3
SE
  1

  0
LINE
  5
49
100
AcDbEntity
100
AcDbLine
  8
MOTHERBOARD-PLAT
 62
7
370
-1
  6
CONTINUOUS
 10
98.0213349322000056
 20
69.0880921929000067
 30
0.0
 11
98.0213349322000056
 21
359.0880921928999783
 31
0.0
  0
LINE
  5
4A
100
AcDbEntity
100
AcDbLine
  8
MOTHERBOARD-PLAT
 62
7
370
-1
  6
CONTINUOUS
 10
98.0213349322000056
 20
359.0880921928999783
 30
0.0
 11
196.0213349322000056
 21
359.0880921928999783
 31
0.0
  0
LINE
  5
4B
100
AcDbEntity
100
AcDbLine
  8
MOTHERBOARD-PLAT
 62
7
370
-1
  6
CONTINUOUS
 10
196.0213349322000056
 20
359.0880921928999783
 30
0.0
 11
196.0213349322000056
 21
69.0880921929000067
 31
0.0
  0
LINE
  5
4C
100
AcDbEntity
100
AcDbLine
  8
MOTHERBOARD-PLAT
 62
7
370
-1
  6
CONTINUOUS
 10
196.0213349322000056
 20
69.0880921929000067
 30
0.0
 11
98.0213349322000056
 21
69.0880921929000067
 31
0.0
  0
ARC
  5
4D
100
AcDbEntity
  8
MOTHERBOARD-PLAT
 62
7
370
-1
  6
CONTINUOUS
100
AcDbCircle
 10
127.0213349322000056
 20
105.0880921929000067
 30
0.0
 40
1.700000000000035
100
AcDbArc
 50
90.0
 51
270.0
  0
LINE
  5
4E
100
AcDbEntity
100
AcDbLine
  8
MOTHERBOARD-PLAT
 62
7
370
-1
  6
CONTINUOUS
 10
127.0213349322000056
 20
103.3880921929000039
 30
0.0
 11
187.0213349322000056
 21
103.3880921929000039
 31
0.0
  0
ARC
  5
4F
100
AcDbEntity
  8
MOTHERBOARD-PLAT
 62
7
370
-1
  6
CONTINUOUS
100
AcDbCircle
 10
187.0213349322000056
 20
105.0880921929000067
 30
0.0
 40
1.6999999999999791
100
AcDbArc
 50
270.0
 51
90.0
  0
LINE
  5
50
100
AcDbEntity
100
AcDbLine
  8
MOTHERBOARD-PLAT
 62
7
370
-1
  6
CONTINUOUS
 10
187.0213349322000056
 20
106.7880921928999953
 30
0.0
 11
127.0213349322000056
 21
106.7880921928999953
 31
0.0
  0
ARC
  5
51
100
AcDbEntity
  8
MOTHERBOARD-PLAT
 62
7
370
-1
  6
CONTINUOUS
100
AcDbCircle
 10
107.0213349322000056
 20
205.0880921929000067
 30
0.0
 40
1.6999999999999931
100
AcDbArc
 50
0.0
 51
180.0
  0
LINE
  5
52
100
AcDbEntity
100
AcDbLine
  8
MOTHERBOARD-PLAT
 62
7
370
-1
  6
CONTINUOUS
 10
105.3213349322000028
 20
205.0880921929000067
 30
0.0
 11
105.3213349322000028
 21
125.0880921929000067
 31
0.0
  0
ARC
  5
53
100
AcDbEntity
  8
MOTHERBOARD-PLAT
 62
7
370
-1
  6
CONTINUOUS
100
AcDbCircle
 10
107.0213349322000056
 20
125.0880921929000067
 30
0.0
 40
1.700000000000049
100
AcDbArc
 50
180.0
 51
360.0
  0
LINE
  5
54
100
AcDbEntity
100
AcDbLine
  8
MOTHERBOARD-PLAT
 62
7
370
-1
  6
CONTINUOUS
 10
108.7213349321999942
 20
125.0880921929000067
 30
0.0
 11
108.7213349321999942
 21
205.0880921929000067
 31
0.0
  0
CIRCLE
  5
55
100
AcDbEntity
100
AcDbCircle
  8
MOTHERBOARD-PLAT
 62
7
370
-1
  6
CONTINUOUS
 10
107.0213349322000056
 20
317.0880921928999783
 30
0.0
 40
1.7
  0
ARC
  5
56
100
AcDbEntity
  8
MOTHERBOARD-PLAT
 62
7
370
-1
  6
CONTINUOUS
100
AcDbCircle
 10
127.0213349322000056
 20
317.0880921928999783
 30
0.0
 40
1.700000000000035
100
AcDbArc
 50
90.0
 51
270.0
  0
LINE
  5
57
100
AcDbEntity
100
AcDbLine
  8
MOTHERBOARD-PLAT
 62
7
370
-1
  6
CONTINUOUS
 10
127.0213349322000056
 20
315.3880921928999896
 30
0.0
 11
187.0213349322000056
 21
315.3880921928999896
 31
0.0
  0
ARC
  5
58
100
AcDbEntity
  8
MOTHERBOARD-PLAT
 62
7
370
-1
  6
CONTINUOUS
100
AcDbCircle
 10
187.0213349322000056
 20
317.0880921928999783
 30
0.0
 40
1.7000000000000071
100
AcDbArc
 50
270.0
 51
90.0
  0
LINE
  5
59
100
AcDbEntity
100
AcDbLine
  8
MOTHERBOARD-PLAT
 62
7
370
-1
  6
CONTINUOUS
 10
187.0213349322000056
 20
318.7880921929000237
 30
0.0
 11
127.0213349322000056
 21
318.7880921929000237
 31
0.0
  0
ARC
  5
5A
100
AcDbEntity
  8
MOTHERBOARD-PLAT
 62
7
370
-1
  6
CONTINUOUS
100
AcDbCircle
 10
107.0213349322000056
 20
217.0880921929000067
 30
0.0
 40
1.6999999999999931
100
AcDbArc
 50
180.0
 51
360.0
  0
LINE
  5
5B
100
AcDbEntity
100
AcDbLine
  8
MOTHERBOARD-PLAT
 62
7
370
-1
  6
CONTINUOUS
 10
105.3213349322000028
 20
217.0880921929000067
 30
0.0
 11
105.3213349322000028
 21
297.0880921928999783
 31
0.0
  0
ARC
  5
5C
100
AcDbEntity
  8
MOTHERBOARD-PLAT
 62
7
370
-1
  6
CONTINUOUS
100
AcDbCircle
 10
107.0213349322000056
 20
297.0880921928999783
 30
0.0
 40
1.699999999999986
100
AcDbArc
 50
0.0
 51
180.0
  0
LINE
  5
5D
100
AcDbEntity
100
AcDbLine
  8
MOTHERBOARD-PLAT
 62
7
370
-1
  6
CONTINUOUS
 10
108.7213349321999942
 20
297.0880921928999783
 30
0.0
 11
108.7213349321999942
 21
217.0880921929000067
 31
0.0
  0
CIRCLE
  5
5E
100
AcDbEntity
100
AcDbCircle
  8
MOTHERBOARD-PLAT
 62
7
370
-1
  6
CONTINUOUS
 10
107.0213349322000056
 20
105.0880921929000067
 30
0.0
 40
1.7
  0
CIRCLE
  5
5F
100
AcDbEntity
100
AcDbCircle
  8
MOTHERBOARD-PLAT
 62
7
370
-1
  6
CONTINUOUS
 10
177.0213349322000056
 20
77.0880921929000067
 30
0.0
 40
1.6499999999999999
  0
CIRCLE
  5
60
100
AcDbEntity
100
AcDbCircle
  8
MOTHERBOARD-PLAT
 62
7
370
-1
  6
CONTINUOUS
 10
177.0213349322000056
 20
93.0880921929000067
 30
0.0
 40
1.6499999999999999
  0
CIRCLE
  5
61
100
AcDbEntity
100
AcDbCircle
  8
MOTHERBOARD-PLAT
 62
7
370
-1
  6
CONTINUOUS
 10
187.0213349322000056
 20
93.0880921929000067
 30
0.0
 40
1.6499999999999999
  0
CIRCLE
  5
62
100
AcDbEntity
100
AcDbCircle
  8
MOTHERBOARD-PLAT
 62
7
370
-1
  6
CONTINUOUS
 10
187.0213349322000056
 20
77.0880921929000067
 30
0.0
 40
1.6499999999999999
  0
CIRCLE
  5
63
100
AcDbEntity
100
AcDbCircle
  8
MOTHERBOARD-PLAT
 62
7
370
-1
  6
CONTINUOUS
 10
142.024623359900005
 20
77.0880921929000067
 30
0.0
 40
1.6499999999999999
  0
CIRCLE
  5
64
100
AcDbEntity
100
AcDbCircle
  8
MOTHERBOARD-PLAT
 62
7
370
-1
  6
CONTINUOUS
 10
142.024623359900005
 20
93.0880921929000067
 30
0.0
 40
1.6499999999999999
  0
CIRCLE
  5
65
100
AcDbEntity
100
AcDbCircle
  8
MOTHERBOARD-PLAT
 62
7
370
-1
  6
CONTINUOUS
 10
152.024623359900005
 20
93.0880921929000067
 30
0.0
 40
1.6499999999999999
  0
CIRCLE
  5
66
100
AcDbEntity
100
AcDbCircle
  8
MOTHERBOARD-PLAT
 62
7
370
-1
  6
CONTINUOUS
 10
152.024623359900005
 20
77.0880921929000067
 30
0.0
 40
1.6499999999999999
  0
CIRCLE
  5
67
100
AcDbEntity
100
AcDbCircle
  8
MOTHERBOARD-PLAT
 62
7
370
-1
  6
CONTINUOUS
 10
117.0213349322000056
 20
77.0880921929000067
 30
0.0
 40
1.6499999999999999
  0
CIRCLE
  5
68
100
AcDbEntity
100
AcDbCircle
  8
MOTHERBOARD-PLAT
 62
7
370
-1
  6
CONTINUOUS
 10
117.0213349322000056
 20
93.0880921929000067
 30
0.0
 40
1.6499999999999999
  0
CIRCLE
  5
69
100
AcDbEntity
100
AcDbCircle
  8
MOTHERBOARD-PLAT
 62
7
370
-1
  6
CONTINUOUS
 10
107.0213349322000056
 20
93.0880921929000067
 30
0.0
 40
1.6499999999999999
  0
CIRCLE
  5
6A
100
AcDbEntity
100
AcDbCircle
  8
MOTHERBOARD-PLAT
 62
7
370
-1
  6
CONTINUOUS
 10
107.0213349322000056
 20
77.0880921929000067
 30
0.0
 40
1.6499999999999999
  0
ARC
  5
6B
100
AcDbEntity
  8
MOTHERBOARD-PLAT
 62
7
370
-1
  6
CONTINUOUS
100
AcDbCircle
 10
117.0213349322000056
 20
326.0880921928999783
 30
0.0
 40
1.649999999999999
100
AcDbArc
 50
180.0
 51
360.0
  0
LINE
  5
6C
100
AcDbEntity
100
AcDbLine
  8
MOTHERBOARD-PLAT
 62
7
370
-1
  6
CONTINUOUS
 10
115.3713349321999999
 20
326.0880921928999783
 30
0.0
 11
115.3713349321999999
 21
352.0880921928999783
 31
0.0
  0
ARC
  5
6D
100
AcDbEntity
  8
MOTHERBOARD-PLAT
 62
7
370
-1
  6
CONTINUOUS
100
AcDbCircle
 10
117.0213349322000056
 20
352.0880921928999783
 30
0.0
 40
1.649999999999999
100
AcDbArc
 50
0.0
 51
180.0
  0
LINE
  5
6E
100
AcDbEntity
100
AcDbLine
  8
MOTHERBOARD-PLAT
 62
7
370
-1
  6
CONTINUOUS
 10
118.6713349321999971
 20
352.0880921928999783
 30
0.0
 11
118.6713349321999971
 21
326.0880921928999783
 31
0.0
  0
ARC
  5
6F
100
AcDbEntity
  8
MOTHERBOARD-PLAT
 62
7
370
-1
  6
CONTINUOUS
100
AcDbCircle
 10
142.0180465045000062
 20
326.0880921928999783
 30
0.0
 40
1.649999999999999
100
AcDbArc
 50
180.0
 51
360.0
  0
LINE
  5
70
100
AcDbEntity
100
AcDbLine
  8
MOTHERBOARD-PLAT
 62
7
370
-1
  6
CONTINUOUS
 10
140.3680465045000005
 20
326.0880921928999783
 30
0.0
 11
140.3680465045000005
 21
352.0880921928999783
 31
0.0
  0
ARC
  5
71
100
AcDbEntity
  8
MOTHERBOARD-PLAT
 62
7
370
-1
  6
CONTINUOUS
100
AcDbCircle
 10
142.0180465045000062
 20
352.0880921928999783
 30
0.0
 40
1.649999999999999
100
AcDbArc
 50
0.0
 51
180.0
  0
LINE
  5
72
100
AcDbEntity
100
AcDbLine
  8
MOTHERBOARD-PLAT
 62
7
370
-1
  6
CONTINUOUS
 10
143.6680465045000119
 20
352.0880921928999783
 30
0.0
 11
143.6680465045000119
 21
326.0880921928999783
 31
0.0
  0
ARC
  5
73
100
AcDbEntity
  8
MOTHERBOARD-PLAT
 62
7
370
-1
  6
CONTINUOUS
100
AcDbCircle
 10
107.0213349322000056
 20
326.0880921928999783
 30
0.0
 40
1.649999999999999
100
AcDbArc
 50
180.0
 51
360.0
  0
LINE
  5
74
100
AcDbEntity
100
AcDbLine
  8
MOTHERBOARD-PLAT
 62
7
370
-1
  6
CONTINUOUS
 10
105.3713349321999999
 20
326.0880921928999783
 30
0.0
 11
105.3713349321999999
 21
352.0880921928999783
 31
0.0
  0
ARC
  5
75
100
AcDbEntity
  8
MOTHERBOARD-PLAT
 62
7
370
-1
  6
CONTINUOUS
100
AcDbCircle
 10
107.0213349322000056
 20
352.0880921928999783
 30
0.0
 40
1.649999999999999
100
AcDbArc
 50
0.0
 51
180.0
  0
LINE
  5
76
100
AcDbEntity
100
AcDbLine
  8
MOTHERBOARD-PLAT
 62
7
370
-1
  6
CONTINUOUS
 10
108.6713349321999971
 20
352.0880921928999783
 30
0.0
 11
108.6713349321999971
 21
326.0880921928999783
 31
0.0
  0
ARC
  5
77
100
AcDbEntity
  8
MOTHERBOARD-PLAT
 62
7
370
-1
  6
CONTINUOUS
100
AcDbCircle
 10
152.0180465045000062
 20
326.0880921928999783
 30
0.0
 40
1.649999999999999
100
AcDbArc
 50
180.0
 51
360.0
  0
LINE
  5
78
100
AcDbEntity
100
AcDbLine
  8
MOTHERBOARD-PLAT
 62
7
370
-1
  6
CONTINUOUS
 10
150.3680465045000005
 20
326.0880921928999783
 30
0.0
 11
150.3680465045000005
 21
352.0880921928999783
 31
0.0
  0
ARC
  5
79
100
AcDbEntity
  8
MOTHERBOARD-PLAT
 62
7
370
-1
  6
CONTINUOUS
100
AcDbCircle
 10
152.0180465045000062
 20
352.0880921928999783
 30
0.0
 40
1.649999999999999
100
AcDbArc
 50
0.0
 51
180.0
  0
LINE
  5
7A
100
AcDbEntity
100
AcDbLine
  8
MOTHERBOARD-PLAT
 62
7
370
-1
  6
CONTINUOUS
 10
153.6680465045000119
 20
352.0880921928999783
 30
0.0
 11
153.6680465045000119
 21
326.0880921928999783
 31
0.0
  0
ARC
  5
7B
100
AcDbEntity
  8
MOTHERBOARD-PLAT
 62
7
370
-1
  6
CONTINUOUS
100
AcDbCircle
 10
187.0213349322000056
 20
326.0880921928999783
 30
0.0
 40
1.649999999999985
100
AcDbArc
 50
180.0
 51
360.0
  0
LINE
  5
7C
100
AcDbEntity
100
AcDbLine
  8
MOTHERBOARD-PLAT
 62
7
370
-1
  6
CONTINUOUS
 10
188.6713349322000113
 20
326.0880921928999783
 30
0.0
 11
188.6713349322000113
 21
352.0880921928999783
 31
0.0
  0
ARC
  5
7D
100
AcDbEntity
  8
MOTHERBOARD-PLAT
 62
7
370
-1
  6
CONTINUOUS
100
AcDbCircle
 10
187.0213349322000056
 20
352.0880921928999783
 30
0.0
 40
1.650000000000013
100
AcDbArc
 50
0.0
 51
180.0
  0
LINE
  5
7E
100
AcDbEntity
100
AcDbLine
  8
MOTHERBOARD-PLAT
 62
7
370
-1
  6
CONTINUOUS
 10
185.3713349321999999
 20
352.0880921928999783
 30
0.0
 11
185.3713349321999999
 21
326.0880921928999783
 31
0.0
  0
ARC
  5
7F
100
AcDbEntity
  8
MOTHERBOARD-PLAT
 62
7
370
-1
  6
CONTINUOUS
100
AcDbCircle
 10
177.0213349322000056
 20
326.0880921928999783
 30
0.0
 40
1.649999999999985
100
AcDbArc
 50
180.0
 51
360.0
  0
LINE
  5
80
100
AcDbEntity
100
AcDbLine
  8
MOTHERBOARD-PLAT
 62
7
370
-1
  6
CONTINUOUS
 10
178.6713349322000113
 20
326.0880921928999783
 30
0.0
 11
178.6713349322000113
 21
352.0880921928999783
 31
0.0
  0
ARC
  5
81
100
AcDbEntity
  8
MOTHERBOARD-PLAT
 62
7
370
-1
  6
CONTINUOUS
100
AcDbCircle
 10
177.0213349322000056
 20
352.0880921928999783
 30
0.0
 40
1.650000000000013
100
AcDbArc
 50
0.0
 51
180.0
  0
LINE
  5
82
100
AcDbEntity
100
AcDbLine
  8
MOTHERBOARD-PLAT
 62
7
370
-1
  6
CONTINUOUS
 10
175.3713349321999999
 20
352.0880921928999783
 30
0.0
 11
175.3713349321999999
 21
326.0880921928999783
 31
0.0
  0
ENDBLK
  5
83
100
AcDbEntity
  8
0
100
AcDbBlockEnd
  0
ENDSEC
  0
SECTION
  2
ENTITIES
  0
INSERT
  5
84
100
AcDbEntity
100
AcDbBlockReference
  8
Default
 62
256
370
-1
  6
ByLayer
  2
SE
 10
-69.0880921928999783
 20
196.021334932200034
 30
0.0
 50
270.0
  0
LINE
  5
85
100
AcDbEntity
100
AcDbLine
  8
centres
 62
256
370
-1
  6
ByLayer
 10
282.9999999999999432
 20
79.0000000000000284
 30
0.0
 11
282.9999999999999432
 21
69.0000000000000568
 31
0.0
  0
LINE
  5
86
100
AcDbEntity
100
AcDbLine
  8
centres
 62
256
370
-1
  6
ByLayer
 10
257.0000000000000568
 20
79.0000000000000711
 30
0.0
 11
257.0000000000000568
 21
69.0000000000000853
 31
0.0
  0
LINE
  5
87
100
AcDbEntity
100
AcDbLine
  8
centres
 62
256
370
-1
  6
ByLayer
 10
282.9999999999999432
 20
44.0032884276999994
 30
0.0
 11
282.9999999999999432
 21
34.003288427700042
 31
0.0
  0
LINE
  5
88
100
AcDbEntity
100
AcDbLine
  8
centres
 62
256
370
-1
  6
ByLayer
 10
257.0000000000000568
 20
44.0032884277000846
 30
0.0
 11
257.0000000000000568
 21
34.0032884277000989
 31
0.0
  0
LINE
  5
89
100
AcDbEntity
100
AcDbLine
  8
centres
 62
256
370
-1
  6
ByLayer
 10
283.0000000000000568
 20
9.0
 30
0.0
 11
282.9999999999999432
 21
-1.0
 31
0.0
  0
LINE
  5
8A
100
AcDbEntity
100
AcDbLine
  8
centres
 62
256
370
-1
  6
ByLayer
 10
257.0000000000000568
 20
9.0000000000000711
 30
0.0
 11
257.0000000000000568
 21
-0.9999999999999289
 31
0.0
  0
LINE
  5
8B
100
AcDbEntity
100
AcDbLine
  8
centres
 62
256
370
-1
  6
ByLayer
 10
24.0000000000000142
 20
89.0000000000000284
 30
0.0
 11
34.0000000000000142
 21
89.0000000000000284
 31
0.0
  0
LINE
  5
8C
100
AcDbEntity
100
AcDbLine
  8
centres
 62
256
370
-1
  6
ByLayer
 10
8.0
 20
89.0000000000000284
 30
0.0
 11
18.0
 21
89.0000000000000284
 31
0.0
  0
LINE
  5
8D
100
AcDbEntity
100
AcDbLine
  8
centres
 62
256
370
-1
  6
ByLayer
 10
23.9999999999999858
 20
9.0000000000000284
 30
0.0
 11
24.0000000000000142
 21
-0.9999999999999716
 31
0.0
  0
LINE
  5
8E
100
AcDbEntity
100
AcDbLine
  8
centres
 62
256
370
-1
  6
ByLayer
 10
8.0
 20
9.0000000000000284
 30
0.0
 11
7.9999999999999432
 21
-0.9999999999999716
 31
0.0
  0
LINE
  5
8F
100
AcDbEntity
100
AcDbLine
  8
centres
 62
256
370
-1
  6
ByLayer
 10
8.0000000000000995
 20
43.996711572300029
 30
0.0
 11
8.0
 21
33.996711572300029
 31
0.0
  0
LINE
  5
90
100
AcDbEntity
100
AcDbLine
  8
centres
 62
256
370
-1
  6
ByLayer
 10
24.0000000000000142
 20
79.0000000000000284
 30
0.0
 11
24.0000000000000142
 21
69.0000000000000284
 31
0.0
  0
LINE
  5
91
100
AcDbEntity
100
AcDbLine
  8
centres
 62
256
370
-1
  6
ByLayer
 10
8.0000000000000142
 20
79.0000000000000284
 30
0.0
 11
8.0000000000000142
 21
69.0000000000000284
 31
0.0
  0
LINE
  5
92
100
AcDbEntity
100
AcDbLine
  8
centres
 62
256
370
-1
  6
ByLayer
 10
24.0000000000000142
 20
104.0000000000000284
 30
0.0
 11
24.0000000000000142
 21
79.0000000000000284
 31
0.0
  0
LINE
  5
93
100
AcDbEntity
100
AcDbLine
  8
centres
 62
256
370
-1
  6
ByLayer
 10
-9.0
 20
89.0000000000000426
 30
0.0
 11
45.9999999999999858
 21
89.0000000000000426
 31
0.0
  0
LINE
  5
94
100
AcDbEntity
100
AcDbLine
  8
centres
 62
256
370
-1
  6
ByLayer
 10
8.0
 20
104.0000000000000284
 30
0.0
 11
8.0
 21
79.0000000000000284
 31
0.0
  0
LINE
  5
95
100
AcDbEntity
100
AcDbLine
  8
centres
 62
256
370
-1
  6
ByLayer
 10
-6.9999999999999858
 20
79.0000000000000284
 30
0.0
 11
18.0000000000000142
 21
79.0000000000000284
 31
0.0
  0
LINE
  5
96
100
AcDbEntity
100
AcDbLine
  8
centres
 62
256
370
-1
  6
ByLayer
 10
9.0000000000000142
 20
79.0000000000000284
 30
0.0
 11
34.0000000000000142
 21
79.0000000000000284
 31
0.0
  0
LINE
  5
97
100
AcDbEntity
100
AcDbLine
  8
centres
 62
256
370
-1
  6
ByLayer
 10
9.0000000000000284
 20
53.996711572300029
 30
0.0
 11
34.0000000000000426
 21
53.996711572300029
 31
0.0
  0
LINE
  5
98
100
AcDbEntity
100
AcDbLine
  8
centres
 62
256
370
-1
  6
ByLayer
 10
9.0000000000000142
 20
43.996711572300029
 30
0.0
 11
33.9999999999999858
 21
43.9967115723000362
 31
0.0
  0
LINE
  5
99
100
AcDbEntity
100
AcDbLine
  8
centres
 62
256
370
-1
  6
ByLayer
 10
24.0000000000000284
 20
68.996711572300029
 30
0.0
 11
24.0000000000000142
 21
28.996711572300029
 31
0.0
  0
LINE
  5
9A
100
AcDbEntity
100
AcDbLine
  8
centres
 62
256
370
-1
  6
ByLayer
 10
-7.0000000000000142
 20
43.9967115723000362
 30
0.0
 11
18.0000000000000426
 21
43.996711572300029
 31
0.0
  0
LINE
  5
9B
100
AcDbEntity
100
AcDbLine
  8
centres
 62
256
370
-1
  6
ByLayer
 10
8.0000000000000142
 20
68.996711572300029
 30
0.0
 11
8.0000000000000142
 21
43.996711572300029
 31
0.0
  0
LINE
  5
9C
100
AcDbEntity
100
AcDbLine
  8
centres
 62
256
370
-1
  6
ByLayer
 10
-7.0
 20
53.996711572300029
 30
0.0
 11
18.0000000000000142
 21
53.996711572300029
 31
0.0
  0
LINE
  5
9D
100
AcDbEntity
100
AcDbLine
  8
centres
 62
256
370
-1
  6
ByLayer
 10
24.0000000000000142
 20
34.0000000000000355
 30
0.0
 11
23.9999999999999858
 21
9.0000000000000284
 31
0.0
  0
LINE
  5
9E
100
AcDbEntity
100
AcDbLine
  8
centres
 62
256
370
-1
  6
ByLayer
 10
9.0000000000000142
 20
19.0000000000000284
 30
0.0
 11
33.9999999999999858
 21
19.0000000000000284
 31
0.0
  0
LINE
  5
9F
100
AcDbEntity
100
AcDbLine
  8
centres
 62
256
370
-1
  6
ByLayer
 10
8.9999999999999858
 20
9.0000000000000284
 30
0.0
 11
34.0000000000000142
 21
9.0000000000000284
 31
0.0
  0
LINE
  5
A0
100
AcDbEntity
100
AcDbLine
  8
centres
 62
256
370
-1
  6
ByLayer
 10
-7.0
 20
9.0000000000000284
 30
0.0
 11
17.9999999999999858
 21
9.0000000000000284
 31
0.0
  0
LINE
  5
A1
100
AcDbEntity
100
AcDbLine
  8
centres
 62
256
370
-1
  6
ByLayer
 10
7.9999999999999716
 20
34.0000000000000284
 30
0.0
 11
8.0
 21
9.0000000000000284
 31
0.0
  0
LINE
  5
A2
100
AcDbEntity
100
AcDbLine
  8
centres
 62
256
370
-1
  6
ByLayer
 10
-7.0000000000000853
 20
19.0000000000000284
 30
0.0
 11
17.9999999999999858
 21
19.0000000000000284
 31
0.0
  0
LINE
  5
A3
100
AcDbEntity
100
AcDbLine
  8
centres
 62
256
370
-1
  6
ByLayer
 10
257.0000000000000568
 20
104.0000000000000711
 30
0.0
 11
257.0000000000000568
 21
79.0000000000000711
 31
0.0
  0
LINE
  5
A4
100
AcDbEntity
100
AcDbLine
  8
centres
 62
256
370
-1
  6
ByLayer
 10
257.0000000000000568
 20
69.0032884277000562
 30
0.0
 11
257.0000000000000568
 21
44.0032884277000278
 31
0.0
  0
LINE
  5
A5
100
AcDbEntity
100
AcDbLine
  8
centres
 62
256
370
-1
  6
ByLayer
 10
242.0000000000000568
 20
54.0032884277000349
 30
0.0
 11
267.0000000000000568
 21
54.0032884277000349
 31
0.0
  0
LINE
  5
A6
100
AcDbEntity
100
AcDbLine
  8
centres
 62
256
370
-1
  6
ByLayer
 10
242.0000000000000568
 20
44.0032884277000562
 30
0.0
 11
267.0000000000000568
 21
44.0032884277000775
 31
0.0
  0
LINE
  5
A7
100
AcDbEntity
100
AcDbLine
  8
centres
 62
256
370
-1
  6
ByLayer
 10
257.0000000000000568
 20
34.0000000000000426
 30
0.0
 11
257.0000000000000568
 21
9.0
 31
0.0
  0
LINE
  5
A8
100
AcDbEntity
100
AcDbLine
  8
centres
 62
256
370
-1
  6
ByLayer
 10
242.0
 20
19.0000000000000142
 30
0.0
 11
267.0000000000000568
 21
19.0000000000000711
 31
0.0
  0
LINE
  5
A9
100
AcDbEntity
100
AcDbLine
  8
centres
 62
256
370
-1
  6
ByLayer
 10
283.0000000000000568
 20
104.0000000000000853
 30
0.0
 11
283.0000000000000568
 21
79.0000000000000853
 31
0.0
  0
LINE
  5
AA
100
AcDbEntity
100
AcDbLine
  8
centres
 62
256
370
-1
  6
ByLayer
 10
268.0000000000000568
 20
89.0000000000001137
 30
0.0
 11
293.0000000000000568
 21
89.0000000000000711
 31
0.0
  0
LINE
  5
AB
100
AcDbEntity
100
AcDbLine
  8
centres
 62
256
370
-1
  6
ByLayer
 10
283.0000000000000568
 20
69.0032884277000278
 30
0.0
 11
283.0000000000000568
 21
44.003288427700042
 31
0.0
  0
LINE
  5
AC
100
AcDbEntity
100
AcDbLine
  8
centres
 62
256
370
-1
  6
ByLayer
 10
268.0000000000000568
 20
54.003288427700042
 30
0.0
 11
293.0000000000000568
 21
54.0032884277000349
 31
0.0
  0
LINE
  5
AD
100
AcDbEntity
100
AcDbLine
  8
centres
 62
256
370
-1
  6
ByLayer
 10
267.9999999999999432
 20
44.0032884276999923
 30
0.0
 11
292.9999999999999432
 21
44.0032884277000065
 31
0.0
  0
LINE
  5
AE
100
AcDbEntity
100
AcDbLine
  8
centres
 62
256
370
-1
  6
ByLayer
 10
283.0000000000000568
 20
34.0000000000000355
 30
0.0
 11
283.0000000000000568
 21
9.0
 31
0.0
  0
LINE
  5
AF
100
AcDbEntity
100
AcDbLine
  8
centres
 62
256
370
-1
  6
ByLayer
 10
268.0000000000000568
 20
19.0000000000000284
 30
0.0
 11
293.0000000000000568
 21
19.0000000000000426
 31
0.0
  0
LINE
  5
B0
100
AcDbEntity
100
AcDbLine
  8
centres
 62
256
370
-1
  6
ByLayer
 10
268.0000000000000568
 20
9.0000000000000284
 30
0.0
 11
293.0000000000000568
 21
9.0
 31
0.0
  0
LINE
  5
B1
100
AcDbEntity
100
AcDbLine
  8
mother
 62
256
370
-1
  6
ByLayer
 10
0.0
 20
98.0000000000000142
 30
0.0
 11
290.0
 21
97.9999999999999289
 31
0.0
  0
LINE
  5
B2
100
AcDbEntity
100
AcDbLine
  8
mother
 62
256
370
-1
  6
ByLayer
 10
290.0
 20
97.9999999999999289
 30
0.0
 11
290.0
 21
-0.0000000000000036
 31
0.0
  0
LINE
  5
B3
100
AcDbEntity
100
AcDbLine
  8
mother
 62
256
370
-1
  6
ByLayer
 10
290.0
 20
-0.0000000000000036
 30
0.0
 11
0.0
 21
0.0
 31
0.0
  0
LINE
  5
B4
100
AcDbEntity
100
AcDbLine
  8
mother
 62
256
370
-1
  6
ByLayer
 10
0.0
 20
0.0
 30
0.0
 11
0.0
 21
98.0000000000000142
 31
0.0
  0
LINE
  5
B5
100
AcDbEntity
100
AcDbLine
  8
mother
 62
256
370
-1
  6
ByLayer
 10
257.0
 20
90.6500000000001762
 30
0.0
 11
283.0
 21
90.6499999999999915
 31
0.0
  0
LINE
  5
B6
100
AcDbEntity
100
AcDbLine
  8
mother
 62
256
370
-1
  6
ByLayer
 10
257.0
 20
87.3500000000000085
 30
0.0
 11
283.0
 21
87.3500000000000369
 31
0.0
  0
LINE
  5
B7
100
AcDbEntity
100
AcDbLine
  8
mother
 62
256
370
-1
  6
ByLayer
 10
257.0
 20
80.6500000000000341
 30
0.0
 11
282.9999999999999432
 21
80.6499999999999204
 31
0.0
  0
LINE
  5
B8
100
AcDbEntity
100
AcDbLine
  8
mother
 62
256
370
-1
  6
ByLayer
 10
257.0
 20
77.350000000000108
 30
0.0
 11
282.9999999999999432
 21
77.3499999999998096
 31
0.0
  0
LINE
  5
B9
100
AcDbEntity
100
AcDbLine
  8
mother
 62
256
370
-1
  6
ByLayer
 10
257.0000000000000568
 20
55.653288427699863
 30
0.0
 11
282.9999999999999432
 21
55.6532884277000051
 31
0.0
  0
LINE
  5
BA
100
AcDbEntity
100
AcDbLine
  8
mother
 62
256
370
-1
  6
ByLayer
 10
257.0000000000000568
 20
52.3532884276999937
 30
0.0
 11
282.9999999999999432
 21
52.3532884276999937
 31
0.0
  0
LINE
  5
BB
100
AcDbEntity
100
AcDbLine
  8
mother
 62
256
370
-1
  6
ByLayer
 10
256.9999999999999432
 20
45.6532884276999766
 30
0.0
 11
282.9999999999999432
 21
45.6532884276999198
 31
0.0
  0
LINE
  5
BC
100
AcDbEntity
100
AcDbLine
  8
mother
 62
256
370
-1
  6
ByLayer
 10
256.9999999999999432
 20
42.3532884276999653
 30
0.0
 11
282.9999999999999432
 21
42.3532884276998232
 31
0.0
  0
LINE
  5
BD
100
AcDbEntity
100
AcDbLine
  8
mother
 62
256
370
-1
  6
ByLayer
 10
256.9999999999999432
 20
20.6500000000000341
 30
0.0
 11
282.9999999999998863
 21
20.6499999999999204
 31
0.0
  0
LINE
  5
BE
100
AcDbEntity
100
AcDbLine
  8
mother
 62
256
370
-1
  6
ByLayer
 10
256.9999999999999432
 20
17.3499999999999375
 30
0.0
 11
282.9999999999998863
 21
17.3500000000000227
 31
0.0
  0
LINE
  5
BF
100
AcDbEntity
100
AcDbLine
  8
mother
 62
256
370
-1
  6
ByLayer
 10
257.0000000000001137
 20
10.6500000000001478
 30
0.0
 11
282.9999999999998863
 21
10.6500000000000341
 31
0.0
  0
LINE
  5
C0
100
AcDbEntity
100
AcDbLine
  8
mother
 62
256
370
-1
  6
ByLayer
 10
257.0000000000001137
 20
7.3499999999998806
 30
0.0
 11
282.9999999999998863
 21
7.3500000000000796
 31
0.0
  0
CIRCLE
  5
C1
100
AcDbEntity
100
AcDbCircle
  8
mother
 62
256
370
-1
  6
ByLayer
 10
8.0000000000000284
 20
89.0000000000000142
 30
0.0
 40
1.6500000000000006
  0
CIRCLE
  5
C2
100
AcDbEntity
100
AcDbCircle
  8
mother
 62
256
370
-1
  6
ByLayer
 10
24.0000000000000284
 20
89.0000000000000284
 30
0.0
 40
1.6499999999999986
  0
CIRCLE
  5
C3
100
AcDbEntity
100
AcDbCircle
  8
mother
 62
256
370
-1
  6
ByLayer
 10
7.9999999999999432
 20
78.9999999999999716
 30
0.0
 40
1.6499999999999995
  0
CIRCLE
  5
C4
100
AcDbEntity
100
AcDbCircle
  8
mother
 62
256
370
-1
  6
ByLayer
 10
24.0000000000000142
 20
79.0
 30
0.0
 40
1.6499999999999961
  0
CIRCLE
  5
C5
100
AcDbEntity
100
AcDbCircle
  8
mother
 62
256
370
-1
  6
ByLayer
 10
8.0000000000000142
 20
53.9967115723000006
 30
0.0
 40
1.6500000000000015
  0
CIRCLE
  5
C6
100
AcDbEntity
100
AcDbCircle
  8
mother
 62
256
370
-1
  6
ByLayer
 10
24.0000000000000142
 20
53.996711572300029
 30
0.0
 40
1.6500000000000026
  0
CIRCLE
  5
C7
100
AcDbEntity
100
AcDbCircle
  8
mother
 62
256
370
-1
  6
ByLayer
 10
7.9999999999999574
 20
43.9967115722999722
 30
0.0
 40
1.6499999999999995
  0
CIRCLE
  5
C8
100
AcDbEntity
100
AcDbCircle
  8
mother
 62
256
370
-1
  6
ByLayer
 10
23.9999999999999289
 20
43.9967115722999438
 30
0.0
 40
1.6500000000000004
  0
CIRCLE
  5
C9
100
AcDbEntity
100
AcDbCircle
  8
mother
 62
256
370
-1
  6
ByLayer
 10
7.9999999999999574
 20
19.0
 30
0.0
 40
1.6499999999999968
  0
CIRCLE
  5
CA
100
AcDbEntity
100
AcDbCircle
  8
mother
 62
256
370
-1
  6
ByLayer
 10
23.9999999999999574
 20
18.9999999999999716
 30
0.0
 40
1.6499999999999975
  0
CIRCLE
  5
CB
100
AcDbEntity
100
AcDbCircle
  8
mother
 62
256
370
-1
  6
ByLayer
 10
8.0000000000000711
 20
9.0000000000000284
 30
0.0
 40
1.6499999999999968
  0
CIRCLE
  5
CC
100
AcDbEntity
100
AcDbCircle
  8
mother
 62
256
370
-1
  6
ByLayer
 10
23.9999999999999432
 20
8.9999999999999716
 30
0.0
 40
1.6500000000000026
  0
ARC
  5
CD
100
AcDbEntity
  8
mother
 62
7
370
0
  6
CONTINUOUS
100
AcDbCircle
 10
257.0
 20
88.9999999999999432
 30
0.0
 40
1.6500000000000132
100
AcDbArc
 50
90.0
 51
270.0
  0
ARC
  5
CE
100
AcDbEntity
  8
mother
 62
7
370
0
  6
CONTINUOUS
100
AcDbCircle
 10
283.0
 20
89.0000000000000995
 30
0.0
 40
1.6500000000000092
100
AcDbArc
 50
270.0
 51
90.0
  0
ARC
  5
CF
100
AcDbEntity
  8
mother
 62
7
370
0
  6
CONTINUOUS
100
AcDbCircle
 10
257.0
 20
79.0000000000001279
 30
0.0
 40
1.6500000000000159
100
AcDbArc
 50
90.0
 51
270.0
  0
ARC
  5
D0
100
AcDbEntity
  8
mother
 62
7
370
0
  6
CONTINUOUS
100
AcDbCircle
 10
282.9999999999999432
 20
78.9999999999999716
 30
0.0
 40
1.6500000000000068
100
AcDbArc
 50
270.0
 51
90.0
  0
ARC
  5
D1
100
AcDbEntity
  8
mother
 62
7
370
0
  6
CONTINUOUS
100
AcDbCircle
 10
257.0000000000000568
 20
54.0032884277001131
 30
0.0
 40
1.649999999999993
100
AcDbArc
 50
90.0
 51
270.0
  0
ARC
  5
D2
100
AcDbEntity
  8
mother
 62
7
370
0
  6
CONTINUOUS
100
AcDbCircle
 10
282.9999999999999432
 20
54.0032884276999425
 30
0.0
 40
1.6499999999999952
100
AcDbArc
 50
270.0
 51
90.0
  0
ARC
  5
D3
100
AcDbEntity
  8
mother
 62
7
370
0
  6
CONTINUOUS
100
AcDbCircle
 10
256.9999999999999432
 20
44.0032884276999425
 30
0.0
 40
1.6499999999999888
100
AcDbArc
 50
90.0
 51
270.0
  0
ARC
  5
D4
100
AcDbEntity
  8
mother
 62
7
370
0
  6
CONTINUOUS
100
AcDbCircle
 10
282.9999999999999432
 20
44.0032884276999425
 30
0.0
 40
1.6500000000000006
100
AcDbArc
 50
270.0
 51
90.0
  0
ARC
  5
D5
100
AcDbEntity
  8
mother
 62
7
370
0
  6
CONTINUOUS
100
AcDbCircle
 10
256.9999999999999432
 20
18.9999999999998863
 30
0.0
 40
1.6499999999999782
100
AcDbArc
 50
90.0
 51
270.0
  0
ARC
  5
D6
100
AcDbEntity
  8
mother
 62
7
370
0
  6
CONTINUOUS
100
AcDbCircle
 10
282.9999999999998863
 20
18.999999999999801
 30
0.0
 40
1.6500000000000228
100
AcDbArc
 50
270.0
 51
90.0
  0
ARC
  5
D7
100
AcDbEntity
  8
mother
 62
7
370
0
  6
CONTINUOUS
100
AcDbCircle
 10
257.0000000000001137
 20
9.0000000000001137
 30
0.0
 40
1.6499999999999868
100
AcDbArc
 50
90.0
 51
270.0
  0
ARC
  5
D8
100
AcDbEntity
  8
mother
 62
7
370
0
  6
CONTINUOUS
100
AcDbCircle
 10
282.9999999999998863
 20
8.9999999999998579
 30
0.0
 40
1.6500000000000121
100
AcDbArc
 50
270.0
 51
90.0
  0
CIRCLE
  5
D9
100
AcDbEntity
100
AcDbCircle
  8
mother
 62
256
370
-1
  6
ByLayer
 10
197.0000000000000568
 20
48.9999999999999574
 30
0.0
 40
40.0
  0
LINE
  5
DA
100
AcDbEntity
100
AcDbLine
  8
centres
 62
256
370
-1
  6
ByLayer
 10
252.9999999999999432
 20
79.0000000000000711
 30
0.0
 11
292.9999999999999432
 21
79.0000000000000568
 31
0.0
  0
LINE
  5
DB
100
AcDbEntity
100
AcDbLine
  8
centres
 62
256
370
-1
  6
ByLayer
 10
252.0000000000000568
 20
89.0000000000000568
 30
0.0
 11
267.0000000000000568
 21
89.0000000000000853
 31
0.0
  0
LINE
  5
DC
100
AcDbEntity
100
AcDbLine
  8
centres
 62
256
370
-1
  6
ByLayer
 10
252.0000000000000568
 20
9.0000000000000711
 30
0.0
 11
266.9999999999999432
 21
9.0000000000000426
 31
0.0
  0
CIRCLE
  5
DD
100
AcDbEntity
100
AcDbCircle
  8
mother
 62
256
370
-1
  6
ByLayer
 10
155.7500000000000568
 20
90.2499999999999716
 30
0.0
 40
2.2000000000000002
  0
CIRCLE
  5
DE
100
AcDbEntity
100
AcDbCircle
  8
mother
 62
256
370
-1
  6
ByLayer
 10
238.2500000000000568
 20
90.2499999999999574
 30
0.0
 40
2.2000000000000002
  0
CIRCLE
  5
DF
100
AcDbEntity
100
AcDbCircle
  8
mother
 62
256
370
-1
  6
ByLayer
 10
238.2500000000000568
 20
7.7499999999999574
 30
0.0
 40
2.2000000000000002
  0
CIRCLE
  5
E0
100
AcDbEntity
100
AcDbCircle
  8
mother
 62
256
370
-1
  6
ByLayer
 10
155.7500000000000568
 20
7.7499999999999769
 30
0.0
 40
2.2000000000000002
  0
LINE
  5
E1
100
AcDbEntity
100
AcDbLine
  8
centres
 62
256
370
-1
  6
ByLayer
 10
155.7500000000000568
 20
80.2499999999999716
 30
0.0
 11
155.7500000000000568
 21
110.2499999999999716
 31
0.0
  0
LINE
  5
E2
100
AcDbEntity
100
AcDbLine
  8
centres
 62
256
370
-1
  6
ByLayer
 10
145.7500000000000568
 20
90.2499999999999716
 30
0.0
 11
165.7500000000000568
 21
90.2499999999999716
 31
0.0
  0
LINE
  5
E3
100
AcDbEntity
100
AcDbLine
  8
centres
 62
256
370
-1
  6
ByLayer
 10
155.7500000000000568
 20
-2.2500000000000231
 30
0.0
 11
155.7500000000000568
 21
17.7499999999999787
 31
0.0
  0
LINE
  5
E4
100
AcDbEntity
100
AcDbLine
  8
centres
 62
256
370
-1
  6
ByLayer
 10
145.7500000000000568
 20
7.7499999999999769
 30
0.0
 11
165.7500000000000568
 21
7.7499999999999769
 31
0.0
  0
LINE
  5
E5
100
AcDbEntity
100
AcDbLine
  8
centres
 62
256
370
-1
  6
ByLayer
 10
238.2500000000000568
 20
80.2499999999999574
 30
0.0
 11
238.2500000000000568
 21
100.2499999999999574
 31
0.0
  0
LINE
  5
E6
100
AcDbEntity
100
AcDbLine
  8
centres
 62
256
370
-1
  6
ByLayer
 10
228.2500000000000568
 20
90.2499999999999574
 30
0.0
 11
248.2500000000000568
 21
90.2499999999999574
 31
0.0
  0
LINE
  5
E7
100
AcDbEntity
100
AcDbLine
  8
centres
 62
256
370
-1
  6
ByLayer
 10
238.2500000000000568
 20
-2.2500000000000426
 30
0.0
 11
238.2500000000000568
 21
17.7499999999999574
 31
0.0
  0
LINE
  5
E8
100
AcDbEntity
100
AcDbLine
  8
centres
 62
256
370
-1
  6
ByLayer
 10
228.2500000000000568
 20
7.7499999999999574
 30
0.0
 11
248.2500000000000568
 21
7.7499999999999574
 31
0.0
  0
LINE
  5
E9
100
AcDbEntity
100
AcDbLine
  8
centres
 62
256
370
-1
  6
ByLayer
 10
197.0000000000000568
 20
38.9999999999999574
 30
0.0
 11
197.0000000000000568
 21
58.9999999999999574
 31
0.0
  0
LINE
  5
EA
100
AcDbEntity
100
AcDbLine
  8
centres
 62
256
370
-1
  6
ByLayer
 10
187.0000000000000568
 20
48.9999999999999574
 30
0.0
 11
207.0000000000000568
 21
48.9999999999999574
 31
0.0
  0
LINE
  5
EB
100
AcDbEntity
100
AcDbLine
  8
centres
 62
256
370
-1
  6
ByLayer
 10
49.9999999999999432
 20
116.0000000000000284
 30
0.0
 11
49.9999999999999432
 21
91.0000000000000284
 31
0.0
  0
CIRCLE
  5
EC
100
AcDbEntity
100
AcDbCircle
  8
mother
 62
256
370
-1
  6
ByLayer
 10
50.0
 20
90.0
 30
0.0
 40
1.7
  0
CIRCLE
  5
ED
100
AcDbEntity
100
AcDbCircle
  8
mother
 62
256
370
-1
  6
ByLayer
 10
50.0
 20
42.0
 30
0.0
 40
1.7
  0
CIRCLE
  5
EE
100
AcDbEntity
100
AcDbCircle
  8
mother
 62
256
370
-1
  6
ByLayer
 10
125.0000000000000142
 20
89.9999999999999716
 30
0.0
 40
1.7
  0
LINE
  5
EF
100
AcDbEntity
100
AcDbLine
  8
centres
 62
256
370
-1
  6
ByLayer
 10
50.0
 20
75.0
 30
0.0
 11
50.0
 21
100.0
 31
0.0
  0
LINE
  5
F0
100
AcDbEntity
100
AcDbLine
  8
centres
 62
256
370
-1
  6
ByLayer
 10
35.0
 20
90.0
 30
0.0
 11
60.0
 21
90.0
 31
0.0
  0
LINE
  5
F1
100
AcDbEntity
100
AcDbLine
  8
centres
 62
256
370
-1
  6
ByLayer
 10
50.0
 20
22.0
 30
0.0
 11
50.0
 21
52.0
 31
0.0
  0
LINE
  5
F2
100
AcDbEntity
100
AcDbLine
  8
centres
 62
256
370
-1
  6
ByLayer
 10
30.0
 20
42.0
 30
0.0
 11
60.0
 21
42.0
 31
0.0
  0
LINE
  5
F3
100
AcDbEntity
100
AcDbLine
  8
centres
 62
256
370
-1
  6
ByLayer
 10
125.0000000000000142
 20
69.9999999999999716
 30
0.0
 11
125.0000000000000142
 21
99.9999999999999716
 31
0.0
  0
LINE
  5
F4
100
AcDbEntity
100
AcDbLine
  8
centres
 62
256
370
-1
  6
ByLayer
 10
105.0
 20
89.9999999999999716
 30
0.0
 11
135.0
 21
89.9999999999999716
 31
0.0
  0
LINE
  5
F5
100
AcDbEntity
100
AcDbLine
  8
centres
 62
256
370
-1
  6
ByLayer
 10
131.0
 20
21.9999999999999751
 30
0.0
 11
131.0
 21
51.9999999999999787
 31
0.0
  0
CIRCLE
  5
F6
100
AcDbEntity
100
AcDbCircle
  8
mother
 62
256
370
-1
  6
ByLayer
 10
131.0
 20
41.9999999999999716
 30
0.0
 40
1.7
  0
LINE
  5
F7
100
AcDbEntity
100
AcDbLine
  8
centres
 62
256
370
-1
  6
ByLayer
 10
111.0
 20
41.9999999999999716
 30
0.0
 11
141.0
 21
41.9999999999999716
 31
0.0
  0
ENDSEC
  0
SECTION
  2
OBJECTS
  0
DICTIONARY
  5
C
100
AcDbDictionary
280
0
281
1
  3
ACAD_GROUP
350
D
  3
ACAD_LAYOUT
350
1A
  3
ACAD_MLINESTYLE
350
17
  3
ACAD_PLOTSETTINGS
350
19
  3
ACAD_PLOTSTYLENAME
350
E
  3
AcDbVariableDictionary
350
F8
  0
DICTIONARY
  5
D
100
AcDbDictionary
280
0
281
1
  0
ACDBDICTIONARYWDFLT
  5
E
100
AcDbDictionary
281
1
  3
Normal
350
F
100
AcDbDictionaryWithDefault
340
F
  0
ACDBPLACEHOLDER
  5
F
  0
DICTIONARY
  5
17
100
AcDbDictionary
280
0
281
1
  3
Standard
350
18
  0
MLINESTYLE
  5
18
100
AcDbMlineStyle
  2
STANDARD
 70
0
  3

 62
256
 51
90.0
 52
90.0
 71
2
 49
0.5
 62
256
  6
BYLAYER
 49
-0.5
 62
256
  6
BYLAYER
  0
DICTIONARY
  5
19
100
AcDbDictionary
280
0
281
1
  0
DICTIONARY
  5
1A
100
AcDbDictionary
281
1
  3
Layout1
350
1E
  3
Layout2
350
26
  3
Model
350
22
  0
LAYOUT
  5
1E
100
AcDbPlotSettings
  1

  2
C:\Program Files\AutoCAD 2002\plotters\DWF ePlot (optimized for plotting).pc3
  4

  6

 40
0.0
 41
0.0
 42
0.0
 43
0.0
 44
0.0
 45
0.0
 46
0.0
 47
0.0
 48
0.0
 49
0.0
140
0.0
141
0.0
142
1.0
143
1.0
 70
688
 72
0
 73
0
 74
5
  7

 75
16
147
1.0
148
0.0
149
0.0
100
AcDbLayout
  1
Layout1
 70
1
 71
1
 10
0.0
 20
0.0
 11
420.0
 21
297.0
 12
0.0
 22
0.0
 32
0.0
 14
100000000000000000000.0
 24
100000000000000000000.0
 34
100000000000000000000.0
 15
-100000000000000000000.0
 25
-100000000000000000000.0
 35
-100000000000000000000.0
146
0.0
 13
0.0
 23
0.0
 33
0.0
 16
1.0
 26
0.0
 36
0.0
 17
0.0
 27
1.0
 37
0.0
 76
0
330
1B
  0
LAYOUT
  5
22
100
AcDbPlotSettings
  1

  2
C:\Program Files\AutoCAD 2002\plotters\DWF ePlot (optimized for plotting).pc3
  4

  6

 40
0.0
 41
0.0
 42
0.0
 43
0.0
 44
0.0
 45
0.0
 46
0.0
 47
0.0
 48
0.0
 49
0.0
140
0.0
141
0.0
142
1.0
143
1.0
 70
1712
 72
0
 73
0
 74
0
  7

 75
0
147
1.0
148
0.0
149
0.0
100
AcDbLayout
  1
Model
 70
1
 71
0
 10
0.0
 20
0.0
 11
12.0
 21
9.0
 12
0.0
 22
0.0
 32
0.0
 14
0.0
 24
0.0
 34
0.0
 15
0.0
 25
0.0
 35
0.0
146
0.0
 13
0.0
 23
0.0
 33
0.0
 16
1.0
 26
0.0
 36
0.0
 17
0.0
 27
1.0
 37
0.0
 76
0
330
1F
  0
LAYOUT
  5
26
100
AcDbPlotSettings
  1

  2
C:\Program Files\AutoCAD 2002\plotters\DWF ePlot (optimized for plotting).pc3
  4

  6

 40
0.0
 41
0.0
 42
0.0
 43
0.0
 44
0.0
 45
0.0
 46
0.0
 47
0.0
 48
0.0
 49
0.0
140
0.0
141
0.0
142
1.0
143
1.0
 70
688
 72
0
 73
0
 74
5
  7

 75
16
147
1.0
148
0.0
149
0.0
100
AcDbLayout
  1
Layout2
 70
1
 71
2
 10
0.0
 20
0.0
 11
12.0
 21
9.0
 12
0.0
 22
0.0
 32
0.0
 14
0.0
 24
0.0
 34
0.0
 15
0.0
 25
0.0
 35
0.0
146
0.0
 13
0.0
 23
0.0
 33
0.0
 16
1.0
 26
0.0
 36
0.0
 17
0.0
 27
1.0
 37
0.0
 76
0
330
23
  0
DICTIONARY
  5
F8
100
AcDbDictionary
281
1
  3
DIMASSOC
350
FA
  3
HIDETEXT
350
F9
  0
DICTIONARYVAR
  5
F9
100
DictionaryVariables
280
0
  1
2
  0
DICTIONARYVAR
  5
FA
100
DictionaryVariables
280
0
  1
1
  0
ENDSEC
  0
EOF
