ISO-10303-21;
HEADER;
FILE_DESCRIPTION(('CATIA V5 STEP Exchange'),'2;1');

FILE_NAME('\\\\db116dsp\\home\\ArchivePublic\\Archive_PDES\\TR26\\native\\SG\\sg1-c5-214.stp','2010-08-27T15:05:34+00:00',('none'),('none'),'CATIA Version 5 Release 20 SP 4 (IN-10)','CATIA V5 STEP AP214','none');

FILE_SCHEMA(('AUTOMOTIVE_DESIGN { 1 0 10303 214 1 1 1 1 }'));

ENDSEC;
/* file written by CATIA V5R20 */
DATA;
#5=PRODUCT('SG1','','',(#2)) ;
#2=PRODUCT_CONTEXT(' ',#1,'mechanical') ;
#1=APPLICATION_CONTEXT('automotive design') ;
#10=PRODUCT_DEFINITION('',' ',#6,#3) ;
#3=PRODUCT_DEFINITION_CONTEXT('part definition',#1,' ') ;
#11=PRODUCT_DEFINITION_SHAPE(' ',' ',#10) ;
#403=PROPERTY_DEFINITION('','shape for solid data with which properties are associated',#402) ;
#408=PROPERTY_DEFINITION('geometric validation property','centroid of #22',#402) ;
#414=PROPERTY_DEFINITION('geometric validation property','volume of #22',#402) ;
#420=PROPERTY_DEFINITION('geometric validation property','surface area of #22',#402) ;
#451=PROPERTY_DEFINITION('geometric validation property','centroid of Part',#11) ;
#455=PROPERTY_DEFINITION('geometric validation property','volume of Part',#11) ;
#459=PROPERTY_DEFINITION('geometric validation property','surface area of Part',#11) ;
#31=SHAPE_ASPECT('','',#11,.F.) ;
#347=SHAPE_ASPECT('','',#11,.F.) ;
#362=SHAPE_ASPECT('','',#11,.F.) ;
#377=SHAPE_ASPECT('','',#11,.F.) ;
#392=SHAPE_ASPECT('','',#11,.F.) ;
#402=SHAPE_ASPECT('','Solid',#11,.F.) ;
#429=SHAPE_ASPECT('','',#11,.F.) ;
#411=DERIVED_UNIT((#410)) ;
#417=DERIVED_UNIT((#416)) ;
#410=DERIVED_UNIT_ELEMENT(#12,3.) ;
#416=DERIVED_UNIT_ELEMENT(#12,2.) ;
#407=REPRESENTATION('centroid',(#406),#17) ;
#413=REPRESENTATION('volume',(#412),#17) ;
#419=REPRESENTATION('surface area',(#418),#17) ;
#450=REPRESENTATION('centroid',(#449),#17) ;
#454=REPRESENTATION('volume',(#453),#17) ;
#458=REPRESENTATION('surface area',(#457),#17) ;
#412=MEASURE_REPRESENTATION_ITEM('volume measure',VOLUME_MEASURE(355877.882829),#411) ;
#418=MEASURE_REPRESENTATION_ITEM('wetted area measure',AREA_MEASURE(46607.8737273),#417) ;
#453=MEASURE_REPRESENTATION_ITEM('volume measure',VOLUME_MEASURE(355877.882829),#411) ;
#457=MEASURE_REPRESENTATION_ITEM('wetted area measure',AREA_MEASURE(46607.8737273),#417) ;
#448=MECHANICAL_DESIGN_GEOMETRIC_PRESENTATION_REPRESENTATION(' ',(#30),#17) ;
#20=SHAPE_REPRESENTATION(' ',(#19),#17) ;
#404=SHAPE_REPRESENTATION('',(#22),#17) ;
#409=PROPERTY_DEFINITION_REPRESENTATION(#408,#407) ;
#415=PROPERTY_DEFINITION_REPRESENTATION(#414,#413) ;
#421=PROPERTY_DEFINITION_REPRESENTATION(#420,#419) ;
#452=PROPERTY_DEFINITION_REPRESENTATION(#451,#450) ;
#456=PROPERTY_DEFINITION_REPRESENTATION(#455,#454) ;
#460=PROPERTY_DEFINITION_REPRESENTATION(#459,#458) ;
#19=AXIS2_PLACEMENT_3D(' ',#18,$,$) ;
#36=AXIS2_PLACEMENT_3D('Cylinder Axis2P3D',#33,#34,#35) ;
#49=AXIS2_PLACEMENT_3D('Circle Axis2P3D',#47,#48,$) ;
#63=AXIS2_PLACEMENT_3D('Circle Axis2P3D',#61,#62,$) ;
#75=AXIS2_PLACEMENT_3D('Circle Axis2P3D',#73,#74,$) ;
#80=AXIS2_PLACEMENT_3D('Circle Axis2P3D',#78,#79,$) ;
#93=AXIS2_PLACEMENT_3D('Cylinder Axis2P3D',#90,#91,#92) ;
#106=AXIS2_PLACEMENT_3D('Circle Axis2P3D',#104,#105,$) ;
#120=AXIS2_PLACEMENT_3D('Circle Axis2P3D',#118,#119,$) ;
#132=AXIS2_PLACEMENT_3D('Circle Axis2P3D',#130,#131,$) ;
#137=AXIS2_PLACEMENT_3D('Circle Axis2P3D',#135,#136,$) ;
#150=AXIS2_PLACEMENT_3D('Cone Axis2P3D',#147,#148,#149) ;
#161=AXIS2_PLACEMENT_3D('Circle Axis2P3D',#159,#160,$) ;
#180=AXIS2_PLACEMENT_3D('Circle Axis2P3D',#178,#179,$) ;
#193=AXIS2_PLACEMENT_3D('Cylinder Axis2P3D',#190,#191,#192) ;
#204=AXIS2_PLACEMENT_3D('Circle Axis2P3D',#202,#203,$) ;
#223=AXIS2_PLACEMENT_3D('Circle Axis2P3D',#221,#222,$) ;
#236=AXIS2_PLACEMENT_3D('Cylinder Axis2P3D',#233,#234,#235) ;
#249=AXIS2_PLACEMENT_3D('Circle Axis2P3D',#247,#248,$) ;
#263=AXIS2_PLACEMENT_3D('Circle Axis2P3D',#261,#262,$) ;
#275=AXIS2_PLACEMENT_3D('Circle Axis2P3D',#273,#274,$) ;
#280=AXIS2_PLACEMENT_3D('Circle Axis2P3D',#278,#279,$) ;
#301=AXIS2_PLACEMENT_3D('Circle Axis2P3D',#299,#300,$) ;
#315=AXIS2_PLACEMENT_3D('Circle Axis2P3D',#313,#314,$) ;
#327=AXIS2_PLACEMENT_3D('Circle Axis2P3D',#325,#326,$) ;
#332=AXIS2_PLACEMENT_3D('Circle Axis2P3D',#330,#331,$) ;
#345=AXIS2_PLACEMENT_3D('Plane Axis2P3D',#342,#343,#344) ;
#360=AXIS2_PLACEMENT_3D('Plane Axis2P3D',#357,#358,#359) ;
#375=AXIS2_PLACEMENT_3D('Plane Axis2P3D',#372,#373,#374) ;
#390=AXIS2_PLACEMENT_3D('Plane Axis2P3D',#387,#388,#389) ;
#427=AXIS2_PLACEMENT_3D('Plane Axis2P3D',#424,#425,#426) ;
#435=AXIS2_PLACEMENT_3D('TARGET_1',#432,#433,#434) ;
#439=AXIS2_PLACEMENT_3D('TARGET_2',#436,#437,#438) ;
#443=AXIS2_PLACEMENT_3D('TARGET_3',#440,#441,#442) ;
#447=AXIS2_PLACEMENT_3D('TARGET_4',#444,#445,#446) ;
#18=CARTESIAN_POINT(' ',(0.,0.,0.)) ;
#33=CARTESIAN_POINT('Axis2P3D Location',(0.,0.,7.01564121246)) ;
#38=CARTESIAN_POINT('Line Origine',(5.03354477349,-9.21384190457,7.01564121246)) ;
#42=CARTESIAN_POINT('Vertex',(5.03354477349,-9.21384190457,84.0312824249)) ;
#44=CARTESIAN_POINT('Vertex',(5.03354477349,-9.21384190457,-70.)) ;
#47=CARTESIAN_POINT('Axis2P3D Location',(0.,0.,-70.)) ;
#51=CARTESIAN_POINT('Vertex',(-5.03354477349,9.21384190457,-70.)) ;
#54=CARTESIAN_POINT('Line Origine',(-5.03354477349,9.21384190457,7.01564121246)) ;
#58=CARTESIAN_POINT('Vertex',(-5.03354477349,9.21384190457,84.0312824249)) ;
#61=CARTESIAN_POINT('Axis2P3D Location',(0.,0.,84.0312824249)) ;
#73=CARTESIAN_POINT('Axis2P3D Location',(0.,0.,-70.)) ;
#78=CARTESIAN_POINT('Axis2P3D Location',(0.,0.,84.0312824249)) ;
#90=CARTESIAN_POINT('Axis2P3D Location',(0.,0.,7.01564121246)) ;
#95=CARTESIAN_POINT('Line Origine',(19.1770215442,-35.1033024756,-60.)) ;
#99=CARTESIAN_POINT('Vertex',(19.1770215442,-35.1033024756,-70.)) ;
#101=CARTESIAN_POINT('Vertex',(19.1770215442,-35.1033024756,-50.)) ;
#104=CARTESIAN_POINT('Axis2P3D Location',(0.,0.,-50.)) ;
#108=CARTESIAN_POINT('Vertex',(-19.1770215442,35.1033024756,-50.)) ;
#111=CARTESIAN_POINT('Line Origine',(-19.1770215442,35.1033024756,-60.)) ;
#115=CARTESIAN_POINT('Vertex',(-19.1770215442,35.1033024756,-70.)) ;
#118=CARTESIAN_POINT('Axis2P3D Location',(0.,0.,-70.)) ;
#130=CARTESIAN_POINT('Axis2P3D Location',(0.,0.,-50.)) ;
#135=CARTESIAN_POINT('Axis2P3D Location',(0.,0.,-70.)) ;
#147=CARTESIAN_POINT('Axis2P3D Location',(0.,0.,20.)) ;
#152=CARTESIAN_POINT('Line Origine',(14.3827661581,-26.3274768567,-15.)) ;
#156=CARTESIAN_POINT('Vertex',(9.58851077208,-17.5516512378,20.)) ;
#159=CARTESIAN_POINT('Axis2P3D Location',(0.,0.,20.)) ;
#163=CARTESIAN_POINT('Vertex',(-9.58851077208,17.5516512378,20.)) ;
#166=CARTESIAN_POINT('Line Origine',(-14.3827661581,26.3274768567,-15.)) ;
#178=CARTESIAN_POINT('Axis2P3D Location',(0.,0.,20.)) ;
#190=CARTESIAN_POINT('Axis2P3D Location',(0.,0.,7.01564121246)) ;
#195=CARTESIAN_POINT('Line Origine',(9.58851077208,-17.5516512378,52.0156412125)) ;
#199=CARTESIAN_POINT('Vertex',(9.58851077208,-17.5516512378,55.3991317749)) ;
#202=CARTESIAN_POINT('Axis2P3D Location',(0.,0.,55.3991317749)) ;
#206=CARTESIAN_POINT('Vertex',(-9.58851077208,17.5516512378,55.3991317749)) ;
#209=CARTESIAN_POINT('Line Origine',(-9.58851077208,17.5516512378,52.0156412125)) ;
#221=CARTESIAN_POINT('Axis2P3D Location',(0.,0.,55.3991317749)) ;
#233=CARTESIAN_POINT('Axis2P3D Location',(0.,0.,7.01564121246)) ;
#238=CARTESIAN_POINT('Line Origine',(14.3827661581,-26.3274768567,62.7118263245)) ;
#242=CARTESIAN_POINT('Vertex',(14.3827661581,-26.3274768567,55.3991317749)) ;
#244=CARTESIAN_POINT('Vertex',(14.3827661581,-26.3274768567,70.024520874)) ;
#247=CARTESIAN_POINT('Axis2P3D Location',(0.,0.,70.024520874)) ;
#251=CARTESIAN_POINT('Vertex',(-14.3827661581,26.3274768567,70.024520874)) ;
#254=CARTESIAN_POINT('Line Origine',(-14.3827661581,26.3274768567,62.7118263245)) ;
#258=CARTESIAN_POINT('Vertex',(-14.3827661581,26.3274768567,55.3991317749)) ;
#261=CARTESIAN_POINT('Axis2P3D Location',(0.,0.,55.3991317749)) ;
#273=CARTESIAN_POINT('Axis2P3D Location',(0.,0.,70.024520874)) ;
#278=CARTESIAN_POINT('Axis2P3D Location',(0.,0.,55.3991317749)) ;
#290=CARTESIAN_POINT('Line Origine',(9.58851077208,-17.5516512378,52.0156412125)) ;
#294=CARTESIAN_POINT('Vertex',(9.58851077208,-17.5516512378,70.024520874)) ;
#296=CARTESIAN_POINT('Vertex',(9.58851077208,-17.5516512378,84.0312824249)) ;
#299=CARTESIAN_POINT('Axis2P3D Location',(0.,0.,84.0312824249)) ;
#303=CARTESIAN_POINT('Vertex',(-9.58851077208,17.5516512378,84.0312824249)) ;
#306=CARTESIAN_POINT('Line Origine',(-9.58851077208,17.5516512378,52.0156412125)) ;
#310=CARTESIAN_POINT('Vertex',(-9.58851077208,17.5516512378,70.024520874)) ;
#313=CARTESIAN_POINT('Axis2P3D Location',(0.,0.,70.024520874)) ;
#325=CARTESIAN_POINT('Axis2P3D Location',(0.,0.,84.0312824249)) ;
#330=CARTESIAN_POINT('Axis2P3D Location',(0.,0.,70.024520874)) ;
#342=CARTESIAN_POINT('Axis2P3D Location',(0.,40.,-70.)) ;
#357=CARTESIAN_POINT('Axis2P3D Location',(0.,30.,55.3991317749)) ;
#372=CARTESIAN_POINT('Axis2P3D Location',(0.,20.,70.024520874)) ;
#387=CARTESIAN_POINT('Axis2P3D Location',(0.,10.4991168976,84.0312824249)) ;
#406=CARTESIAN_POINT('centre point',(3.59833696299E-015,-1.00232085006E-014,-15.1684663878)) ;
#424=CARTESIAN_POINT('Axis2P3D Location',(0.,0.,20.)) ;
#432=CARTESIAN_POINT('Axis2P3D Location',(8.94427191,17.88854382,84.0312824249)) ;
#436=CARTESIAN_POINT('Axis2P3D Location',(15.6011753976,-12.5141250678,84.0312824249)) ;
#440=CARTESIAN_POINT('Axis2P3D Location',(-11.3791935265,-16.4473084329,84.0312824249)) ;
#444=CARTESIAN_POINT('Axis2P3D Location',(-17.2110400122,10.1872519208,84.0312824249)) ;
#449=CARTESIAN_POINT('centre point',(3.59833696299E-015,-1.00232085006E-014,-15.1684663878)) ;
#34=DIRECTION('Axis2P3D Direction',(0.,0.,1.)) ;
#35=DIRECTION('Axis2P3D XDirection',(-0.479425538604,0.87758256189,0.)) ;
#39=DIRECTION('Vector Direction',(0.,0.,1.)) ;
#48=DIRECTION('Axis2P3D Direction',(0.,0.,1.)) ;
#55=DIRECTION('Vector Direction',(0.,0.,1.)) ;
#62=DIRECTION('Axis2P3D Direction',(0.,0.,1.)) ;
#74=DIRECTION('Axis2P3D Direction',(0.,0.,1.)) ;
#79=DIRECTION('Axis2P3D Direction',(0.,0.,1.)) ;
#91=DIRECTION('Axis2P3D Direction',(0.,0.,1.)) ;
#92=DIRECTION('Axis2P3D XDirection',(-0.479425538604,0.87758256189,0.)) ;
#96=DIRECTION('Vector Direction',(0.,0.,1.)) ;
#105=DIRECTION('Axis2P3D Direction',(0.,0.,1.)) ;
#112=DIRECTION('Vector Direction',(0.,0.,1.)) ;
#119=DIRECTION('Axis2P3D Direction',(0.,0.,1.)) ;
#131=DIRECTION('Axis2P3D Direction',(0.,0.,1.)) ;
#136=DIRECTION('Axis2P3D Direction',(0.,0.,1.)) ;
#148=DIRECTION('Axis2P3D Direction',(-0.,-0.,-1.)) ;
#149=DIRECTION('Axis2P3D XDirection',(-0.479425538604,0.87758256189,0.)) ;
#153=DIRECTION('Vector Direction',(0.131708324708,-0.241090471226,-0.961523947641)) ;
#160=DIRECTION('Axis2P3D Direction',(0.,0.,-1.)) ;
#167=DIRECTION('Vector Direction',(-0.131708324708,0.241090471226,-0.961523947641)) ;
#179=DIRECTION('Axis2P3D Direction',(0.,0.,-1.)) ;
#191=DIRECTION('Axis2P3D Direction',(0.,0.,1.)) ;
#192=DIRECTION('Axis2P3D XDirection',(-0.479425538604,0.87758256189,0.)) ;
#196=DIRECTION('Vector Direction',(0.,0.,1.)) ;
#203=DIRECTION('Axis2P3D Direction',(0.,0.,1.)) ;
#210=DIRECTION('Vector Direction',(0.,0.,1.)) ;
#222=DIRECTION('Axis2P3D Direction',(0.,0.,1.)) ;
#234=DIRECTION('Axis2P3D Direction',(0.,0.,1.)) ;
#235=DIRECTION('Axis2P3D XDirection',(-0.479425538604,0.87758256189,0.)) ;
#239=DIRECTION('Vector Direction',(0.,0.,1.)) ;
#248=DIRECTION('Axis2P3D Direction',(0.,0.,1.)) ;
#255=DIRECTION('Vector Direction',(0.,0.,1.)) ;
#262=DIRECTION('Axis2P3D Direction',(0.,0.,1.)) ;
#274=DIRECTION('Axis2P3D Direction',(0.,0.,1.)) ;
#279=DIRECTION('Axis2P3D Direction',(0.,0.,1.)) ;
#291=DIRECTION('Vector Direction',(0.,0.,1.)) ;
#300=DIRECTION('Axis2P3D Direction',(0.,0.,1.)) ;
#307=DIRECTION('Vector Direction',(0.,0.,1.)) ;
#314=DIRECTION('Axis2P3D Direction',(0.,0.,1.)) ;
#326=DIRECTION('Axis2P3D Direction',(0.,0.,1.)) ;
#331=DIRECTION('Axis2P3D Direction',(0.,0.,1.)) ;
#343=DIRECTION('Axis2P3D Direction',(0.,0.,1.)) ;
#344=DIRECTION('Axis2P3D XDirection',(1.,0.,0.)) ;
#358=DIRECTION('Axis2P3D Direction',(0.,0.,1.)) ;
#359=DIRECTION('Axis2P3D XDirection',(1.,0.,0.)) ;
#373=DIRECTION('Axis2P3D Direction',(0.,0.,1.)) ;
#374=DIRECTION('Axis2P3D XDirection',(1.,0.,0.)) ;
#388=DIRECTION('Axis2P3D Direction',(0.,0.,1.)) ;
#389=DIRECTION('Axis2P3D XDirection',(1.,0.,0.)) ;
#425=DIRECTION('Axis2P3D Direction',(0.,0.,1.)) ;
#426=DIRECTION('Axis2P3D XDirection',(1.,0.,0.)) ;
#433=DIRECTION('Axis2P3D Direction',(0.,0.,1.)) ;
#434=DIRECTION('Axis2P3D XDirection',(0.860552000611,-0.509362596039,0.)) ;
#437=DIRECTION('Axis2P3D Direction',(0.,0.,1.)) ;
#438=DIRECTION('Axis2P3D XDirection',(-0.568959676326,-0.822365421644,0.)) ;
#441=DIRECTION('Axis2P3D Direction',(0.,0.,1.)) ;
#442=DIRECTION('Axis2P3D XDirection',(-0.860552000611,0.509362596039,0.)) ;
#445=DIRECTION('Axis2P3D Direction',(0.,0.,1.)) ;
#446=DIRECTION('Axis2P3D XDirection',(0.568959676326,0.822365421644,0.)) ;
#8=PRODUCT_RELATED_PRODUCT_CATEGORY('part',$,(#5)) ;
#7=PRODUCT_CATEGORY('part','specification') ;
#30=STYLED_ITEM(' ',(#29),#22) ;
#29=PRESENTATION_STYLE_ASSIGNMENT((#28)) ;
#28=SURFACE_STYLE_USAGE(.BOTH.,#27) ;
#27=SURFACE_SIDE_STYLE(' ',(#26)) ;
#26=SURFACE_STYLE_FILL_AREA(#25) ;
#25=FILL_AREA_STYLE(' ',(#24)) ;
#24=FILL_AREA_STYLE_COLOUR(' ',#23) ;
#40=VECTOR('Line Direction',#39,1.) ;
#56=VECTOR('Line Direction',#55,1.) ;
#97=VECTOR('Line Direction',#96,1.) ;
#113=VECTOR('Line Direction',#112,1.) ;
#154=VECTOR('Line Direction',#153,1.) ;
#168=VECTOR('Line Direction',#167,1.) ;
#197=VECTOR('Line Direction',#196,1.) ;
#211=VECTOR('Line Direction',#210,1.) ;
#240=VECTOR('Line Direction',#239,1.) ;
#256=VECTOR('Line Direction',#255,1.) ;
#292=VECTOR('Line Direction',#291,1.) ;
#308=VECTOR('Line Direction',#307,1.) ;
#16=UNCERTAINTY_MEASURE_WITH_UNIT(LENGTH_MEASURE(0.005),#12,'distance_accuracy_value','CONFUSED CURVE UNCERTAINTY') ;
#423=SHAPE_REPRESENTATION_RELATIONSHIP(' ',' ',#20,#422) ;
#67=ORIENTED_EDGE('',*,*,#46,.T.) ;
#68=ORIENTED_EDGE('',*,*,#53,.F.) ;
#69=ORIENTED_EDGE('',*,*,#60,.F.) ;
#70=ORIENTED_EDGE('',*,*,#65,.T.) ;
#84=ORIENTED_EDGE('',*,*,#60,.T.) ;
#85=ORIENTED_EDGE('',*,*,#77,.F.) ;
#86=ORIENTED_EDGE('',*,*,#46,.F.) ;
#87=ORIENTED_EDGE('',*,*,#82,.T.) ;
#124=ORIENTED_EDGE('',*,*,#103,.T.) ;
#125=ORIENTED_EDGE('',*,*,#110,.F.) ;
#126=ORIENTED_EDGE('',*,*,#117,.F.) ;
#127=ORIENTED_EDGE('',*,*,#122,.T.) ;
#141=ORIENTED_EDGE('',*,*,#117,.T.) ;
#142=ORIENTED_EDGE('',*,*,#134,.F.) ;
#143=ORIENTED_EDGE('',*,*,#103,.F.) ;
#144=ORIENTED_EDGE('',*,*,#139,.T.) ;
#172=ORIENTED_EDGE('',*,*,#158,.T.) ;
#173=ORIENTED_EDGE('',*,*,#165,.F.) ;
#174=ORIENTED_EDGE('',*,*,#170,.F.) ;
#175=ORIENTED_EDGE('',*,*,#110,.T.) ;
#184=ORIENTED_EDGE('',*,*,#170,.T.) ;
#185=ORIENTED_EDGE('',*,*,#182,.F.) ;
#186=ORIENTED_EDGE('',*,*,#158,.F.) ;
#187=ORIENTED_EDGE('',*,*,#134,.T.) ;
#215=ORIENTED_EDGE('',*,*,#201,.T.) ;
#216=ORIENTED_EDGE('',*,*,#208,.F.) ;
#217=ORIENTED_EDGE('',*,*,#213,.F.) ;
#218=ORIENTED_EDGE('',*,*,#165,.T.) ;
#227=ORIENTED_EDGE('',*,*,#213,.T.) ;
#228=ORIENTED_EDGE('',*,*,#225,.F.) ;
#229=ORIENTED_EDGE('',*,*,#201,.F.) ;
#230=ORIENTED_EDGE('',*,*,#182,.T.) ;
#267=ORIENTED_EDGE('',*,*,#246,.T.) ;
#268=ORIENTED_EDGE('',*,*,#253,.F.) ;
#269=ORIENTED_EDGE('',*,*,#260,.F.) ;
#270=ORIENTED_EDGE('',*,*,#265,.T.) ;
#284=ORIENTED_EDGE('',*,*,#260,.T.) ;
#285=ORIENTED_EDGE('',*,*,#277,.F.) ;
#286=ORIENTED_EDGE('',*,*,#246,.F.) ;
#287=ORIENTED_EDGE('',*,*,#282,.T.) ;
#319=ORIENTED_EDGE('',*,*,#298,.T.) ;
#320=ORIENTED_EDGE('',*,*,#305,.F.) ;
#321=ORIENTED_EDGE('',*,*,#312,.F.) ;
#322=ORIENTED_EDGE('',*,*,#317,.T.) ;
#336=ORIENTED_EDGE('',*,*,#312,.T.) ;
#337=ORIENTED_EDGE('',*,*,#329,.F.) ;
#338=ORIENTED_EDGE('',*,*,#298,.F.) ;
#339=ORIENTED_EDGE('',*,*,#334,.T.) ;
#349=ORIENTED_EDGE('',*,*,#122,.F.) ;
#350=ORIENTED_EDGE('',*,*,#139,.F.) ;
#353=ORIENTED_EDGE('',*,*,#77,.T.) ;
#354=ORIENTED_EDGE('',*,*,#53,.T.) ;
#364=ORIENTED_EDGE('',*,*,#265,.F.) ;
#365=ORIENTED_EDGE('',*,*,#282,.F.) ;
#368=ORIENTED_EDGE('',*,*,#225,.T.) ;
#369=ORIENTED_EDGE('',*,*,#208,.T.) ;
#379=ORIENTED_EDGE('',*,*,#277,.T.) ;
#380=ORIENTED_EDGE('',*,*,#253,.T.) ;
#383=ORIENTED_EDGE('',*,*,#317,.F.) ;
#384=ORIENTED_EDGE('',*,*,#334,.F.) ;
#394=ORIENTED_EDGE('',*,*,#329,.T.) ;
#395=ORIENTED_EDGE('',*,*,#305,.T.) ;
#398=ORIENTED_EDGE('',*,*,#65,.F.) ;
#399=ORIENTED_EDGE('',*,*,#82,.F.) ;
#355=FACE_BOUND('',#352,.T.) ;
#370=FACE_BOUND('',#367,.T.) ;
#385=FACE_BOUND('',#382,.T.) ;
#400=FACE_BOUND('',#397,.T.) ;
#32=CLOSED_SHELL('Closed Shell',(#72,#89,#129,#146,#177,#189,#220,#232,#272,#289,#324,#341,#356,#371,#386,#401)) ;
#422=ADVANCED_BREP_SHAPE_REPRESENTATION('NONE',(#22),#17) ;
#72=ADVANCED_FACE('PartBody',(#71),#37,.F.) ;
#89=ADVANCED_FACE('PartBody',(#88),#37,.F.) ;
#129=ADVANCED_FACE('PartBody',(#128),#94,.T.) ;
#146=ADVANCED_FACE('PartBody',(#145),#94,.T.) ;
#177=ADVANCED_FACE('PartBody',(#176),#151,.T.) ;
#189=ADVANCED_FACE('PartBody',(#188),#151,.T.) ;
#220=ADVANCED_FACE('PartBody',(#219),#194,.T.) ;
#232=ADVANCED_FACE('PartBody',(#231),#194,.T.) ;
#272=ADVANCED_FACE('PartBody',(#271),#237,.T.) ;
#289=ADVANCED_FACE('PartBody',(#288),#237,.T.) ;
#324=ADVANCED_FACE('PartBody',(#323),#194,.T.) ;
#341=ADVANCED_FACE('PartBody',(#340),#194,.T.) ;
#356=ADVANCED_FACE('PartBody',(#351,#355),#346,.F.) ;
#371=ADVANCED_FACE('PartBody',(#366,#370),#361,.F.) ;
#386=ADVANCED_FACE('PartBody',(#381,#385),#376,.T.) ;
#401=ADVANCED_FACE('PartBody',(#396,#400),#391,.T.) ;
#4=APPLICATION_PROTOCOL_DEFINITION('international standard','automotive_design',2001,#1) ;
#22=MANIFOLD_SOLID_BREP('PartBody',#32) ;
#50=CIRCLE('generated circle',#49,10.4991168976) ;
#64=CIRCLE('generated circle',#63,10.4991168976) ;
#76=CIRCLE('generated circle',#75,10.4991168976) ;
#81=CIRCLE('generated circle',#80,10.4991168976) ;
#107=CIRCLE('generated circle',#106,40.) ;
#121=CIRCLE('generated circle',#120,40.) ;
#133=CIRCLE('generated circle',#132,40.) ;
#138=CIRCLE('generated circle',#137,40.) ;
#162=CIRCLE('generated circle',#161,20.) ;
#181=CIRCLE('generated circle',#180,20.) ;
#205=CIRCLE('generated circle',#204,20.) ;
#224=CIRCLE('generated circle',#223,20.) ;
#250=CIRCLE('generated circle',#249,30.) ;
#264=CIRCLE('generated circle',#263,30.) ;
#276=CIRCLE('generated circle',#275,30.) ;
#281=CIRCLE('generated circle',#280,30.) ;
#302=CIRCLE('generated circle',#301,20.) ;
#316=CIRCLE('generated circle',#315,20.) ;
#328=CIRCLE('generated circle',#327,20.) ;
#333=CIRCLE('generated circle',#332,20.) ;
#23=COLOUR_RGB('Colour',0.827450980392,0.698039215686,0.490196078431) ;
#151=CONICAL_SURFACE('Cone',#150,20.,0.278299659005) ;
#430=CONSTRUCTIVE_GEOMETRY_REPRESENTATION('supplemental geometry',(#428,#435,#439,#443,#447),#17) ;
#431=CONSTRUCTIVE_GEOMETRY_REPRESENTATION_RELATIONSHIP('supplemental geometry','',#20,#430) ;
#37=CYLINDRICAL_SURFACE('generated cylinder',#36,10.4991168976) ;
#94=CYLINDRICAL_SURFACE('generated cylinder',#93,40.) ;
#194=CYLINDRICAL_SURFACE('generated cylinder',#193,20.) ;
#237=CYLINDRICAL_SURFACE('generated cylinder',#236,30.) ;
#46=EDGE_CURVE('',#43,#45,#41,.F.) ;
#53=EDGE_CURVE('',#52,#45,#50,.T.) ;
#60=EDGE_CURVE('',#59,#52,#57,.F.) ;
#65=EDGE_CURVE('',#59,#43,#64,.T.) ;
#77=EDGE_CURVE('',#45,#52,#76,.T.) ;
#82=EDGE_CURVE('',#43,#59,#81,.T.) ;
#103=EDGE_CURVE('',#100,#102,#98,.T.) ;
#110=EDGE_CURVE('',#109,#102,#107,.T.) ;
#117=EDGE_CURVE('',#116,#109,#114,.T.) ;
#122=EDGE_CURVE('',#116,#100,#121,.T.) ;
#134=EDGE_CURVE('',#102,#109,#133,.T.) ;
#139=EDGE_CURVE('',#100,#116,#138,.T.) ;
#158=EDGE_CURVE('',#102,#157,#155,.F.) ;
#165=EDGE_CURVE('',#164,#157,#162,.F.) ;
#170=EDGE_CURVE('',#109,#164,#169,.F.) ;
#182=EDGE_CURVE('',#157,#164,#181,.F.) ;
#201=EDGE_CURVE('',#157,#200,#198,.T.) ;
#208=EDGE_CURVE('',#207,#200,#205,.T.) ;
#213=EDGE_CURVE('',#164,#207,#212,.T.) ;
#225=EDGE_CURVE('',#200,#207,#224,.T.) ;
#246=EDGE_CURVE('',#243,#245,#241,.T.) ;
#253=EDGE_CURVE('',#252,#245,#250,.T.) ;
#260=EDGE_CURVE('',#259,#252,#257,.T.) ;
#265=EDGE_CURVE('',#259,#243,#264,.T.) ;
#277=EDGE_CURVE('',#245,#252,#276,.T.) ;
#282=EDGE_CURVE('',#243,#259,#281,.T.) ;
#298=EDGE_CURVE('',#295,#297,#293,.T.) ;
#305=EDGE_CURVE('',#304,#297,#302,.T.) ;
#312=EDGE_CURVE('',#311,#304,#309,.T.) ;
#317=EDGE_CURVE('',#311,#295,#316,.T.) ;
#329=EDGE_CURVE('',#297,#304,#328,.T.) ;
#334=EDGE_CURVE('',#295,#311,#333,.T.) ;
#66=EDGE_LOOP('',(#67,#68,#69,#70)) ;
#83=EDGE_LOOP('',(#84,#85,#86,#87)) ;
#123=EDGE_LOOP('',(#124,#125,#126,#127)) ;
#140=EDGE_LOOP('',(#141,#142,#143,#144)) ;
#171=EDGE_LOOP('',(#172,#173,#174,#175)) ;
#183=EDGE_LOOP('',(#184,#185,#186,#187)) ;
#214=EDGE_LOOP('',(#215,#216,#217,#218)) ;
#226=EDGE_LOOP('',(#227,#228,#229,#230)) ;
#266=EDGE_LOOP('',(#267,#268,#269,#270)) ;
#283=EDGE_LOOP('',(#284,#285,#286,#287)) ;
#318=EDGE_LOOP('',(#319,#320,#321,#322)) ;
#335=EDGE_LOOP('',(#336,#337,#338,#339)) ;
#348=EDGE_LOOP('',(#349,#350)) ;
#352=EDGE_LOOP('',(#353,#354)) ;
#363=EDGE_LOOP('',(#364,#365)) ;
#367=EDGE_LOOP('',(#368,#369)) ;
#378=EDGE_LOOP('',(#379,#380)) ;
#382=EDGE_LOOP('',(#383,#384)) ;
#393=EDGE_LOOP('',(#394,#395)) ;
#397=EDGE_LOOP('',(#398,#399)) ;
#71=FACE_OUTER_BOUND('',#66,.T.) ;
#88=FACE_OUTER_BOUND('',#83,.T.) ;
#128=FACE_OUTER_BOUND('',#123,.T.) ;
#145=FACE_OUTER_BOUND('',#140,.T.) ;
#176=FACE_OUTER_BOUND('',#171,.T.) ;
#188=FACE_OUTER_BOUND('',#183,.T.) ;
#219=FACE_OUTER_BOUND('',#214,.T.) ;
#231=FACE_OUTER_BOUND('',#226,.T.) ;
#271=FACE_OUTER_BOUND('',#266,.T.) ;
#288=FACE_OUTER_BOUND('',#283,.T.) ;
#323=FACE_OUTER_BOUND('',#318,.T.) ;
#340=FACE_OUTER_BOUND('',#335,.T.) ;
#351=FACE_OUTER_BOUND('',#348,.T.) ;
#366=FACE_OUTER_BOUND('',#363,.T.) ;
#381=FACE_OUTER_BOUND('',#378,.T.) ;
#396=FACE_OUTER_BOUND('',#393,.T.) ;
#41=LINE('Line',#38,#40) ;
#57=LINE('Line',#54,#56) ;
#98=LINE('Line',#95,#97) ;
#114=LINE('Line',#111,#113) ;
#155=LINE('Line',#152,#154) ;
#169=LINE('Line',#166,#168) ;
#198=LINE('Line',#195,#197) ;
#212=LINE('Line',#209,#211) ;
#241=LINE('Line',#238,#240) ;
#257=LINE('Line',#254,#256) ;
#293=LINE('Line',#290,#292) ;
#309=LINE('Line',#306,#308) ;
#346=PLANE('',#345) ;
#361=PLANE('',#360) ;
#376=PLANE('',#375) ;
#391=PLANE('',#390) ;
#428=PLANE('Plane.2',#427) ;
#14=PLANE_ANGLE_MEASURE_WITH_UNIT(PLANE_ANGLE_MEASURE(0.0174532925199),#13) ;
#9=PRODUCT_CATEGORY_RELATIONSHIP(' ',' ',#7,#8) ;
#6=PRODUCT_DEFINITION_FORMATION_WITH_SPECIFIED_SOURCE('',' ',#5,.NOT_KNOWN.) ;
#21=SHAPE_DEFINITION_REPRESENTATION(#11,#20) ;
#405=SHAPE_DEFINITION_REPRESENTATION(#403,#404) ;
#43=VERTEX_POINT('',#42) ;
#45=VERTEX_POINT('',#44) ;
#52=VERTEX_POINT('',#51) ;
#59=VERTEX_POINT('',#58) ;
#100=VERTEX_POINT('',#99) ;
#102=VERTEX_POINT('',#101) ;
#109=VERTEX_POINT('',#108) ;
#116=VERTEX_POINT('',#115) ;
#157=VERTEX_POINT('',#156) ;
#164=VERTEX_POINT('',#163) ;
#200=VERTEX_POINT('',#199) ;
#207=VERTEX_POINT('',#206) ;
#243=VERTEX_POINT('',#242) ;
#245=VERTEX_POINT('',#244) ;
#252=VERTEX_POINT('',#251) ;
#259=VERTEX_POINT('',#258) ;
#295=VERTEX_POINT('',#294) ;
#297=VERTEX_POINT('',#296) ;
#304=VERTEX_POINT('',#303) ;
#311=VERTEX_POINT('',#310) ;
#12=(LENGTH_UNIT()NAMED_UNIT(*)SI_UNIT(.MILLI.,.METRE.)) ;
#13=(NAMED_UNIT(*)PLANE_ANGLE_UNIT()SI_UNIT($,.RADIAN.)) ;
#15=(NAMED_UNIT(*)SI_UNIT($,.STERADIAN.)SOLID_ANGLE_UNIT()) ;
#17=(GEOMETRIC_REPRESENTATION_CONTEXT(3)GLOBAL_UNCERTAINTY_ASSIGNED_CONTEXT((#16))GLOBAL_UNIT_ASSIGNED_CONTEXT((#12,#13,#15))REPRESENTATION_CONTEXT(' ',' ')) ;
ENDSEC;
END-ISO-10303-21;
