ISO-10303-21;
HEADER;
FILE_DESCRIPTION(('CATIA V5 STEP'),'2;1');

FILE_NAME('E:\\Public\\Archive_PDES\\TR22\\NativeFiles\\s1\\FOOT_FRONT_000.stp','2008-08-18T12:41:46+00:00',('none'),('none'),'CATIA Version 5 Release 19 SP 1 (IN-PROTO)','CATIA V5 STEP AP214','none');

FILE_SCHEMA(('AUTOMOTIVE_DESIGN { 1 0 10303 214 1 1 1 1 }'));

ENDSEC;
/* file written by CATIA V5R19 */
DATA;
#5=PRODUCT('FOOT_FRONT_000','FOOT_FRONT_000',' ',(#2)) ;
#2=PRODUCT_CONTEXT(' ',#1,'mechanical') ;
#1=APPLICATION_CONTEXT('automotive design') ;
#10=PRODUCT_DEFINITION(' ',' ',#6,#3) ;
#3=PRODUCT_DEFINITION_CONTEXT('part definition',#1,' ') ;
#11=PRODUCT_DEFINITION_SHAPE(' ',' ',#10) ;
#17=DIMENSIONAL_EXPONENTS(1.,0.,0.,0.,0.,0.,0.) ;
#436=MECHANICAL_DESIGN_GEOMETRIC_PRESENTATION_REPRESENTATION(' ',(#33),#20) ;
#23=SHAPE_REPRESENTATION(' ',(#22),#20) ;
#22=AXIS2_PLACEMENT_3D(' ',#21,$,$) ;
#39=AXIS2_PLACEMENT_3D('Plane Axis2P3D',#36,#37,#38) ;
#183=AXIS2_PLACEMENT_3D('Cylinder Axis2P3D',#180,#181,#182) ;
#196=AXIS2_PLACEMENT_3D('Circle Axis2P3D',#194,#195,$) ;
#215=AXIS2_PLACEMENT_3D('Circle Axis2P3D',#213,#214,$) ;
#230=AXIS2_PLACEMENT_3D('Cylinder Axis2P3D',#227,#228,#229) ;
#241=AXIS2_PLACEMENT_3D('Circle Axis2P3D',#239,#240,$) ;
#246=AXIS2_PLACEMENT_3D('Circle Axis2P3D',#244,#245,$) ;
#261=AXIS2_PLACEMENT_3D('Plane Axis2P3D',#258,#259,#260) ;
#285=AXIS2_PLACEMENT_3D('Plane Axis2P3D',#282,#283,#284) ;
#309=AXIS2_PLACEMENT_3D('Plane Axis2P3D',#306,#307,#308) ;
#326=AXIS2_PLACEMENT_3D('Cylinder Axis2P3D',#323,#324,#325) ;
#337=AXIS2_PLACEMENT_3D('Circle Axis2P3D',#335,#336,$) ;
#357=AXIS2_PLACEMENT_3D('Cylinder Axis2P3D',#354,#355,#356) ;
#361=AXIS2_PLACEMENT_3D('Circle Axis2P3D',#359,#360,$) ;
#374=AXIS2_PLACEMENT_3D('Sphere Axis2P3D',#371,#372,#373) ;
#378=AXIS2_PLACEMENT_3D('Circle Axis2P3D',#376,#377,$) ;
#389=AXIS2_PLACEMENT_3D('Plane Axis2P3D',#386,#387,#388) ;
#402=AXIS2_PLACEMENT_3D('Sphere Axis2P3D',#399,#400,#401) ;
#412=AXIS2_PLACEMENT_3D('Sphere Axis2P3D',#409,#410,#411) ;
#416=AXIS2_PLACEMENT_3D('Circle Axis2P3D',#414,#415,$) ;
#427=AXIS2_PLACEMENT_3D('Sphere Axis2P3D',#424,#425,#426) ;
#21=CARTESIAN_POINT(' ',(0.,0.,0.)) ;
#36=CARTESIAN_POINT('Axis2P3D Location',(0.,-0.0984251968504,-3.2874015748)) ;
#42=CARTESIAN_POINT('Control Point',(0.,-0.0984251968504,-3.25521489613)) ;
#43=CARTESIAN_POINT('Control Point',(0.,-0.139763333744,-3.24454143508)) ;
#44=CARTESIAN_POINT('Control Point',(0.,-0.179654632481,-3.22826447246)) ;
#45=CARTESIAN_POINT('Control Point',(0.,-0.217087673382,-3.20664300854)) ;
#46=CARTESIAN_POINT('Control Point',(0.,-0.28515144502,-3.15380024831)) ;
#47=CARTESIAN_POINT('Control Point',(0.,-0.336691511643,-3.08474489079)) ;
#48=CARTESIAN_POINT('Control Point',(0.,-0.357597924819,-3.04690784348)) ;
#49=CARTESIAN_POINT('Control Point',(0.,-0.38863025335,-2.96652109741)) ;
#50=CARTESIAN_POINT('Control Point',(0.,-0.397142633532,-2.88077402594)) ;
#51=CARTESIAN_POINT('Control Point',(0.,-0.39552505395,-2.83757560337)) ;
#52=CARTESIAN_POINT('Control Point',(0.,-0.380623781317,-2.75270519368)) ;
#53=CARTESIAN_POINT('Control Point',(0.,-0.343666552312,-2.67486443238)) ;
#54=CARTESIAN_POINT('Control Point',(0.,-0.319989010487,-2.6386968464)) ;
#55=CARTESIAN_POINT('Control Point',(0.,-0.263428823039,-2.57368931156)) ;
#56=CARTESIAN_POINT('Control Point',(0.,-0.191603802568,-2.52608482309)) ;
#57=CARTESIAN_POINT('Control Point',(0.,-0.152658610032,-2.50732336858)) ;
#58=CARTESIAN_POINT('Control Point',(0.,-0.0982245497334,-2.48973312143)) ;
#59=CARTESIAN_POINT('Control Point',(0.,-0.041985792905,-2.48218465023)) ;
#60=CARTESIAN_POINT('Control Point',(0.,-0.0279866469022,-2.48093666736)) ;
#61=CARTESIAN_POINT('Control Point',(0.,-0.0139933245862,-2.48031496063)) ;
#62=CARTESIAN_POINT('Control Point',(0.,-1.04902962957E-016,-2.48031496063)) ;
#63=CARTESIAN_POINT('Vertex',(0.,-0.0984251968504,-3.25521489613)) ;
#65=CARTESIAN_POINT('Vertex',(0.,-6.35488904397E-013,-2.48031496063)) ;
#69=CARTESIAN_POINT('Control Point',(0.,1.74838271595E-017,-2.48031496063)) ;
#70=CARTESIAN_POINT('Control Point',(0.,0.0426938443712,-2.48031496063)) ;
#71=CARTESIAN_POINT('Control Point',(0.,0.0853876676088,-2.48610223774)) ;
#72=CARTESIAN_POINT('Control Point',(0.,0.127037419771,-2.49767886923)) ;
#73=CARTESIAN_POINT('Control Point',(0.,0.206150573899,-2.53182770865)) ;
#74=CARTESIAN_POINT('Control Point',(0.,0.27331786808,-2.58580525459)) ;
#75=CARTESIAN_POINT('Control Point',(0.,0.30301967734,-2.61721421489)) ;
#76=CARTESIAN_POINT('Control Point',(0.,0.353163287115,-2.68729026491)) ;
#77=CARTESIAN_POINT('Control Point',(0.,0.382842131948,-2.76818641482)) ;
#78=CARTESIAN_POINT('Control Point',(0.,0.392075522814,-2.81041750218)) ;
#79=CARTESIAN_POINT('Control Point',(0.,0.398865030041,-2.89631824102)) ;
#80=CARTESIAN_POINT('Control Point',(0.,0.382541537687,-2.98092654121)) ;
#81=CARTESIAN_POINT('Control Point',(0.,0.368657753224,-3.02186504125)) ;
#82=CARTESIAN_POINT('Control Point',(0.,0.330145471116,-3.09894836282)) ;
#83=CARTESIAN_POINT('Control Point',(0.,0.272502316358,-3.16299746561)) ;
#84=CARTESIAN_POINT('Control Point',(0.,0.239484158858,-3.19089946495)) ;
#85=CARTESIAN_POINT('Control Point',(0.,0.191176168924,-3.22153966365)) ;
#86=CARTESIAN_POINT('Control Point',(0.,0.13861034435,-3.24290812862)) ;
#87=CARTESIAN_POINT('Control Point',(0.,0.125367724958,-3.24761626937)) ;
#88=CARTESIAN_POINT('Control Point',(0.,0.111974175262,-3.25171656494)) ;
#89=CARTESIAN_POINT('Control Point',(0.,0.0984251968504,-3.25521489613)) ;
#90=CARTESIAN_POINT('Vertex',(0.,0.0984251968963,-3.25521489627)) ;
#93=CARTESIAN_POINT('Line Origine',(0.,0.0984251968504,-3.27130823546)) ;
#97=CARTESIAN_POINT('Vertex',(0.,0.0984251968504,-3.2874015748)) ;
#100=CARTESIAN_POINT('Line Origine',(0.,0.,-3.2874015748)) ;
#104=CARTESIAN_POINT('Vertex',(0.,-0.0984251968504,-3.2874015748)) ;
#107=CARTESIAN_POINT('Line Origine',(0.,-0.0984251968504,-3.27130823546)) ;
#120=CARTESIAN_POINT('Control Point',(0.,-1.74838271595E-017,-3.22834645669)) ;
#121=CARTESIAN_POINT('Control Point',(0.,-0.0347169411978,-3.22834645669)) ;
#122=CARTESIAN_POINT('Control Point',(0.,-0.0694338653581,-3.22409454584)) ;
#123=CARTESIAN_POINT('Control Point',(0.,-0.103457476785,-3.21558972461)) ;
#124=CARTESIAN_POINT('Control Point',(0.,-0.168725988139,-3.19042218884)) ;
#125=CARTESIAN_POINT('Control Point',(0.,-0.22599173737,-3.15024746451)) ;
#126=CARTESIAN_POINT('Control Point',(0.,-0.25201169833,-3.12673364379)) ;
#127=CARTESIAN_POINT('Control Point',(0.,-0.297761157263,-3.07381511742)) ;
#128=CARTESIAN_POINT('Control Point',(0.,-0.329387712197,-3.0114201211)) ;
#129=CARTESIAN_POINT('Control Point',(0.,-0.341283132659,-2.97842865174)) ;
#130=CARTESIAN_POINT('Control Point',(0.,-0.356751517187,-2.91020759544)) ;
#131=CARTESIAN_POINT('Control Point',(0.,-0.35529910239,-2.84027001576)) ;
#132=CARTESIAN_POINT('Control Point',(0.,-0.350271725349,-2.80556175225)) ;
#133=CARTESIAN_POINT('Control Point',(0.,-0.331820280062,-2.73808636685)) ;
#134=CARTESIAN_POINT('Control Point',(0.,-0.297630558836,-2.67705819669)) ;
#135=CARTESIAN_POINT('Control Point',(0.,-0.276863015156,-2.6487978496)) ;
#136=CARTESIAN_POINT('Control Point',(0.,-0.228832225295,-2.59794092591)) ;
#137=CARTESIAN_POINT('Control Point',(0.,-0.169947927762,-2.56017832443)) ;
#138=CARTESIAN_POINT('Control Point',(0.,-0.138325538495,-2.5450138082)) ;
#139=CARTESIAN_POINT('Control Point',(0.,-0.0914953951254,-2.52928289161)) ;
#140=CARTESIAN_POINT('Control Point',(0.,-0.0429617672263,-2.52186154695)) ;
#141=CARTESIAN_POINT('Control Point',(0.,-0.0286366094331,-2.52040828286)) ;
#142=CARTESIAN_POINT('Control Point',(0.,-0.0143183061656,-2.51968503937)) ;
#143=CARTESIAN_POINT('Control Point',(0.,0.,-2.51968503937)) ;
#144=CARTESIAN_POINT('Vertex',(0.,-5.67192200872E-013,-3.22834645669)) ;
#146=CARTESIAN_POINT('Vertex',(0.,5.71554733753E-013,-2.51968503937)) ;
#150=CARTESIAN_POINT('Control Point',(0.,0.,-2.51968503937)) ;
#151=CARTESIAN_POINT('Control Point',(0.,0.0347169411959,-2.51968503937)) ;
#152=CARTESIAN_POINT('Control Point',(0.,0.0694338653545,-2.52393695023)) ;
#153=CARTESIAN_POINT('Control Point',(0.,0.103457476788,-2.53244177145)) ;
#154=CARTESIAN_POINT('Control Point',(0.,0.16872598814,-2.55760930722)) ;
#155=CARTESIAN_POINT('Control Point',(0.,0.22599173737,-2.59778403155)) ;
#156=CARTESIAN_POINT('Control Point',(0.,0.25201169833,-2.62129785227)) ;
#157=CARTESIAN_POINT('Control Point',(0.,0.297761157264,-2.67421637864)) ;
#158=CARTESIAN_POINT('Control Point',(0.,0.329387712197,-2.73661137496)) ;
#159=CARTESIAN_POINT('Control Point',(0.,0.341283132658,-2.76960284432)) ;
#160=CARTESIAN_POINT('Control Point',(0.,0.356751517187,-2.83782390062)) ;
#161=CARTESIAN_POINT('Control Point',(0.,0.35529910239,-2.9077614803)) ;
#162=CARTESIAN_POINT('Control Point',(0.,0.350271725349,-2.94246974381)) ;
#163=CARTESIAN_POINT('Control Point',(0.,0.331820280062,-3.00994512921)) ;
#164=CARTESIAN_POINT('Control Point',(0.,0.297630558837,-3.07097329937)) ;
#165=CARTESIAN_POINT('Control Point',(0.,0.276863015154,-3.09923364647)) ;
#166=CARTESIAN_POINT('Control Point',(0.,0.228832225295,-3.15009057016)) ;
#167=CARTESIAN_POINT('Control Point',(0.,0.169947927764,-3.18785317163)) ;
#168=CARTESIAN_POINT('Control Point',(0.,0.138325538494,-3.20301768786)) ;
#169=CARTESIAN_POINT('Control Point',(0.,0.0914953951246,-3.21874860445)) ;
#170=CARTESIAN_POINT('Control Point',(0.,0.0429617672263,-3.22616994912)) ;
#171=CARTESIAN_POINT('Control Point',(0.,0.0286366094331,-3.2276232132)) ;
#172=CARTESIAN_POINT('Control Point',(0.,0.0143183061656,-3.22834645669)) ;
#173=CARTESIAN_POINT('Control Point',(0.,-1.04902962957E-016,-3.22834645669)) ;
#180=CARTESIAN_POINT('Axis2P3D Location',(0.,0.,-2.87401574803)) ;
#185=CARTESIAN_POINT('Line Origine',(0.,-9.64256971514E-017,-3.26771653543)) ;
#189=CARTESIAN_POINT('Vertex',(0.590551181102,-9.64256971514E-017,-3.26771653543)) ;
#191=CARTESIAN_POINT('Vertex',(1.1811023622,6.99353086378E-017,-3.26771653543)) ;
#194=CARTESIAN_POINT('Axis2P3D Location',(1.1811023622,0.,-2.87401574803)) ;
#198=CARTESIAN_POINT('Vertex',(1.1811023622,4.82128485757E-017,-2.48031496063)) ;
#201=CARTESIAN_POINT('Line Origine',(0.,4.82128485757E-017,-2.48031496063)) ;
#206=CARTESIAN_POINT('Line Origine',(0.,-0.0984251715468,-3.25521490281)) ;
#210=CARTESIAN_POINT('Vertex',(0.590551181102,-0.0984251715468,-3.25521490281)) ;
#213=CARTESIAN_POINT('Axis2P3D Location',(0.590551181102,0.,-2.87401574803)) ;
#227=CARTESIAN_POINT('Axis2P3D Location',(0.,0.,-2.87401574803)) ;
#232=CARTESIAN_POINT('Line Origine',(0.,0.0984251715468,-3.25521490281)) ;
#236=CARTESIAN_POINT('Vertex',(0.590551181102,0.0984251968976,-3.25521489627)) ;
#239=CARTESIAN_POINT('Axis2P3D Location',(1.1811023622,0.,-2.87401574803)) ;
#244=CARTESIAN_POINT('Axis2P3D Location',(0.590551181102,0.,-2.87401574803)) ;
#258=CARTESIAN_POINT('Axis2P3D Location',(0.,0.0984251968504,-3.2874015748)) ;
#263=CARTESIAN_POINT('Line Origine',(0.590551181102,0.0984251968504,-3.27130823546)) ;
#267=CARTESIAN_POINT('Vertex',(0.590551181102,0.0984251968504,-3.2874015748)) ;
#270=CARTESIAN_POINT('Line Origine',(0.295275590551,0.0984251968504,-3.2874015748)) ;
#282=CARTESIAN_POINT('Axis2P3D Location',(0.,0.0984251968504,-3.2874015748)) ;
#287=CARTESIAN_POINT('Line Origine',(0.590551181102,0.,-3.2874015748)) ;
#291=CARTESIAN_POINT('Vertex',(0.590551181102,-0.0984251968504,-3.2874015748)) ;
#294=CARTESIAN_POINT('Line Origine',(0.295275590551,-0.0984251968504,-3.2874015748)) ;
#306=CARTESIAN_POINT('Axis2P3D Location',(0.,-0.0984251968504,-3.2874015748)) ;
#311=CARTESIAN_POINT('Line Origine',(0.590551181102,-0.0984251968504,-3.27130823546)) ;
#323=CARTESIAN_POINT('Axis2P3D Location',(-0.0393700787402,0.,-2.87401574803)) ;
#328=CARTESIAN_POINT('Line Origine',(-0.0393700787402,4.33915646648E-017,-2.51968503937)) ;
#332=CARTESIAN_POINT('Vertex',(1.1811023622,-1.1396287977E-016,-2.51968503937)) ;
#335=CARTESIAN_POINT('Axis2P3D Location',(1.1811023622,0.,-2.87401574803)) ;
#339=CARTESIAN_POINT('Vertex',(1.1811023622,-9.46732936663E-025,-3.22834645669)) ;
#342=CARTESIAN_POINT('Line Origine',(-0.0393700787402,-8.6783128383E-017,-3.22834645669)) ;
#354=CARTESIAN_POINT('Axis2P3D Location',(-0.0393700787402,0.,-2.87401574803)) ;
#359=CARTESIAN_POINT('Axis2P3D Location',(1.1811023622,0.,-2.87401574803)) ;
#371=CARTESIAN_POINT('Axis2P3D Location',(1.1811023622,0.,-2.87401574803)) ;
#376=CARTESIAN_POINT('Axis2P3D Location',(1.1811023622,0.,-2.87401574803)) ;
#386=CARTESIAN_POINT('Axis2P3D Location',(0.590551181102,-0.0984251968504,-3.2874015748)) ;
#399=CARTESIAN_POINT('Axis2P3D Location',(1.1811023622,0.,-2.87401574803)) ;
#409=CARTESIAN_POINT('Axis2P3D Location',(1.1811023622,0.,-2.87401574803)) ;
#414=CARTESIAN_POINT('Axis2P3D Location',(1.1811023622,0.,-2.87401574803)) ;
#424=CARTESIAN_POINT('Axis2P3D Location',(1.1811023622,0.,-2.87401574803)) ;
#37=DIRECTION('Axis2P3D Direction',(-0.0393700787402,0.,0.)) ;
#38=DIRECTION('Axis2P3D XDirection',(0.,-0.0393700787402,0.)) ;
#94=DIRECTION('Vector Direction',(0.,0.,-0.0393700787402)) ;
#101=DIRECTION('Vector Direction',(0.,0.0393700787402,0.)) ;
#108=DIRECTION('Vector Direction',(0.,0.,-0.0393700787402)) ;
#181=DIRECTION('Axis2P3D Direction',(0.0393700787402,0.,0.)) ;
#182=DIRECTION('Axis2P3D XDirection',(-0.,4.82144409113E-018,0.0393700787402)) ;
#186=DIRECTION('Vector Direction',(0.0393700787402,0.,0.)) ;
#195=DIRECTION('Axis2P3D Direction',(0.0393700787402,0.,0.)) ;
#202=DIRECTION('Vector Direction',(0.0393700787402,0.,0.)) ;
#207=DIRECTION('Vector Direction',(0.0393700787402,0.,0.)) ;
#214=DIRECTION('Axis2P3D Direction',(0.0393700787402,0.,0.)) ;
#228=DIRECTION('Axis2P3D Direction',(0.0393700787402,0.,0.)) ;
#229=DIRECTION('Axis2P3D XDirection',(0.,0.,-0.0393700787402)) ;
#233=DIRECTION('Vector Direction',(0.0393700787402,0.,0.)) ;
#240=DIRECTION('Axis2P3D Direction',(0.0393700787402,0.,0.)) ;
#245=DIRECTION('Axis2P3D Direction',(0.0393700787402,0.,0.)) ;
#259=DIRECTION('Axis2P3D Direction',(0.,0.0393700787402,-0.)) ;
#260=DIRECTION('Axis2P3D XDirection',(-0.0393700787402,0.,0.)) ;
#264=DIRECTION('Vector Direction',(0.,0.,-0.0393700787402)) ;
#271=DIRECTION('Vector Direction',(0.0393700787402,0.,0.)) ;
#283=DIRECTION('Axis2P3D Direction',(0.,0.,0.0393700787402)) ;
#284=DIRECTION('Axis2P3D XDirection',(-0.0393700787402,0.,0.)) ;
#288=DIRECTION('Vector Direction',(0.,0.0393700787402,0.)) ;
#295=DIRECTION('Vector Direction',(0.0393700787402,0.,0.)) ;
#307=DIRECTION('Axis2P3D Direction',(0.,0.0393700787402,-0.)) ;
#308=DIRECTION('Axis2P3D XDirection',(-0.0393700787402,0.,0.)) ;
#312=DIRECTION('Vector Direction',(0.,0.,-0.0393700787402)) ;
#324=DIRECTION('Axis2P3D Direction',(0.0393700787402,0.,0.)) ;
#325=DIRECTION('Axis2P3D XDirection',(0.,4.82144419632E-018,0.0393700787402)) ;
#329=DIRECTION('Vector Direction',(0.0393700787402,0.,0.)) ;
#336=DIRECTION('Axis2P3D Direction',(0.0393700787402,0.,0.)) ;
#343=DIRECTION('Vector Direction',(0.0393700787402,0.,0.)) ;
#355=DIRECTION('Axis2P3D Direction',(0.0393700787402,0.,0.)) ;
#356=DIRECTION('Axis2P3D XDirection',(0.,-1.05192548518E-025,-0.0393700787402)) ;
#360=DIRECTION('Axis2P3D Direction',(0.0393700787402,0.,0.)) ;
#372=DIRECTION('Axis2P3D Direction',(0.,0.,-0.0393700787402)) ;
#373=DIRECTION('Axis2P3D XDirection',(0.0393700787402,0.,0.)) ;
#377=DIRECTION('Axis2P3D Direction',(-0.,0.0393700787402,0.)) ;
#387=DIRECTION('Axis2P3D Direction',(-0.0393700787402,0.,0.)) ;
#388=DIRECTION('Axis2P3D XDirection',(0.,-0.0393700787402,0.)) ;
#400=DIRECTION('Axis2P3D Direction',(0.,0.,-0.0393700787402)) ;
#401=DIRECTION('Axis2P3D XDirection',(-1.39870617276E-017,0.0393700787402,0.)) ;
#410=DIRECTION('Axis2P3D Direction',(0.,0.,-0.0393700787402)) ;
#411=DIRECTION('Axis2P3D XDirection',(0.0393700787402,0.,0.)) ;
#415=DIRECTION('Axis2P3D Direction',(-0.,0.0393700787402,0.)) ;
#425=DIRECTION('Axis2P3D Direction',(0.,0.,-0.0393700787402)) ;
#426=DIRECTION('Axis2P3D XDirection',(0.,0.0393700787402,0.)) ;
#34=PRESENTATION_LAYER_ASSIGNMENT('0',' ',(#25)) ;
#8=PRODUCT_RELATED_PRODUCT_CATEGORY('part',$,(#5)) ;
#7=PRODUCT_CATEGORY('part','specification') ;
#33=STYLED_ITEM(' ',(#32),#25) ;
#32=PRESENTATION_STYLE_ASSIGNMENT((#31)) ;
#31=SURFACE_STYLE_USAGE(.BOTH.,#30) ;
#30=SURFACE_SIDE_STYLE(' ',(#29)) ;
#29=SURFACE_STYLE_FILL_AREA(#28) ;
#28=FILL_AREA_STYLE(' ',(#27)) ;
#27=FILL_AREA_STYLE_COLOUR(' ',#26) ;
#95=VECTOR('Line Direction',#94,0.0393700787402) ;
#102=VECTOR('Line Direction',#101,0.0393700787402) ;
#109=VECTOR('Line Direction',#108,0.0393700787402) ;
#187=VECTOR('Line Direction',#186,0.0393700787402) ;
#203=VECTOR('Line Direction',#202,0.0393700787402) ;
#208=VECTOR('Line Direction',#207,0.0393700787402) ;
#234=VECTOR('Line Direction',#233,0.0393700787402) ;
#265=VECTOR('Line Direction',#264,0.0393700787402) ;
#272=VECTOR('Line Direction',#271,0.0393700787402) ;
#289=VECTOR('Line Direction',#288,0.0393700787402) ;
#296=VECTOR('Line Direction',#295,0.0393700787402) ;
#313=VECTOR('Line Direction',#312,0.0393700787402) ;
#330=VECTOR('Line Direction',#329,0.0393700787402) ;
#344=VECTOR('Line Direction',#343,0.0393700787402) ;
#19=UNCERTAINTY_MEASURE_WITH_UNIT(LENGTH_MEASURE(0.000196850393701),#18,'distance_accuracy_value','CONFUSED CURVE UNCERTAINTY') ;
#435=SHAPE_REPRESENTATION_RELATIONSHIP(' ',' ',#23,#434) ;
#113=ORIENTED_EDGE('',*,*,#67,.T.) ;
#114=ORIENTED_EDGE('',*,*,#92,.T.) ;
#115=ORIENTED_EDGE('',*,*,#99,.T.) ;
#116=ORIENTED_EDGE('',*,*,#106,.F.) ;
#117=ORIENTED_EDGE('',*,*,#111,.F.) ;
#176=ORIENTED_EDGE('',*,*,#148,.F.) ;
#177=ORIENTED_EDGE('',*,*,#174,.F.) ;
#219=ORIENTED_EDGE('',*,*,#193,.T.) ;
#220=ORIENTED_EDGE('',*,*,#200,.T.) ;
#221=ORIENTED_EDGE('',*,*,#205,.F.) ;
#222=ORIENTED_EDGE('',*,*,#67,.F.) ;
#223=ORIENTED_EDGE('',*,*,#212,.T.) ;
#224=ORIENTED_EDGE('',*,*,#217,.F.) ;
#250=ORIENTED_EDGE('',*,*,#238,.F.) ;
#251=ORIENTED_EDGE('',*,*,#92,.F.) ;
#252=ORIENTED_EDGE('',*,*,#205,.T.) ;
#253=ORIENTED_EDGE('',*,*,#243,.T.) ;
#254=ORIENTED_EDGE('',*,*,#193,.F.) ;
#255=ORIENTED_EDGE('',*,*,#248,.F.) ;
#276=ORIENTED_EDGE('',*,*,#269,.T.) ;
#277=ORIENTED_EDGE('',*,*,#274,.F.) ;
#278=ORIENTED_EDGE('',*,*,#99,.F.) ;
#279=ORIENTED_EDGE('',*,*,#238,.T.) ;
#300=ORIENTED_EDGE('',*,*,#274,.T.) ;
#301=ORIENTED_EDGE('',*,*,#293,.F.) ;
#302=ORIENTED_EDGE('',*,*,#298,.F.) ;
#303=ORIENTED_EDGE('',*,*,#106,.T.) ;
#317=ORIENTED_EDGE('',*,*,#111,.T.) ;
#318=ORIENTED_EDGE('',*,*,#298,.T.) ;
#319=ORIENTED_EDGE('',*,*,#315,.F.) ;
#320=ORIENTED_EDGE('',*,*,#212,.F.) ;
#348=ORIENTED_EDGE('',*,*,#334,.T.) ;
#349=ORIENTED_EDGE('',*,*,#341,.F.) ;
#350=ORIENTED_EDGE('',*,*,#346,.F.) ;
#351=ORIENTED_EDGE('',*,*,#148,.T.) ;
#365=ORIENTED_EDGE('',*,*,#363,.F.) ;
#366=ORIENTED_EDGE('',*,*,#334,.F.) ;
#367=ORIENTED_EDGE('',*,*,#174,.T.) ;
#368=ORIENTED_EDGE('',*,*,#346,.T.) ;
#382=ORIENTED_EDGE('',*,*,#380,.T.) ;
#383=ORIENTED_EDGE('',*,*,#200,.F.) ;
#392=ORIENTED_EDGE('',*,*,#315,.T.) ;
#393=ORIENTED_EDGE('',*,*,#293,.T.) ;
#394=ORIENTED_EDGE('',*,*,#269,.F.) ;
#395=ORIENTED_EDGE('',*,*,#248,.T.) ;
#396=ORIENTED_EDGE('',*,*,#217,.T.) ;
#405=ORIENTED_EDGE('',*,*,#380,.F.) ;
#406=ORIENTED_EDGE('',*,*,#243,.F.) ;
#420=ORIENTED_EDGE('',*,*,#341,.T.) ;
#421=ORIENTED_EDGE('',*,*,#418,.F.) ;
#430=ORIENTED_EDGE('',*,*,#363,.T.) ;
#431=ORIENTED_EDGE('',*,*,#418,.T.) ;
#178=FACE_BOUND('',#175,.T.) ;
#35=CLOSED_SHELL('Closed Shell',(#179,#226,#257,#281,#305,#322,#353,#370,#385,#398,#408,#423,#433)) ;
#434=ADVANCED_BREP_SHAPE_REPRESENTATION('NONE',(#25),#20) ;
#179=ADVANCED_FACE('*VOL9',(#118,#178),#40,.T.) ;
#226=ADVANCED_FACE('*VOL9',(#225),#184,.T.) ;
#257=ADVANCED_FACE('*VOL9',(#256),#231,.T.) ;
#281=ADVANCED_FACE('*VOL9',(#280),#262,.T.) ;
#305=ADVANCED_FACE('*VOL9',(#304),#286,.F.) ;
#322=ADVANCED_FACE('*VOL9',(#321),#310,.F.) ;
#353=ADVANCED_FACE('*VOL9',(#352),#327,.F.) ;
#370=ADVANCED_FACE('*VOL9',(#369),#358,.F.) ;
#385=ADVANCED_FACE('*VOL9',(#384),#375,.T.) ;
#398=ADVANCED_FACE('*VOL9',(#397),#390,.F.) ;
#408=ADVANCED_FACE('*VOL9',(#407),#403,.T.) ;
#423=ADVANCED_FACE('*VOL9',(#422),#413,.F.) ;
#433=ADVANCED_FACE('*VOL9',(#432),#428,.F.) ;
#4=APPLICATION_PROTOCOL_DEFINITION('international standard','automotive_design',2001,#1) ;
#41=B_SPLINE_CURVE_WITH_KNOTS('',5,(#42,#43,#44,#45,#46,#47,#48,#49,#50,#51,#52,#53,#54,#55,#56,#57,#58,#59,#60,#61,#62),.UNSPECIFIED.,.F.,.U.,(6,3,3,3,3,3,6),(0.,7.95236743132,15.9047348801,23.8571023297,31.8094697888,39.7618372636,42.3683033856),.UNSPECIFIED.) ;
#68=B_SPLINE_CURVE_WITH_KNOTS('',5,(#69,#70,#71,#72,#73,#74,#75,#76,#77,#78,#79,#80,#81,#82,#83,#84,#85,#86,#87,#88,#89),.UNSPECIFIED.,.F.,.U.,(6,3,3,3,3,3,6),(0.,7.95236745086,15.9047349194,23.8571023677,31.8094698012,39.7618372374,42.3683033906),.UNSPECIFIED.) ;
#119=B_SPLINE_CURVE_WITH_KNOTS('',5,(#120,#121,#122,#123,#124,#125,#126,#127,#128,#129,#130,#131,#132,#133,#134,#135,#136,#137,#138,#139,#140,#141,#142,#143),.UNSPECIFIED.,.F.,.U.,(6,3,3,3,3,3,3,6),(0.,6.51204536797,13.0240907444,19.536136127,26.0481815321,32.5602269465,39.0722723493,41.7580348654),.UNSPECIFIED.) ;
#149=B_SPLINE_CURVE_WITH_KNOTS('',5,(#150,#151,#152,#153,#154,#155,#156,#157,#158,#159,#160,#161,#162,#163,#164,#165,#166,#167,#168,#169,#170,#171,#172,#173),.UNSPECIFIED.,.F.,.U.,(6,3,3,3,3,3,3,6),(0.,6.51204536762,13.024090744,19.5361361267,26.0481815317,32.5602269459,39.0722723485,41.7580348646),.UNSPECIFIED.) ;
#25=MANIFOLD_SOLID_BREP('*VOL9',#35) ;
#197=CIRCLE('generated circle',#196,0.393700787402) ;
#216=CIRCLE('generated circle',#215,0.393700787402) ;
#242=CIRCLE('generated circle',#241,0.393700787402) ;
#247=CIRCLE('generated circle',#246,0.393700787402) ;
#338=CIRCLE('generated circle',#337,0.354330708661) ;
#362=CIRCLE('generated circle',#361,0.354330708661) ;
#379=CIRCLE('generated circle',#378,0.393700787402) ;
#417=CIRCLE('generated circle',#416,0.354330708661) ;
#184=CYLINDRICAL_SURFACE('generated cylinder',#183,0.393700787402) ;
#231=CYLINDRICAL_SURFACE('generated cylinder',#230,0.393700787402) ;
#327=CYLINDRICAL_SURFACE('generated cylinder',#326,0.354330708661) ;
#358=CYLINDRICAL_SURFACE('generated cylinder',#357,0.354330708661) ;
#26=DRAUGHTING_PRE_DEFINED_COLOUR('yellow') ;
#67=EDGE_CURVE('',#64,#66,#41,.T.) ;
#92=EDGE_CURVE('',#66,#91,#68,.T.) ;
#99=EDGE_CURVE('',#91,#98,#96,.T.) ;
#106=EDGE_CURVE('',#105,#98,#103,.T.) ;
#111=EDGE_CURVE('',#64,#105,#110,.T.) ;
#148=EDGE_CURVE('',#145,#147,#119,.T.) ;
#174=EDGE_CURVE('',#147,#145,#149,.T.) ;
#193=EDGE_CURVE('',#190,#192,#188,.T.) ;
#200=EDGE_CURVE('',#192,#199,#197,.F.) ;
#205=EDGE_CURVE('',#66,#199,#204,.T.) ;
#212=EDGE_CURVE('',#64,#211,#209,.T.) ;
#217=EDGE_CURVE('',#190,#211,#216,.F.) ;
#238=EDGE_CURVE('',#91,#237,#235,.T.) ;
#243=EDGE_CURVE('',#199,#192,#242,.F.) ;
#248=EDGE_CURVE('',#237,#190,#247,.F.) ;
#269=EDGE_CURVE('',#237,#268,#266,.T.) ;
#274=EDGE_CURVE('',#98,#268,#273,.T.) ;
#293=EDGE_CURVE('',#292,#268,#290,.T.) ;
#298=EDGE_CURVE('',#105,#292,#297,.T.) ;
#315=EDGE_CURVE('',#211,#292,#314,.T.) ;
#334=EDGE_CURVE('',#147,#333,#331,.T.) ;
#341=EDGE_CURVE('',#340,#333,#338,.F.) ;
#346=EDGE_CURVE('',#145,#340,#345,.T.) ;
#363=EDGE_CURVE('',#333,#340,#362,.F.) ;
#380=EDGE_CURVE('',#192,#199,#379,.F.) ;
#418=EDGE_CURVE('',#340,#333,#417,.F.) ;
#112=EDGE_LOOP('',(#113,#114,#115,#116,#117)) ;
#175=EDGE_LOOP('',(#176,#177)) ;
#218=EDGE_LOOP('',(#219,#220,#221,#222,#223,#224)) ;
#249=EDGE_LOOP('',(#250,#251,#252,#253,#254,#255)) ;
#275=EDGE_LOOP('',(#276,#277,#278,#279)) ;
#299=EDGE_LOOP('',(#300,#301,#302,#303)) ;
#316=EDGE_LOOP('',(#317,#318,#319,#320)) ;
#347=EDGE_LOOP('',(#348,#349,#350,#351)) ;
#364=EDGE_LOOP('',(#365,#366,#367,#368)) ;
#381=EDGE_LOOP('',(#382,#383)) ;
#391=EDGE_LOOP('',(#392,#393,#394,#395,#396)) ;
#404=EDGE_LOOP('',(#405,#406)) ;
#419=EDGE_LOOP('',(#420,#421)) ;
#429=EDGE_LOOP('',(#430,#431)) ;
#118=FACE_OUTER_BOUND('',#112,.T.) ;
#225=FACE_OUTER_BOUND('',#218,.T.) ;
#256=FACE_OUTER_BOUND('',#249,.T.) ;
#280=FACE_OUTER_BOUND('',#275,.T.) ;
#304=FACE_OUTER_BOUND('',#299,.T.) ;
#321=FACE_OUTER_BOUND('',#316,.T.) ;
#352=FACE_OUTER_BOUND('',#347,.T.) ;
#369=FACE_OUTER_BOUND('',#364,.T.) ;
#384=FACE_OUTER_BOUND('',#381,.T.) ;
#397=FACE_OUTER_BOUND('',#391,.T.) ;
#407=FACE_OUTER_BOUND('',#404,.T.) ;
#422=FACE_OUTER_BOUND('',#419,.T.) ;
#432=FACE_OUTER_BOUND('',#429,.T.) ;
#16=LENGTH_MEASURE_WITH_UNIT(LENGTH_MEASURE(25.4),#12) ;
#96=LINE('Line',#93,#95) ;
#103=LINE('Line',#100,#102) ;
#110=LINE('Line',#107,#109) ;
#188=LINE('Line',#185,#187) ;
#204=LINE('Line',#201,#203) ;
#209=LINE('Line',#206,#208) ;
#235=LINE('Line',#232,#234) ;
#266=LINE('Line',#263,#265) ;
#273=LINE('Line',#270,#272) ;
#290=LINE('Line',#287,#289) ;
#297=LINE('Line',#294,#296) ;
#314=LINE('Line',#311,#313) ;
#331=LINE('Line',#328,#330) ;
#345=LINE('Line',#342,#344) ;
#40=PLANE('Plane',#39) ;
#262=PLANE('Plane',#261) ;
#286=PLANE('Plane',#285) ;
#310=PLANE('Plane',#309) ;
#390=PLANE('Plane',#389) ;
#14=PLANE_ANGLE_MEASURE_WITH_UNIT(PLANE_ANGLE_MEASURE(0.0174532925199),#13) ;
#9=PRODUCT_CATEGORY_RELATIONSHIP(' ',' ',#7,#8) ;
#6=PRODUCT_DEFINITION_FORMATION_WITH_SPECIFIED_SOURCE(' ',' ',#5,.NOT_KNOWN.) ;
#24=SHAPE_DEFINITION_REPRESENTATION(#11,#23) ;
#375=SPHERICAL_SURFACE('',#374,0.393700787402) ;
#403=SPHERICAL_SURFACE('',#402,0.393700787402) ;
#413=SPHERICAL_SURFACE('',#412,0.354330708661) ;
#428=SPHERICAL_SURFACE('',#427,0.354330708661) ;
#64=VERTEX_POINT('',#63) ;
#66=VERTEX_POINT('',#65) ;
#91=VERTEX_POINT('',#90) ;
#98=VERTEX_POINT('',#97) ;
#105=VERTEX_POINT('',#104) ;
#145=VERTEX_POINT('',#144) ;
#147=VERTEX_POINT('',#146) ;
#190=VERTEX_POINT('',#189) ;
#192=VERTEX_POINT('',#191) ;
#199=VERTEX_POINT('',#198) ;
#211=VERTEX_POINT('',#210) ;
#237=VERTEX_POINT('',#236) ;
#268=VERTEX_POINT('',#267) ;
#292=VERTEX_POINT('',#291) ;
#333=VERTEX_POINT('',#332) ;
#340=VERTEX_POINT('',#339) ;
#12=(LENGTH_UNIT()NAMED_UNIT(*)SI_UNIT(.MILLI.,.METRE.)) ;
#13=(NAMED_UNIT(*)PLANE_ANGLE_UNIT()SI_UNIT($,.RADIAN.)) ;
#15=(NAMED_UNIT(*)SI_UNIT($,.STERADIAN.)SOLID_ANGLE_UNIT()) ;
#18=(CONVERSION_BASED_UNIT('INCH',#16)LENGTH_UNIT()NAMED_UNIT(#17)) ;
#20=(GEOMETRIC_REPRESENTATION_CONTEXT(3)GLOBAL_UNCERTAINTY_ASSIGNED_CONTEXT((#19))GLOBAL_UNIT_ASSIGNED_CONTEXT((#18,#13,#15))REPRESENTATION_CONTEXT(' ',' ')) ;
ENDSEC;
END-ISO-10303-21;
