ISO-10303-21;
HEADER;
FILE_DESCRIPTION(('CATIA V5 STEP'),'2;1');

FILE_NAME('E:\\Public\\Archive_PDES\\TR22\\NativeFiles\\s1\\FOOT_BACK_000.stp','2008-08-18T12:41:46+00:00',('none'),('none'),'CATIA Version 5 Release 19 SP 1 (IN-PROTO)','CATIA V5 STEP AP214','none');

FILE_SCHEMA(('AUTOMOTIVE_DESIGN { 1 0 10303 214 1 1 1 1 }'));

ENDSEC;
/* file written by CATIA V5R19 */
DATA;
#5=PRODUCT('FOOT_BACK_000','FOOT_BACK_000',' ',(#2)) ;
#2=PRODUCT_CONTEXT(' ',#1,'mechanical') ;
#1=APPLICATION_CONTEXT('automotive design') ;
#10=PRODUCT_DEFINITION(' ',' ',#6,#3) ;
#3=PRODUCT_DEFINITION_CONTEXT('part definition',#1,' ') ;
#11=PRODUCT_DEFINITION_SHAPE(' ',' ',#10) ;
#17=DIMENSIONAL_EXPONENTS(1.,0.,0.,0.,0.,0.,0.) ;
#436=MECHANICAL_DESIGN_GEOMETRIC_PRESENTATION_REPRESENTATION(' ',(#33),#20) ;
#23=SHAPE_REPRESENTATION(' ',(#22),#20) ;
#22=AXIS2_PLACEMENT_3D(' ',#21,$,$) ;
#39=AXIS2_PLACEMENT_3D('Plane Axis2P3D',#36,#37,#38) ;
#183=AXIS2_PLACEMENT_3D('Plane Axis2P3D',#180,#181,#182) ;
#214=AXIS2_PLACEMENT_3D('Plane Axis2P3D',#211,#212,#213) ;
#238=AXIS2_PLACEMENT_3D('Plane Axis2P3D',#235,#236,#237) ;
#262=AXIS2_PLACEMENT_3D('Cylinder Axis2P3D',#259,#260,#261) ;
#266=AXIS2_PLACEMENT_3D('Circle Axis2P3D',#264,#265,$) ;
#280=AXIS2_PLACEMENT_3D('Circle Axis2P3D',#278,#279,$) ;
#302=AXIS2_PLACEMENT_3D('Cylinder Axis2P3D',#299,#300,#301) ;
#306=AXIS2_PLACEMENT_3D('Circle Axis2P3D',#304,#305,$) ;
#311=AXIS2_PLACEMENT_3D('Circle Axis2P3D',#309,#310,$) ;
#326=AXIS2_PLACEMENT_3D('Cylinder Axis2P3D',#323,#324,#325) ;
#344=AXIS2_PLACEMENT_3D('Circle Axis2P3D',#342,#343,$) ;
#357=AXIS2_PLACEMENT_3D('Cylinder Axis2P3D',#354,#355,#356) ;
#361=AXIS2_PLACEMENT_3D('Circle Axis2P3D',#359,#360,$) ;
#374=AXIS2_PLACEMENT_3D('Plane Axis2P3D',#371,#372,#373) ;
#387=AXIS2_PLACEMENT_3D('Sphere Axis2P3D',#384,#385,#386) ;
#391=AXIS2_PLACEMENT_3D('Circle Axis2P3D',#389,#390,$) ;
#402=AXIS2_PLACEMENT_3D('Sphere Axis2P3D',#399,#400,#401) ;
#412=AXIS2_PLACEMENT_3D('Sphere Axis2P3D',#409,#410,#411) ;
#416=AXIS2_PLACEMENT_3D('Circle Axis2P3D',#414,#415,$) ;
#427=AXIS2_PLACEMENT_3D('Sphere Axis2P3D',#424,#425,#426) ;
#21=CARTESIAN_POINT(' ',(0.,0.,0.)) ;
#36=CARTESIAN_POINT('Axis2P3D Location',(0.,-0.0984251968504,-3.2874015748)) ;
#41=CARTESIAN_POINT('Line Origine',(0.,-0.0984251968504,-3.27130823546)) ;
#45=CARTESIAN_POINT('Vertex',(0.,-0.0984251968963,-3.25521489627)) ;
#47=CARTESIAN_POINT('Vertex',(0.,-0.0984251968504,-3.2874015748)) ;
#50=CARTESIAN_POINT('Line Origine',(0.,0.,-3.2874015748)) ;
#54=CARTESIAN_POINT('Vertex',(0.,0.0984251968504,-3.2874015748)) ;
#57=CARTESIAN_POINT('Line Origine',(0.,0.0984251968504,-3.27130823546)) ;
#61=CARTESIAN_POINT('Vertex',(0.,0.0984251968504,-3.25521489613)) ;
#65=CARTESIAN_POINT('Control Point',(0.,1.74838271595E-017,-2.48031496063)) ;
#66=CARTESIAN_POINT('Control Point',(0.,0.0426938443712,-2.48031496063)) ;
#67=CARTESIAN_POINT('Control Point',(0.,0.0853876676088,-2.48610223774)) ;
#68=CARTESIAN_POINT('Control Point',(0.,0.127037419771,-2.49767886923)) ;
#69=CARTESIAN_POINT('Control Point',(0.,0.206150573899,-2.53182770865)) ;
#70=CARTESIAN_POINT('Control Point',(0.,0.27331786808,-2.58580525459)) ;
#71=CARTESIAN_POINT('Control Point',(0.,0.30301967734,-2.61721421489)) ;
#72=CARTESIAN_POINT('Control Point',(0.,0.353163287115,-2.68729026491)) ;
#73=CARTESIAN_POINT('Control Point',(0.,0.382842131948,-2.76818641482)) ;
#74=CARTESIAN_POINT('Control Point',(0.,0.392075522814,-2.81041750218)) ;
#75=CARTESIAN_POINT('Control Point',(0.,0.398865030041,-2.89631824102)) ;
#76=CARTESIAN_POINT('Control Point',(0.,0.382541537687,-2.98092654121)) ;
#77=CARTESIAN_POINT('Control Point',(0.,0.368657753224,-3.02186504125)) ;
#78=CARTESIAN_POINT('Control Point',(0.,0.330145471116,-3.09894836282)) ;
#79=CARTESIAN_POINT('Control Point',(0.,0.272502316358,-3.16299746561)) ;
#80=CARTESIAN_POINT('Control Point',(0.,0.239484158858,-3.19089946495)) ;
#81=CARTESIAN_POINT('Control Point',(0.,0.191176168924,-3.22153966365)) ;
#82=CARTESIAN_POINT('Control Point',(0.,0.13861034435,-3.24290812862)) ;
#83=CARTESIAN_POINT('Control Point',(0.,0.125367724958,-3.24761626937)) ;
#84=CARTESIAN_POINT('Control Point',(0.,0.111974175262,-3.25171656494)) ;
#85=CARTESIAN_POINT('Control Point',(0.,0.0984251968504,-3.25521489613)) ;
#86=CARTESIAN_POINT('Vertex',(0.,6.19928298226E-013,-2.48031496063)) ;
#90=CARTESIAN_POINT('Control Point',(0.,-0.0984251968504,-3.25521489613)) ;
#91=CARTESIAN_POINT('Control Point',(0.,-0.139763333744,-3.24454143508)) ;
#92=CARTESIAN_POINT('Control Point',(0.,-0.179654632481,-3.22826447246)) ;
#93=CARTESIAN_POINT('Control Point',(0.,-0.217087673382,-3.20664300854)) ;
#94=CARTESIAN_POINT('Control Point',(0.,-0.28515144502,-3.15380024831)) ;
#95=CARTESIAN_POINT('Control Point',(0.,-0.336691511643,-3.08474489079)) ;
#96=CARTESIAN_POINT('Control Point',(0.,-0.357597924819,-3.04690784348)) ;
#97=CARTESIAN_POINT('Control Point',(0.,-0.38863025335,-2.96652109741)) ;
#98=CARTESIAN_POINT('Control Point',(0.,-0.397142633532,-2.88077402594)) ;
#99=CARTESIAN_POINT('Control Point',(0.,-0.39552505395,-2.83757560337)) ;
#100=CARTESIAN_POINT('Control Point',(0.,-0.380623781317,-2.75270519368)) ;
#101=CARTESIAN_POINT('Control Point',(0.,-0.343666552312,-2.67486443238)) ;
#102=CARTESIAN_POINT('Control Point',(0.,-0.319989010487,-2.6386968464)) ;
#103=CARTESIAN_POINT('Control Point',(0.,-0.263428823039,-2.57368931156)) ;
#104=CARTESIAN_POINT('Control Point',(0.,-0.191603802568,-2.52608482309)) ;
#105=CARTESIAN_POINT('Control Point',(0.,-0.152658610032,-2.50732336858)) ;
#106=CARTESIAN_POINT('Control Point',(0.,-0.0982245497334,-2.48973312143)) ;
#107=CARTESIAN_POINT('Control Point',(0.,-0.041985792905,-2.48218465023)) ;
#108=CARTESIAN_POINT('Control Point',(0.,-0.0279866469022,-2.48093666736)) ;
#109=CARTESIAN_POINT('Control Point',(0.,-0.0139933245862,-2.48031496063)) ;
#110=CARTESIAN_POINT('Control Point',(0.,-1.04902962957E-016,-2.48031496063)) ;
#120=CARTESIAN_POINT('Control Point',(0.,0.,-2.51968503937)) ;
#121=CARTESIAN_POINT('Control Point',(0.,0.0347169411959,-2.51968503937)) ;
#122=CARTESIAN_POINT('Control Point',(0.,0.0694338653545,-2.52393695023)) ;
#123=CARTESIAN_POINT('Control Point',(0.,0.103457476788,-2.53244177145)) ;
#124=CARTESIAN_POINT('Control Point',(0.,0.16872598814,-2.55760930722)) ;
#125=CARTESIAN_POINT('Control Point',(0.,0.22599173737,-2.59778403155)) ;
#126=CARTESIAN_POINT('Control Point',(0.,0.25201169833,-2.62129785227)) ;
#127=CARTESIAN_POINT('Control Point',(0.,0.297761157264,-2.67421637864)) ;
#128=CARTESIAN_POINT('Control Point',(0.,0.329387712197,-2.73661137496)) ;
#129=CARTESIAN_POINT('Control Point',(0.,0.341283132658,-2.76960284432)) ;
#130=CARTESIAN_POINT('Control Point',(0.,0.356751517187,-2.83782390062)) ;
#131=CARTESIAN_POINT('Control Point',(0.,0.35529910239,-2.9077614803)) ;
#132=CARTESIAN_POINT('Control Point',(0.,0.350271725349,-2.94246974381)) ;
#133=CARTESIAN_POINT('Control Point',(0.,0.331820280062,-3.00994512921)) ;
#134=CARTESIAN_POINT('Control Point',(0.,0.297630558837,-3.07097329937)) ;
#135=CARTESIAN_POINT('Control Point',(0.,0.276863015154,-3.09923364647)) ;
#136=CARTESIAN_POINT('Control Point',(0.,0.228832225295,-3.15009057016)) ;
#137=CARTESIAN_POINT('Control Point',(0.,0.169947927764,-3.18785317163)) ;
#138=CARTESIAN_POINT('Control Point',(0.,0.138325538494,-3.20301768786)) ;
#139=CARTESIAN_POINT('Control Point',(0.,0.0914953951246,-3.21874860445)) ;
#140=CARTESIAN_POINT('Control Point',(0.,0.0429617672263,-3.22616994912)) ;
#141=CARTESIAN_POINT('Control Point',(0.,0.0286366094331,-3.2276232132)) ;
#142=CARTESIAN_POINT('Control Point',(0.,0.0143183061656,-3.22834645669)) ;
#143=CARTESIAN_POINT('Control Point',(0.,-1.04902962957E-016,-3.22834645669)) ;
#144=CARTESIAN_POINT('Vertex',(0.,5.71467950625E-013,-2.51968503937)) ;
#146=CARTESIAN_POINT('Vertex',(0.,-5.67105417744E-013,-3.22834645669)) ;
#150=CARTESIAN_POINT('Control Point',(0.,-1.74838271595E-017,-3.22834645669)) ;
#151=CARTESIAN_POINT('Control Point',(0.,-0.0347169411978,-3.22834645669)) ;
#152=CARTESIAN_POINT('Control Point',(0.,-0.0694338653581,-3.22409454584)) ;
#153=CARTESIAN_POINT('Control Point',(0.,-0.103457476785,-3.21558972461)) ;
#154=CARTESIAN_POINT('Control Point',(0.,-0.168725988139,-3.19042218884)) ;
#155=CARTESIAN_POINT('Control Point',(0.,-0.22599173737,-3.15024746451)) ;
#156=CARTESIAN_POINT('Control Point',(0.,-0.25201169833,-3.12673364379)) ;
#157=CARTESIAN_POINT('Control Point',(0.,-0.297761157263,-3.07381511742)) ;
#158=CARTESIAN_POINT('Control Point',(0.,-0.329387712197,-3.0114201211)) ;
#159=CARTESIAN_POINT('Control Point',(0.,-0.341283132659,-2.97842865174)) ;
#160=CARTESIAN_POINT('Control Point',(0.,-0.356751517187,-2.91020759544)) ;
#161=CARTESIAN_POINT('Control Point',(0.,-0.35529910239,-2.84027001576)) ;
#162=CARTESIAN_POINT('Control Point',(0.,-0.350271725349,-2.80556175225)) ;
#163=CARTESIAN_POINT('Control Point',(0.,-0.331820280062,-2.73808636685)) ;
#164=CARTESIAN_POINT('Control Point',(0.,-0.297630558836,-2.67705819669)) ;
#165=CARTESIAN_POINT('Control Point',(0.,-0.276863015156,-2.6487978496)) ;
#166=CARTESIAN_POINT('Control Point',(0.,-0.228832225295,-2.59794092591)) ;
#167=CARTESIAN_POINT('Control Point',(0.,-0.169947927762,-2.56017832443)) ;
#168=CARTESIAN_POINT('Control Point',(0.,-0.138325538495,-2.5450138082)) ;
#169=CARTESIAN_POINT('Control Point',(0.,-0.0914953951254,-2.52928289161)) ;
#170=CARTESIAN_POINT('Control Point',(0.,-0.0429617672263,-2.52186154695)) ;
#171=CARTESIAN_POINT('Control Point',(0.,-0.0286366094331,-2.52040828286)) ;
#172=CARTESIAN_POINT('Control Point',(0.,-0.0143183061656,-2.51968503937)) ;
#173=CARTESIAN_POINT('Control Point',(0.,0.,-2.51968503937)) ;
#180=CARTESIAN_POINT('Axis2P3D Location',(0.,-0.0984251968504,-3.2874015748)) ;
#185=CARTESIAN_POINT('Line Origine',(-0.295275590551,-0.0984251968504,-3.25521498801)) ;
#189=CARTESIAN_POINT('Vertex',(-0.590551181102,-0.0984251968976,-3.25521489627)) ;
#192=CARTESIAN_POINT('Line Origine',(-0.590551181102,-0.0984251968504,-3.27130823546)) ;
#196=CARTESIAN_POINT('Vertex',(-0.590551181102,-0.0984251968504,-3.2874015748)) ;
#199=CARTESIAN_POINT('Line Origine',(-0.295275590551,-0.0984251968504,-3.2874015748)) ;
#211=CARTESIAN_POINT('Axis2P3D Location',(0.,0.0984251968504,-3.2874015748)) ;
#216=CARTESIAN_POINT('Line Origine',(-0.590551181102,0.,-3.2874015748)) ;
#220=CARTESIAN_POINT('Vertex',(-0.590551181102,0.0984251968504,-3.2874015748)) ;
#223=CARTESIAN_POINT('Line Origine',(-0.295275590551,0.0984251968504,-3.2874015748)) ;
#235=CARTESIAN_POINT('Axis2P3D Location',(0.,0.0984251968504,-3.2874015748)) ;
#240=CARTESIAN_POINT('Line Origine',(-0.295275590551,0.0984251968504,-3.25521498801)) ;
#244=CARTESIAN_POINT('Vertex',(-0.590551181102,0.0984251715468,-3.25521490281)) ;
#247=CARTESIAN_POINT('Line Origine',(-0.590551181102,0.0984251968504,-3.27130823546)) ;
#259=CARTESIAN_POINT('Axis2P3D Location',(0.,0.,-2.87401574803)) ;
#264=CARTESIAN_POINT('Axis2P3D Location',(-0.590551181102,0.,-2.87401574803)) ;
#268=CARTESIAN_POINT('Vertex',(-0.590551181102,9.64256971514E-017,-3.26771653543)) ;
#271=CARTESIAN_POINT('Line Origine',(0.,9.64256971514E-017,-3.26771653543)) ;
#275=CARTESIAN_POINT('Vertex',(-1.1811023622,0.,-3.26771653543)) ;
#278=CARTESIAN_POINT('Axis2P3D Location',(-1.1811023622,0.,-2.87401574803)) ;
#282=CARTESIAN_POINT('Vertex',(-1.1811023622,1.35049332418E-015,-2.48031496063)) ;
#285=CARTESIAN_POINT('Line Origine',(0.,-4.82128485757E-017,-2.48031496063)) ;
#299=CARTESIAN_POINT('Axis2P3D Location',(0.,0.,-2.87401574803)) ;
#304=CARTESIAN_POINT('Axis2P3D Location',(-0.590551181102,0.,-2.87401574803)) ;
#309=CARTESIAN_POINT('Axis2P3D Location',(-1.1811023622,0.,-2.87401574803)) ;
#323=CARTESIAN_POINT('Axis2P3D Location',(0.0393700787402,0.,-2.87401574803)) ;
#328=CARTESIAN_POINT('Line Origine',(0.0393700787402,8.67831264895E-017,-3.22834645669)) ;
#332=CARTESIAN_POINT('Vertex',(-1.1811023622,-7.69288395016E-016,-3.22834645669)) ;
#335=CARTESIAN_POINT('Line Origine',(0.0393700787402,-4.33915627714E-017,-2.51968503937)) ;
#339=CARTESIAN_POINT('Vertex',(-1.1811023622,-4.33915627714E-017,-2.51968503937)) ;
#342=CARTESIAN_POINT('Axis2P3D Location',(-1.1811023622,0.,-2.87401574803)) ;
#354=CARTESIAN_POINT('Axis2P3D Location',(0.0393700787402,0.,-2.87401574803)) ;
#359=CARTESIAN_POINT('Axis2P3D Location',(-1.1811023622,0.,-2.87401574803)) ;
#371=CARTESIAN_POINT('Axis2P3D Location',(-0.590551181102,-0.0984251968504,-3.2874015748)) ;
#384=CARTESIAN_POINT('Axis2P3D Location',(-1.1811023622,0.,-2.87401574803)) ;
#389=CARTESIAN_POINT('Axis2P3D Location',(-1.1811023622,0.,-2.87401574803)) ;
#399=CARTESIAN_POINT('Axis2P3D Location',(-1.1811023622,0.,-2.87401574803)) ;
#409=CARTESIAN_POINT('Axis2P3D Location',(-1.1811023622,0.,-2.87401574803)) ;
#414=CARTESIAN_POINT('Axis2P3D Location',(-1.1811023622,0.,-2.87401574803)) ;
#424=CARTESIAN_POINT('Axis2P3D Location',(-1.1811023622,0.,-2.87401574803)) ;
#37=DIRECTION('Axis2P3D Direction',(0.0393700787402,0.,0.)) ;
#38=DIRECTION('Axis2P3D XDirection',(0.,0.0393700787402,0.)) ;
#42=DIRECTION('Vector Direction',(0.,0.,-0.0393700787402)) ;
#51=DIRECTION('Vector Direction',(0.,0.0393700787402,0.)) ;
#58=DIRECTION('Vector Direction',(0.,0.,-0.0393700787402)) ;
#181=DIRECTION('Axis2P3D Direction',(0.,0.0393700787402,-0.)) ;
#182=DIRECTION('Axis2P3D XDirection',(-0.0393700787402,0.,0.)) ;
#186=DIRECTION('Vector Direction',(-0.0393700787402,0.,0.)) ;
#193=DIRECTION('Vector Direction',(0.,0.,-0.0393700787402)) ;
#200=DIRECTION('Vector Direction',(-0.0393700787402,0.,0.)) ;
#212=DIRECTION('Axis2P3D Direction',(0.,0.,0.0393700787402)) ;
#213=DIRECTION('Axis2P3D XDirection',(-0.0393700787402,0.,0.)) ;
#217=DIRECTION('Vector Direction',(0.,0.0393700787402,0.)) ;
#224=DIRECTION('Vector Direction',(-0.0393700787402,0.,0.)) ;
#236=DIRECTION('Axis2P3D Direction',(0.,0.0393700787402,-0.)) ;
#237=DIRECTION('Axis2P3D XDirection',(-0.0393700787402,0.,0.)) ;
#241=DIRECTION('Vector Direction',(-0.0393700787402,0.,0.)) ;
#248=DIRECTION('Vector Direction',(0.,0.,-0.0393700787402)) ;
#260=DIRECTION('Axis2P3D Direction',(-0.0393700787402,0.,0.)) ;
#261=DIRECTION('Axis2P3D XDirection',(-0.,-4.82144409113E-018,0.0393700787402)) ;
#265=DIRECTION('Axis2P3D Direction',(-0.0393700787402,0.,0.)) ;
#272=DIRECTION('Vector Direction',(-0.0393700787402,0.,0.)) ;
#279=DIRECTION('Axis2P3D Direction',(-0.0393700787402,0.,0.)) ;
#286=DIRECTION('Vector Direction',(-0.0393700787402,0.,0.)) ;
#300=DIRECTION('Axis2P3D Direction',(-0.0393700787402,0.,0.)) ;
#301=DIRECTION('Axis2P3D XDirection',(0.,0.,-0.0393700787402)) ;
#305=DIRECTION('Axis2P3D Direction',(-0.0393700787402,0.,0.)) ;
#310=DIRECTION('Axis2P3D Direction',(-0.0393700787402,0.,0.)) ;
#324=DIRECTION('Axis2P3D Direction',(-0.0393700787402,-0.,0.)) ;
#325=DIRECTION('Axis2P3D XDirection',(0.,-4.82144398594E-018,0.0393700787402)) ;
#329=DIRECTION('Vector Direction',(-0.0393700787402,0.,0.)) ;
#336=DIRECTION('Vector Direction',(-0.0393700787402,0.,0.)) ;
#343=DIRECTION('Axis2P3D Direction',(-0.0393700787402,-0.,0.)) ;
#355=DIRECTION('Axis2P3D Direction',(-0.0393700787402,-0.,0.)) ;
#356=DIRECTION('Axis2P3D XDirection',(0.,-1.05192548518E-025,-0.0393700787402)) ;
#360=DIRECTION('Axis2P3D Direction',(-0.0393700787402,-0.,0.)) ;
#372=DIRECTION('Axis2P3D Direction',(0.0393700787402,0.,0.)) ;
#373=DIRECTION('Axis2P3D XDirection',(0.,0.0393700787402,0.)) ;
#385=DIRECTION('Axis2P3D Direction',(0.,0.,-0.0393700787402)) ;
#386=DIRECTION('Axis2P3D XDirection',(-0.0393700787402,0.,0.)) ;
#390=DIRECTION('Axis2P3D Direction',(-0.,-0.0393700787402,-0.)) ;
#400=DIRECTION('Axis2P3D Direction',(0.,0.,-0.0393700787402)) ;
#401=DIRECTION('Axis2P3D XDirection',(1.39870617276E-017,-0.0393700787402,0.)) ;
#410=DIRECTION('Axis2P3D Direction',(0.,0.,-0.0393700787402)) ;
#411=DIRECTION('Axis2P3D XDirection',(-0.0393700787402,0.,0.)) ;
#415=DIRECTION('Axis2P3D Direction',(-0.,-0.0393700787402,-0.)) ;
#425=DIRECTION('Axis2P3D Direction',(0.,0.,-0.0393700787402)) ;
#426=DIRECTION('Axis2P3D XDirection',(0.,-0.0393700787402,0.)) ;
#34=PRESENTATION_LAYER_ASSIGNMENT('0',' ',(#25)) ;
#8=PRODUCT_RELATED_PRODUCT_CATEGORY('part',$,(#5)) ;
#7=PRODUCT_CATEGORY('part','specification') ;
#33=STYLED_ITEM(' ',(#32),#25) ;
#32=PRESENTATION_STYLE_ASSIGNMENT((#31)) ;
#31=SURFACE_STYLE_USAGE(.BOTH.,#30) ;
#30=SURFACE_SIDE_STYLE(' ',(#29)) ;
#29=SURFACE_STYLE_FILL_AREA(#28) ;
#28=FILL_AREA_STYLE(' ',(#27)) ;
#27=FILL_AREA_STYLE_COLOUR(' ',#26) ;
#43=VECTOR('Line Direction',#42,0.0393700787402) ;
#52=VECTOR('Line Direction',#51,0.0393700787402) ;
#59=VECTOR('Line Direction',#58,0.0393700787402) ;
#187=VECTOR('Line Direction',#186,0.0393700787402) ;
#194=VECTOR('Line Direction',#193,0.0393700787402) ;
#201=VECTOR('Line Direction',#200,0.0393700787402) ;
#218=VECTOR('Line Direction',#217,0.0393700787402) ;
#225=VECTOR('Line Direction',#224,0.0393700787402) ;
#242=VECTOR('Line Direction',#241,0.0393700787402) ;
#249=VECTOR('Line Direction',#248,0.0393700787402) ;
#273=VECTOR('Line Direction',#272,0.0393700787402) ;
#287=VECTOR('Line Direction',#286,0.0393700787402) ;
#330=VECTOR('Line Direction',#329,0.0393700787402) ;
#337=VECTOR('Line Direction',#336,0.0393700787402) ;
#19=UNCERTAINTY_MEASURE_WITH_UNIT(LENGTH_MEASURE(0.000196850393701),#18,'distance_accuracy_value','CONFUSED CURVE UNCERTAINTY') ;
#435=SHAPE_REPRESENTATION_RELATIONSHIP(' ',' ',#23,#434) ;
#113=ORIENTED_EDGE('',*,*,#49,.T.) ;
#114=ORIENTED_EDGE('',*,*,#56,.T.) ;
#115=ORIENTED_EDGE('',*,*,#63,.F.) ;
#116=ORIENTED_EDGE('',*,*,#88,.F.) ;
#117=ORIENTED_EDGE('',*,*,#111,.F.) ;
#176=ORIENTED_EDGE('',*,*,#148,.T.) ;
#177=ORIENTED_EDGE('',*,*,#174,.T.) ;
#205=ORIENTED_EDGE('',*,*,#191,.T.) ;
#206=ORIENTED_EDGE('',*,*,#198,.T.) ;
#207=ORIENTED_EDGE('',*,*,#203,.F.) ;
#208=ORIENTED_EDGE('',*,*,#49,.F.) ;
#229=ORIENTED_EDGE('',*,*,#56,.F.) ;
#230=ORIENTED_EDGE('',*,*,#203,.T.) ;
#231=ORIENTED_EDGE('',*,*,#222,.T.) ;
#232=ORIENTED_EDGE('',*,*,#227,.F.) ;
#253=ORIENTED_EDGE('',*,*,#246,.F.) ;
#254=ORIENTED_EDGE('',*,*,#63,.T.) ;
#255=ORIENTED_EDGE('',*,*,#227,.T.) ;
#256=ORIENTED_EDGE('',*,*,#251,.F.) ;
#291=ORIENTED_EDGE('',*,*,#270,.T.) ;
#292=ORIENTED_EDGE('',*,*,#277,.T.) ;
#293=ORIENTED_EDGE('',*,*,#284,.F.) ;
#294=ORIENTED_EDGE('',*,*,#289,.F.) ;
#295=ORIENTED_EDGE('',*,*,#88,.T.) ;
#296=ORIENTED_EDGE('',*,*,#246,.T.) ;
#315=ORIENTED_EDGE('',*,*,#308,.T.) ;
#316=ORIENTED_EDGE('',*,*,#191,.F.) ;
#317=ORIENTED_EDGE('',*,*,#111,.T.) ;
#318=ORIENTED_EDGE('',*,*,#289,.T.) ;
#319=ORIENTED_EDGE('',*,*,#313,.F.) ;
#320=ORIENTED_EDGE('',*,*,#277,.F.) ;
#348=ORIENTED_EDGE('',*,*,#334,.F.) ;
#349=ORIENTED_EDGE('',*,*,#148,.F.) ;
#350=ORIENTED_EDGE('',*,*,#341,.T.) ;
#351=ORIENTED_EDGE('',*,*,#346,.T.) ;
#365=ORIENTED_EDGE('',*,*,#174,.F.) ;
#366=ORIENTED_EDGE('',*,*,#334,.T.) ;
#367=ORIENTED_EDGE('',*,*,#363,.T.) ;
#368=ORIENTED_EDGE('',*,*,#341,.F.) ;
#377=ORIENTED_EDGE('',*,*,#308,.F.) ;
#378=ORIENTED_EDGE('',*,*,#270,.F.) ;
#379=ORIENTED_EDGE('',*,*,#251,.T.) ;
#380=ORIENTED_EDGE('',*,*,#222,.F.) ;
#381=ORIENTED_EDGE('',*,*,#198,.F.) ;
#395=ORIENTED_EDGE('',*,*,#284,.T.) ;
#396=ORIENTED_EDGE('',*,*,#393,.T.) ;
#405=ORIENTED_EDGE('',*,*,#313,.T.) ;
#406=ORIENTED_EDGE('',*,*,#393,.F.) ;
#420=ORIENTED_EDGE('',*,*,#418,.F.) ;
#421=ORIENTED_EDGE('',*,*,#346,.F.) ;
#430=ORIENTED_EDGE('',*,*,#418,.T.) ;
#431=ORIENTED_EDGE('',*,*,#363,.F.) ;
#178=FACE_BOUND('',#175,.T.) ;
#35=CLOSED_SHELL('Closed Shell',(#179,#210,#234,#258,#298,#322,#353,#370,#383,#398,#408,#423,#433)) ;
#434=ADVANCED_BREP_SHAPE_REPRESENTATION('NONE',(#25),#20) ;
#179=ADVANCED_FACE('*VOL10',(#118,#178),#40,.T.) ;
#210=ADVANCED_FACE('*VOL10',(#209),#184,.F.) ;
#234=ADVANCED_FACE('*VOL10',(#233),#215,.F.) ;
#258=ADVANCED_FACE('*VOL10',(#257),#239,.T.) ;
#298=ADVANCED_FACE('*VOL10',(#297),#263,.T.) ;
#322=ADVANCED_FACE('*VOL10',(#321),#303,.T.) ;
#353=ADVANCED_FACE('*VOL10',(#352),#327,.F.) ;
#370=ADVANCED_FACE('*VOL10',(#369),#358,.F.) ;
#383=ADVANCED_FACE('*VOL10',(#382),#375,.F.) ;
#398=ADVANCED_FACE('*VOL10',(#397),#388,.T.) ;
#408=ADVANCED_FACE('*VOL10',(#407),#403,.T.) ;
#423=ADVANCED_FACE('*VOL10',(#422),#413,.F.) ;
#433=ADVANCED_FACE('*VOL10',(#432),#428,.F.) ;
#4=APPLICATION_PROTOCOL_DEFINITION('international standard','automotive_design',2001,#1) ;
#64=B_SPLINE_CURVE_WITH_KNOTS('',5,(#65,#66,#67,#68,#69,#70,#71,#72,#73,#74,#75,#76,#77,#78,#79,#80,#81,#82,#83,#84,#85),.UNSPECIFIED.,.F.,.U.,(6,3,3,3,3,3,6),(0.,7.95236745086,15.9047349194,23.8571023677,31.8094698012,39.7618372374,42.3683033906),.UNSPECIFIED.) ;
#89=B_SPLINE_CURVE_WITH_KNOTS('',5,(#90,#91,#92,#93,#94,#95,#96,#97,#98,#99,#100,#101,#102,#103,#104,#105,#106,#107,#108,#109,#110),.UNSPECIFIED.,.F.,.U.,(6,3,3,3,3,3,6),(0.,7.95236743132,15.9047348801,23.8571023297,31.8094697888,39.7618372636,42.3683033856),.UNSPECIFIED.) ;
#119=B_SPLINE_CURVE_WITH_KNOTS('',5,(#120,#121,#122,#123,#124,#125,#126,#127,#128,#129,#130,#131,#132,#133,#134,#135,#136,#137,#138,#139,#140,#141,#142,#143),.UNSPECIFIED.,.F.,.U.,(6,3,3,3,3,3,3,6),(0.,6.51204536762,13.024090744,19.5361361267,26.0481815317,32.5602269459,39.0722723485,41.7580348646),.UNSPECIFIED.) ;
#149=B_SPLINE_CURVE_WITH_KNOTS('',5,(#150,#151,#152,#153,#154,#155,#156,#157,#158,#159,#160,#161,#162,#163,#164,#165,#166,#167,#168,#169,#170,#171,#172,#173),.UNSPECIFIED.,.F.,.U.,(6,3,3,3,3,3,3,6),(0.,6.51204536797,13.0240907444,19.536136127,26.0481815321,32.5602269465,39.0722723493,41.7580348654),.UNSPECIFIED.) ;
#25=MANIFOLD_SOLID_BREP('*VOL10',#35) ;
#267=CIRCLE('generated circle',#266,0.393700787402) ;
#281=CIRCLE('generated circle',#280,0.393700787402) ;
#307=CIRCLE('generated circle',#306,0.393700787402) ;
#312=CIRCLE('generated circle',#311,0.393700787402) ;
#345=CIRCLE('generated circle',#344,0.354330708661) ;
#362=CIRCLE('generated circle',#361,0.354330708661) ;
#392=CIRCLE('generated circle',#391,0.393700787402) ;
#417=CIRCLE('generated circle',#416,0.354330708661) ;
#263=CYLINDRICAL_SURFACE('generated cylinder',#262,0.393700787402) ;
#303=CYLINDRICAL_SURFACE('generated cylinder',#302,0.393700787402) ;
#327=CYLINDRICAL_SURFACE('generated cylinder',#326,0.354330708661) ;
#358=CYLINDRICAL_SURFACE('generated cylinder',#357,0.354330708661) ;
#26=DRAUGHTING_PRE_DEFINED_COLOUR('yellow') ;
#49=EDGE_CURVE('',#46,#48,#44,.T.) ;
#56=EDGE_CURVE('',#48,#55,#53,.T.) ;
#63=EDGE_CURVE('',#62,#55,#60,.T.) ;
#88=EDGE_CURVE('',#87,#62,#64,.T.) ;
#111=EDGE_CURVE('',#46,#87,#89,.T.) ;
#148=EDGE_CURVE('',#145,#147,#119,.T.) ;
#174=EDGE_CURVE('',#147,#145,#149,.T.) ;
#191=EDGE_CURVE('',#46,#190,#188,.T.) ;
#198=EDGE_CURVE('',#190,#197,#195,.T.) ;
#203=EDGE_CURVE('',#48,#197,#202,.T.) ;
#222=EDGE_CURVE('',#197,#221,#219,.T.) ;
#227=EDGE_CURVE('',#55,#221,#226,.T.) ;
#246=EDGE_CURVE('',#62,#245,#243,.T.) ;
#251=EDGE_CURVE('',#245,#221,#250,.T.) ;
#270=EDGE_CURVE('',#245,#269,#267,.T.) ;
#277=EDGE_CURVE('',#269,#276,#274,.T.) ;
#284=EDGE_CURVE('',#283,#276,#281,.T.) ;
#289=EDGE_CURVE('',#87,#283,#288,.T.) ;
#308=EDGE_CURVE('',#269,#190,#307,.T.) ;
#313=EDGE_CURVE('',#276,#283,#312,.T.) ;
#334=EDGE_CURVE('',#147,#333,#331,.T.) ;
#341=EDGE_CURVE('',#145,#340,#338,.T.) ;
#346=EDGE_CURVE('',#340,#333,#345,.T.) ;
#363=EDGE_CURVE('',#333,#340,#362,.T.) ;
#393=EDGE_CURVE('',#276,#283,#392,.F.) ;
#418=EDGE_CURVE('',#333,#340,#417,.F.) ;
#112=EDGE_LOOP('',(#113,#114,#115,#116,#117)) ;
#175=EDGE_LOOP('',(#176,#177)) ;
#204=EDGE_LOOP('',(#205,#206,#207,#208)) ;
#228=EDGE_LOOP('',(#229,#230,#231,#232)) ;
#252=EDGE_LOOP('',(#253,#254,#255,#256)) ;
#290=EDGE_LOOP('',(#291,#292,#293,#294,#295,#296)) ;
#314=EDGE_LOOP('',(#315,#316,#317,#318,#319,#320)) ;
#347=EDGE_LOOP('',(#348,#349,#350,#351)) ;
#364=EDGE_LOOP('',(#365,#366,#367,#368)) ;
#376=EDGE_LOOP('',(#377,#378,#379,#380,#381)) ;
#394=EDGE_LOOP('',(#395,#396)) ;
#404=EDGE_LOOP('',(#405,#406)) ;
#419=EDGE_LOOP('',(#420,#421)) ;
#429=EDGE_LOOP('',(#430,#431)) ;
#118=FACE_OUTER_BOUND('',#112,.T.) ;
#209=FACE_OUTER_BOUND('',#204,.T.) ;
#233=FACE_OUTER_BOUND('',#228,.T.) ;
#257=FACE_OUTER_BOUND('',#252,.T.) ;
#297=FACE_OUTER_BOUND('',#290,.T.) ;
#321=FACE_OUTER_BOUND('',#314,.T.) ;
#352=FACE_OUTER_BOUND('',#347,.T.) ;
#369=FACE_OUTER_BOUND('',#364,.T.) ;
#382=FACE_OUTER_BOUND('',#376,.T.) ;
#397=FACE_OUTER_BOUND('',#394,.T.) ;
#407=FACE_OUTER_BOUND('',#404,.T.) ;
#422=FACE_OUTER_BOUND('',#419,.T.) ;
#432=FACE_OUTER_BOUND('',#429,.T.) ;
#16=LENGTH_MEASURE_WITH_UNIT(LENGTH_MEASURE(25.4),#12) ;
#44=LINE('Line',#41,#43) ;
#53=LINE('Line',#50,#52) ;
#60=LINE('Line',#57,#59) ;
#188=LINE('Line',#185,#187) ;
#195=LINE('Line',#192,#194) ;
#202=LINE('Line',#199,#201) ;
#219=LINE('Line',#216,#218) ;
#226=LINE('Line',#223,#225) ;
#243=LINE('Line',#240,#242) ;
#250=LINE('Line',#247,#249) ;
#274=LINE('Line',#271,#273) ;
#288=LINE('Line',#285,#287) ;
#331=LINE('Line',#328,#330) ;
#338=LINE('Line',#335,#337) ;
#40=PLANE('Plane',#39) ;
#184=PLANE('Plane',#183) ;
#215=PLANE('Plane',#214) ;
#239=PLANE('Plane',#238) ;
#375=PLANE('Plane',#374) ;
#14=PLANE_ANGLE_MEASURE_WITH_UNIT(PLANE_ANGLE_MEASURE(0.0174532925199),#13) ;
#9=PRODUCT_CATEGORY_RELATIONSHIP(' ',' ',#7,#8) ;
#6=PRODUCT_DEFINITION_FORMATION_WITH_SPECIFIED_SOURCE(' ',' ',#5,.NOT_KNOWN.) ;
#24=SHAPE_DEFINITION_REPRESENTATION(#11,#23) ;
#388=SPHERICAL_SURFACE('',#387,0.393700787402) ;
#403=SPHERICAL_SURFACE('',#402,0.393700787402) ;
#413=SPHERICAL_SURFACE('',#412,0.354330708661) ;
#428=SPHERICAL_SURFACE('',#427,0.354330708661) ;
#46=VERTEX_POINT('',#45) ;
#48=VERTEX_POINT('',#47) ;
#55=VERTEX_POINT('',#54) ;
#62=VERTEX_POINT('',#61) ;
#87=VERTEX_POINT('',#86) ;
#145=VERTEX_POINT('',#144) ;
#147=VERTEX_POINT('',#146) ;
#190=VERTEX_POINT('',#189) ;
#197=VERTEX_POINT('',#196) ;
#221=VERTEX_POINT('',#220) ;
#245=VERTEX_POINT('',#244) ;
#269=VERTEX_POINT('',#268) ;
#276=VERTEX_POINT('',#275) ;
#283=VERTEX_POINT('',#282) ;
#333=VERTEX_POINT('',#332) ;
#340=VERTEX_POINT('',#339) ;
#12=(LENGTH_UNIT()NAMED_UNIT(*)SI_UNIT(.MILLI.,.METRE.)) ;
#13=(NAMED_UNIT(*)PLANE_ANGLE_UNIT()SI_UNIT($,.RADIAN.)) ;
#15=(NAMED_UNIT(*)SI_UNIT($,.STERADIAN.)SOLID_ANGLE_UNIT()) ;
#18=(CONVERSION_BASED_UNIT('INCH',#16)LENGTH_UNIT()NAMED_UNIT(#17)) ;
#20=(GEOMETRIC_REPRESENTATION_CONTEXT(3)GLOBAL_UNCERTAINTY_ASSIGNED_CONTEXT((#19))GLOBAL_UNIT_ASSIGNED_CONTEXT((#18,#13,#15))REPRESENTATION_CONTEXT(' ',' ')) ;
ENDSEC;
END-ISO-10303-21;
