  0
SECTION
  2
HEADER
  9
$ACADVER
  1
AC1015
  9
$ACADMAINTVER
 70
     6
  9
$DWGCODEPAGE
  3
ASCII
  9
$INSBASE
 10
0.0
 20
0.0
 30
0.0
  9
$EXTMIN
 10
1.000000000000000E+20
 20
1.000000000000000E+20
 30
1.000000000000000E+20
  9
$EXTMAX
 10
-1.000000000000000E+20
 20
-1.000000000000000E+20
 30
-1.000000000000000E+20
  9
$LIMMIN
 10
0.0
 20
0.0
  9
$LIMMAX
 10
12.0
 20
9.0
  9
$ORTHOMODE
 70
     0
  9
$REGENMODE
 70
     1
  9
$FILLMODE
 70
     1
  9
$QTEXTMODE
 70
     0
  9
$MIRRTEXT
 70
     1
  9
$LTSCALE
 40
1.0
  9
$ATTMODE
 70
     1
  9
$TEXTSIZE
 40
0.2
  9
$TRACEWID
 40
0.05
  9
$TEXTSTYLE
  7
Standard
  9
$CLAYER
  8
0
  9
$CELTYPE
  6
ByLayer
  9
$CECOLOR
 62
   256
  9
$CELTSCALE
 40
1.0
  9
$DISPSILH
 70
     0
  9
$DIMSCALE
 40
1.0
  9
$DIMASZ
 40
0.18
  9
$DIMEXO
 40
0.0625
  9
$DIMDLI
 40
0.38
  9
$DIMRND
 40
0.0
  9
$DIMDLE
 40
0.0
  9
$DIMEXE
 40
0.18
  9
$DIMTP
 40
0.0
  9
$DIMTM
 40
0.0
  9
$DIMTXT
 40
0.18
  9
$DIMCEN
 40
0.09
  9
$DIMTSZ
 40
0.0
  9
$DIMTOL
 70
     0
  9
$DIMLIM
 70
     0
  9
$DIMTIH
 70
     1
  9
$DIMTOH
 70
     1
  9
$DIMSE1
 70
     0
  9
$DIMSE2
 70
     0
  9
$DIMTAD
 70
     0
  9
$DIMZIN
 70
     0
  9
$DIMBLK
  1

  9
$DIMASO
 70
     1
  9
$DIMSHO
 70
     1
  9
$DIMPOST
  1

  9
$DIMAPOST
  1

  9
$DIMALT
 70
     0
  9
$DIMALTD
 70
     2
  9
$DIMALTF
 40
25.4
  9
$DIMLFAC
 40
1.0
  9
$DIMTOFL
 70
     0
  9
$DIMTVP
 40
0.0
  9
$DIMTIX
 70
     0
  9
$DIMSOXD
 70
     0
  9
$DIMSAH
 70
     0
  9
$DIMBLK1
  1

  9
$DIMBLK2
  1

  9
$DIMSTYLE
  2
Standard
  9
$DIMCLRD
 70
     0
  9
$DIMCLRE
 70
     0
  9
$DIMCLRT
 70
     0
  9
$DIMTFAC
 40
1.0
  9
$DIMGAP
 40
0.09
  9
$DIMJUST
 70
     0
  9
$DIMSD1
 70
     0
  9
$DIMSD2
 70
     0
  9
$DIMTOLJ
 70
     1
  9
$DIMTZIN
 70
     0
  9
$DIMALTZ
 70
     0
  9
$DIMALTTZ
 70
     0
  9
$DIMUPT
 70
     0
  9
$DIMDEC
 70
     4
  9
$DIMTDEC
 70
     4
  9
$DIMALTU
 70
     2
  9
$DIMALTTD
 70
     2
  9
$DIMTXSTY
  7
Standard
  9
$DIMAUNIT
 70
     0
  9
$DIMADEC
 70
     0
  9
$DIMALTRND
 40
0.0
  9
$DIMAZIN
 70
     0
  9
$DIMDSEP
 70
    46
  9
$DIMATFIT
 70
     3
  9
$DIMFRAC
 70
     0
  9
$DIMLDRBLK
  1

  9
$DIMLUNIT
 70
     2
  9
$DIMLWD
 70
    -2
  9
$DIMLWE
 70
    -2
  9
$DIMTMOVE
 70
     0
  9
$LUNITS
 70
     2
  9
$LUPREC
 70
     4
  9
$SKETCHINC
 40
0.1
  9
$FILLETRAD
 40
0.5
  9
$AUNITS
 70
     0
  9
$AUPREC
 70
     0
  9
$MENU
  1
.
  9
$ELEVATION
 40
0.0
  9
$PELEVATION
 40
0.0
  9
$THICKNESS
 40
0.0
  9
$LIMCHECK
 70
     0
  9
$CHAMFERA
 40
0.5
  9
$CHAMFERB
 40
0.5
  9
$CHAMFERC
 40
1.0
  9
$CHAMFERD
 40
0.0
  9
$SKPOLY
 70
     0
  9
$TDCREATE
 40
2455383.863275463
  9
$TDUCREATE
 40
2455384.196608796
  9
$TDUPDATE
 40
2455383.863275474
  9
$TDUUPDATE
 40
2455384.196608808
  9
$TDINDWG
 40
0.0000000116
  9
$TDUSRTIMER
 40
0.0000000116
  9
$USRTIMER
 70
     1
  9
$ANGBASE
 50
0.0
  9
$ANGDIR
 70
     0
  9
$PDMODE
 70
     0
  9
$PDSIZE
 40
0.0
  9
$PLINEWID
 40
0.0
  9
$SPLFRAME
 70
     0
  9
$SPLINETYPE
 70
     6
  9
$SPLINESEGS
 70
     8
  9
$HANDSEED
  5
116
  9
$SURFTAB1
 70
     6
  9
$SURFTAB2
 70
     6
  9
$SURFTYPE
 70
     6
  9
$SURFU
 70
     6
  9
$SURFV
 70
     6
  9
$UCSBASE
  2

  9
$UCSNAME
  2

  9
$UCSORG
 10
0.0
 20
0.0
 30
0.0
  9
$UCSXDIR
 10
1.0
 20
0.0
 30
0.0
  9
$UCSYDIR
 10
0.0
 20
1.0
 30
0.0
  9
$UCSORTHOREF
  2

  9
$UCSORTHOVIEW
 70
     0
  9
$UCSORGTOP
 10
0.0
 20
0.0
 30
0.0
  9
$UCSORGBOTTOM
 10
0.0
 20
0.0
 30
0.0
  9
$UCSORGLEFT
 10
0.0
 20
0.0
 30
0.0
  9
$UCSORGRIGHT
 10
0.0
 20
0.0
 30
0.0
  9
$UCSORGFRONT
 10
0.0
 20
0.0
 30
0.0
  9
$UCSORGBACK
 10
0.0
 20
0.0
 30
0.0
  9
$PUCSBASE
  2

  9
$PUCSNAME
  2

  9
$PUCSORG
 10
0.0
 20
0.0
 30
0.0
  9
$PUCSXDIR
 10
1.0
 20
0.0
 30
0.0
  9
$PUCSYDIR
 10
0.0
 20
1.0
 30
0.0
  9
$PUCSORTHOREF
  2

  9
$PUCSORTHOVIEW
 70
     0
  9
$PUCSORGTOP
 10
0.0
 20
0.0
 30
0.0
  9
$PUCSORGBOTTOM
 10
0.0
 20
0.0
 30
0.0
  9
$PUCSORGLEFT
 10
0.0
 20
0.0
 30
0.0
  9
$PUCSORGRIGHT
 10
0.0
 20
0.0
 30
0.0
  9
$PUCSORGFRONT
 10
0.0
 20
0.0
 30
0.0
  9
$PUCSORGBACK
 10
0.0
 20
0.0
 30
0.0
  9
$USERI1
 70
     0
  9
$USERI2
 70
     0
  9
$USERI3
 70
     0
  9
$USERI4
 70
     0
  9
$USERI5
 70
     0
  9
$USERR1
 40
0.0
  9
$USERR2
 40
0.0
  9
$USERR3
 40
0.0
  9
$USERR4
 40
0.0
  9
$USERR5
 40
0.0
  9
$WORLDVIEW
 70
     1
  9
$SHADEDGE
 70
     3
  9
$SHADEDIF
 70
    70
  9
$TILEMODE
 70
     1
  9
$MAXACTVP
 70
    64
  9
$PINSBASE
 10
0.0
 20
0.0
 30
0.0
  9
$PLIMCHECK
 70
     0
  9
$PEXTMIN
 10
1.000000000000000E+20
 20
1.000000000000000E+20
 30
1.000000000000000E+20
  9
$PEXTMAX
 10
-1.000000000000000E+20
 20
-1.000000000000000E+20
 30
-1.000000000000000E+20
  9
$PLIMMIN
 10
0.0
 20
0.0
  9
$PLIMMAX
 10
12.0
 20
9.0
  9
$UNITMODE
 70
     0
  9
$VISRETAIN
 70
     1
  9
$PLINEGEN
 70
     0
  9
$PSLTSCALE
 70
     1
  9
$TREEDEPTH
 70
  3020
  9
$CMLSTYLE
  2
Standard
  9
$CMLJUST
 70
     0
  9
$CMLSCALE
 40
1.0
  9
$PROXYGRAPHICS
 70
     1
  9
$MEASUREMENT
 70
     0
  9
$CELWEIGHT
370
    -1
  9
$ENDCAPS
280
     0
  9
$JOINSTYLE
280
     0
  9
$LWDISPLAY
290
     1
  9
$INSUNITS
 70
     1
  9
$HYPERLINKBASE
  1

  9
$STYLESHEET
  1

  9
$XEDIT
290
     1
  9
$CEPSNTYPE
380
     0
  9
$PSTYLEMODE
290
     1
  9
$FINGERPRINTGUID
  2
{B43CB228-6FF6-85FB-82FF-DBC40B06641A}
  9
$VERSIONGUID
  2
{FAEB1C32-E019-11D5-929B-00C0DF256EC4}
  9
$EXTNAMES
290
     1
  9
$PSVPSCALE
 40
0.0
  9
$OLESTARTUP
290
     0
  0
ENDSEC
  0
SECTION
  2
CLASSES
  0
CLASS
  1
ACDBDICTIONARYWDFLT
  2
AcDbDictionaryWithDefault
  3
ObjectDBX Classes
 90
        0
280
     0
281
     0
  0
CLASS
  1
VISUALSTYLE
  2
AcDbVisualStyle
  3
ObjectDBX Classes
 90
     4095
280
     0
281
     0
  0
CLASS
  1
ACDBPLACEHOLDER
  2
AcDbPlaceHolder
  3
ObjectDBX Classes
 90
        0
280
     0
281
     0
  0
CLASS
  1
LAYOUT
  2
AcDbLayout
  3
ObjectDBX Classes
 90
        0
280
     0
281
     0
  0
ENDSEC
  0
SECTION
  2
TABLES
  0
TABLE
  2
VPORT
  5
8
330
0
100
AcDbSymbolTable
 70
     1
  0
VPORT
  5
29
330
8
100
AcDbSymbolTableRecord
100
AcDbViewportTableRecord
  2
*Active
 70
     0
 10
0.0
 20
0.0
 11
1.0
 21
1.0
 12
0.0
 22
0.0
 13
0.0
 23
0.0
 14
0.5
 24
0.5
 15
0.5
 25
0.5
 16
0.0
 26
0.0
 36
1.0
 17
7.750008501542065
 27
7.379938541789681
 37
0.0
 40
10.44105465547778
 41
1.367688767840616
 42
50.0
 43
0.0
 44
0.0
 50
0.0
 51
0.0
 71
     0
 72
   100
 73
     1
 74
     3
 75
     0
 76
     0
 77
     0
 78
     0
281
     0
 65
     1
110
0.0
120
0.0
130
0.0
111
1.0
121
0.0
131
0.0
112
0.0
122
1.0
132
0.0
 79
     0
146
0.0
  0
ENDTAB
  0
TABLE
  2
LTYPE
  5
5
330
0
100
AcDbSymbolTable
 70
     1
  0
LTYPE
  5
14
330
5
100
AcDbSymbolTableRecord
100
AcDbLinetypeTableRecord
  2
ByBlock
 70
     0
  3

 72
    65
 73
     0
 40
0.0
  0
LTYPE
  5
15
330
5
100
AcDbSymbolTableRecord
100
AcDbLinetypeTableRecord
  2
ByLayer
 70
     0
  3

 72
    65
 73
     0
 40
0.0
  0
LTYPE
  5
16
330
5
100
AcDbSymbolTableRecord
100
AcDbLinetypeTableRecord
  2
Continuous
 70
     0
  3
Solid line
 72
    65
 73
     0
 40
0.0
  0
ENDTAB
  0
TABLE
  2
LAYER
  5
2
330
0
100
AcDbSymbolTable
 70
     5
  0
LAYER
  5
10
330
2
100
AcDbSymbolTableRecord
100
AcDbLayerTableRecord
  2
0
 70
     0
 62
     7
  6
Continuous
370
    -3
390
F
  0
LAYER
  5
3B
330
2
100
AcDbSymbolTableRecord
100
AcDbLayerTableRecord
  2
slide table
 70
     0
 62
     7
  6
Continuous
370
    -3
390
F
  0
LAYER
  5
AE
330
2
100
AcDbSymbolTableRecord
100
AcDbLayerTableRecord
  2
camera mount 2
 70
     0
 62
     7
  6
Continuous
370
    -3
390
F
  0
LAYER
  5
B3
330
2
100
AcDbSymbolTableRecord
100
AcDbLayerTableRecord
  2
camera mount
 70
     0
 62
     7
  6
Continuous
370
    -3
390
F
  0
LAYER
  5
B8
330
2
100
AcDbSymbolTableRecord
100
AcDbLayerTableRecord
  2
servo mounts
 70
     0
 62
     7
  6
Continuous
370
    -3
390
F
  0
ENDTAB
  0
TABLE
  2
STYLE
  5
3
330
0
100
AcDbSymbolTable
 70
     1
  0
STYLE
  5
11
330
3
100
AcDbSymbolTableRecord
100
AcDbTextStyleTableRecord
  2
Standard
 70
     0
 40
0.0
 41
1.0
 50
0.0
 71
     0
 42
0.2
  3
txt
  4

  0
ENDTAB
  0
TABLE
  2
VIEW
  5
6
330
0
100
AcDbSymbolTable
 70
     0
  0
ENDTAB
  0
TABLE
  2
UCS
  5
7
330
0
100
AcDbSymbolTable
 70
     0
  0
ENDTAB
  0
TABLE
  2
APPID
  5
9
330
0
100
AcDbSymbolTable
 70
     1
  0
APPID
  5
12
330
9
100
AcDbSymbolTableRecord
100
AcDbRegAppTableRecord
  2
ACAD
 70
     0
  0
ENDTAB
  0
TABLE
  2
DIMSTYLE
  5
A
330
0
100
AcDbSymbolTable
 70
     1
100
AcDbDimStyleTable
  0
DIMSTYLE
105
27
330
A
100
AcDbSymbolTableRecord
100
AcDbDimStyleTableRecord
  2
Standard
 70
     0
340
11
  0
ENDTAB
  0
TABLE
  2
BLOCK_RECORD
  5
1
330
0
100
AcDbSymbolTable
 70
    11
  0
BLOCK_RECORD
  5
1F
330
1
100
AcDbSymbolTableRecord
100
AcDbBlockTableRecord
  2
*Model_Space
340
22
  0
BLOCK_RECORD
  5
1B
330
1
100
AcDbSymbolTableRecord
100
AcDbBlockTableRecord
  2
*Paper_Space
340
1E
  0
BLOCK_RECORD
  5
23
330
1
100
AcDbSymbolTableRecord
100
AcDbBlockTableRecord
  2
*Paper_Space0
340
26
  0
BLOCK_RECORD
  5
46
330
1
100
AcDbSymbolTableRecord
100
AcDbBlockTableRecord
  2
block 2
340
0
102
{BLKREFS
331
47
102
}
  0
BLOCK_RECORD
  5
4E
330
1
100
AcDbSymbolTableRecord
100
AcDbBlockTableRecord
  2
block 3
340
0
102
{BLKREFS
331
4F
102
}
  0
BLOCK_RECORD
  5
54
330
1
100
AcDbSymbolTableRecord
100
AcDbBlockTableRecord
  2
block 4
340
0
102
{BLKREFS
331
55
102
}
  0
BLOCK_RECORD
  5
5C
330
1
100
AcDbSymbolTableRecord
100
AcDbBlockTableRecord
  2
block 5
340
0
102
{BLKREFS
331
5D
102
}
  0
BLOCK_RECORD
  5
60
330
1
100
AcDbSymbolTableRecord
100
AcDbBlockTableRecord
  2
block 6
340
0
102
{BLKREFS
331
61
102
}
  0
BLOCK_RECORD
  5
87
330
1
100
AcDbSymbolTableRecord
100
AcDbBlockTableRecord
  2
block 7
340
0
102
{BLKREFS
331
88
102
}
  0
BLOCK_RECORD
  5
B9
330
1
100
AcDbSymbolTableRecord
100
AcDbBlockTableRecord
  2
block 8
340
0
102
{BLKREFS
331
BA
102
}
  0
BLOCK_RECORD
  5
D5
330
1
100
AcDbSymbolTableRecord
100
AcDbBlockTableRecord
  2
block 9
340
0
102
{BLKREFS
331
D6
102
}
  0
BLOCK_RECORD
  5
D9
330
1
100
AcDbSymbolTableRecord
100
AcDbBlockTableRecord
  2
block 10
340
0
102
{BLKREFS
331
DA
102
}
  0
BLOCK_RECORD
  5
ED
330
1
100
AcDbSymbolTableRecord
100
AcDbBlockTableRecord
  2
block 11
340
0
102
{BLKREFS
331
EE
102
}
  0
ENDTAB
  0
ENDSEC
  0
SECTION
  2
BLOCKS
  0
BLOCK
  5
20
330
1F
100
AcDbEntity
  8
0
100
AcDbBlockBegin
  2
*Model_Space
 70
     0
 71
     0
 10
0.0
 20
0.0
 30
0.0
  3
*Model_Space
  1

  0
ENDBLK
  5
21
330
1F
100
AcDbEntity
  8
0
100
AcDbBlockEnd
  0
BLOCK
  5
1C
330
1B
100
AcDbEntity
 67
     1
  8
0
100
AcDbBlockBegin
  2
*Paper_Space
 70
     0
 71
     0
 10
0.0
 20
0.0
 30
0.0
  3
*Paper_Space
  1

  0
ENDBLK
  5
1D
330
1B
100
AcDbEntity
 67
     1
  8
0
100
AcDbBlockEnd
  0
BLOCK
  5
24
330
23
100
AcDbEntity
  8
0
100
AcDbBlockBegin
  2
*Paper_Space0
 70
     0
 71
     0
 10
0.0
 20
0.0
 30
0.0
  3
*Paper_Space0
  1

  0
ENDBLK
  5
25
330
23
100
AcDbEntity
  8
0
100
AcDbBlockEnd
  0
BLOCK
  5
48
330
46
100
AcDbEntity
  8
0
100
AcDbBlockBegin
  2
block 2
 70
     0
 71
     0
 10
0.0
 20
0.0
 30
0.0
  3
block 2
  1

  0
SPLINE
  5
4A
330
46
100
AcDbEntity
  8
slide table
370
     0
100
AcDbSpline
210
0.0
220
0.0
230
1.0
 70
    11
 71
     3
 72
    17
 73
    13
 74
     0
 42
0.0000000001
 43
0.0000000001
 40
0.0
 40
0.0
 40
0.0
 40
0.0
 40
1.0
 40
1.0
 40
1.0
 40
2.0
 40
2.0
 40
2.0
 40
3.0
 40
3.0
 40
3.0
 40
4.0
 40
4.0
 40
4.0
 40
4.0
 10
1.045858437081369
 20
12.30473630439416
 30
0.0
 10
1.112942899722623
 20
12.30473630439416
 30
0.0
 10
1.167318478115019
 20
12.25034716262477
 30
0.0
 10
1.167318478115019
 20
12.18327626336051
 30
0.0
 10
1.167318478115019
 20
12.11620536409626
 30
0.0
 10
1.112942899722623
 20
12.06182978570387
 30
0.0
 10
1.045858437081369
 20
12.06182978570387
 30
0.0
 10
0.9788011011941151
 20
12.06182978570387
 30
0.0
 10
0.92441195942472
 20
12.11620536409626
 30
0.0
 10
0.92441195942472
 20
12.18327626336051
 30
0.0
 10
0.92441195942472
 20
12.25034716262477
 30
0.0
 10
0.9788011011941151
 20
12.30473630439416
 30
0.0
 10
1.045858437081369
 20
12.30473630439416
 30
0.0
  0
SPLINE
  5
4B
330
46
100
AcDbEntity
  8
slide table
370
     0
100
AcDbSpline
210
0.0
220
0.0
230
1.0
 70
    11
 71
     3
 72
    17
 73
    13
 74
     0
 42
0.0000000001
 43
0.0000000001
 40
0.0
 40
0.0
 40
0.0
 40
0.0
 40
1.0
 40
1.0
 40
1.0
 40
2.0
 40
2.0
 40
2.0
 40
3.0
 40
3.0
 40
3.0
 40
4.0
 40
4.0
 40
4.0
 40
4.0
 10
6.795862228889426
 20
2.754721868669366
 30
0.0
 10
6.86294669153068
 20
2.754721868669366
 30
0.0
 10
6.917322269923075
 20
2.70035985365397
 30
0.0
 10
6.917322269923075
 20
2.633275391012716
 30
0.0
 10
6.917322269923075
 20
2.566204491748462
 30
0.0
 10
6.86294669153068
 20
2.511828913356067
 30
0.0
 10
6.795862228889426
 20
2.511828913356067
 30
0.0
 10
6.728804893002172
 20
2.511828913356067
 30
0.0
 10
6.674415751232776
 20
2.566204491748462
 30
0.0
 10
6.674415751232776
 20
2.633275391012716
 30
0.0
 10
6.674415751232776
 20
2.70035985365397
 30
0.0
 10
6.728804893002172
 20
2.754721868669366
 30
0.0
 10
6.795862228889426
 20
2.754721868669366
 30
0.0
  0
SPLINE
  5
4C
330
46
100
AcDbEntity
  8
slide table
370
     0
100
AcDbSpline
210
0.0
220
0.0
230
1.0
 70
    11
 71
     3
 72
    17
 73
    13
 74
     0
 42
0.0000000001
 43
0.0000000001
 40
0.0
 40
0.0
 40
0.0
 40
0.0
 40
1.0
 40
1.0
 40
1.0
 40
2.0
 40
2.0
 40
2.0
 40
3.0
 40
3.0
 40
3.0
 40
4.0
 40
4.0
 40
4.0
 40
4.0
 10
6.795862228889426
 20
12.30473630439416
 30
0.0
 10
6.86294669153068
 20
12.30473630439416
 30
0.0
 10
6.917322269923075
 20
12.25034716262477
 30
0.0
 10
6.917322269923075
 20
12.18327626336051
 30
0.0
 10
6.917322269923075
 20
12.11620536409626
 30
0.0
 10
6.86294669153068
 20
12.06182978570387
 30
0.0
 10
6.795862228889426
 20
12.06182978570387
 30
0.0
 10
6.728804893002172
 20
12.06182978570387
 30
0.0
 10
6.674415751232776
 20
12.11620536409626
 30
0.0
 10
6.674415751232776
 20
12.18327626336051
 30
0.0
 10
6.674415751232776
 20
12.25034716262477
 30
0.0
 10
6.728804893002172
 20
12.30473630439416
 30
0.0
 10
6.795862228889426
 20
12.30473630439416
 30
0.0
  0
SPLINE
  5
4D
330
46
100
AcDbEntity
  8
slide table
370
     0
100
AcDbSpline
210
0.0
220
0.0
230
1.0
 70
    11
 71
     3
 72
    17
 73
    13
 74
     0
 42
0.0000000001
 43
0.0000000001
 40
0.0
 40
0.0
 40
0.0
 40
0.0
 40
1.0
 40
1.0
 40
1.0
 40
2.0
 40
2.0
 40
2.0
 40
3.0
 40
3.0
 40
3.0
 40
4.0
 40
4.0
 40
4.0
 40
4.0
 10
1.045858437081369
 20
2.754721868669366
 30
0.0
 10
1.112942899722623
 20
2.754721868669366
 30
0.0
 10
1.167318478115019
 20
2.700346290276971
 30
0.0
 10
1.167318478115019
 20
2.633275391012716
 30
0.0
 10
1.167318478115019
 20
2.566204491748462
 30
0.0
 10
1.112942899722623
 20
2.511828913356067
 30
0.0
 10
1.045858437081369
 20
2.511828913356067
 30
0.0
 10
0.9788011011941151
 20
2.511828913356067
 30
0.0
 10
0.92441195942472
 20
2.566204491748462
 30
0.0
 10
0.92441195942472
 20
2.633275391012716
 30
0.0
 10
0.92441195942472
 20
2.700346290276971
 30
0.0
 10
0.9788011011941151
 20
2.754721868669366
 30
0.0
 10
1.045858437081369
 20
2.754721868669366
 30
0.0
  0
ENDBLK
  5
49
330
46
100
AcDbEntity
  8
0
100
AcDbBlockEnd
  0
BLOCK
  5
50
330
4E
100
AcDbEntity
  8
0
100
AcDbBlockBegin
  2
block 3
 70
     0
 71
     0
 10
0.0
 20
0.0
 30
0.0
  3
block 3
  1

  0
SPLINE
  5
52
330
4E
100
AcDbEntity
  8
slide table
370
     0
100
AcDbSpline
210
0.0
220
0.0
230
1.0
 70
    11
 71
     3
 72
    17
 73
    13
 74
     0
 42
0.0000000001
 43
0.0000000001
 40
0.0
 40
0.0
 40
0.0
 40
0.0
 40
1.0
 40
1.0
 40
1.0
 40
2.0
 40
2.0
 40
2.0
 40
3.0
 40
3.0
 40
3.0
 40
4.0
 40
4.0
 40
4.0
 40
4.0
 10
6.768613404496729
 20
9.427198056991164
 30
0.0
 10
6.835684303760983
 20
9.427198056991164
 30
0.0
 10
6.890073445530378
 20
9.372836041975768
 30
0.0
 10
6.890073445530378
 20
9.305751579334515
 30
0.0
 10
6.890073445530378
 20
9.23866711669326
 30
0.0
 10
6.835684303760983
 20
9.184305101677865
 30
0.0
 10
6.768613404496729
 20
9.184305101677865
 30
0.0
 10
6.701528941855475
 20
9.184305101677865
 30
0.0
 10
6.64716692684008
 20
9.23866711669326
 30
0.0
 10
6.64716692684008
 20
9.305751579334515
 30
0.0
 10
6.64716692684008
 20
9.372836041975768
 30
0.0
 10
6.701528941855475
 20
9.427198056991164
 30
0.0
 10
6.768613404496729
 20
9.427198056991164
 30
0.0
  0
SPLINE
  5
53
330
4E
100
AcDbEntity
  8
slide table
370
     0
100
AcDbSpline
210
0.0
220
0.0
230
1.0
 70
    11
 71
     3
 72
    17
 73
    13
 74
     0
 42
0.0000000001
 43
0.0000000001
 40
0.0
 40
0.0
 40
0.0
 40
0.0
 40
1.0
 40
1.0
 40
1.0
 40
2.0
 40
2.0
 40
2.0
 40
3.0
 40
3.0
 40
3.0
 40
4.0
 40
4.0
 40
4.0
 40
4.0
 10
1.0970330585018
 20
9.425163550441187
 30
0.0
 10
1.163751309964058
 20
9.425163550441187
 30
0.0
 10
1.217842057439457
 20
9.371086366342787
 30
0.0
 10
1.217842057439457
 20
9.30438167825753
 30
0.0
 10
1.217842057439457
 20
9.237649863418271
 30
0.0
 10
1.163751309964058
 20
9.183572679319873
 30
0.0
 10
1.0970330585018
 20
9.183572679319873
 30
0.0
 10
1.030314807039542
 20
9.183572679319873
 30
0.0
 10
0.9762240595641438
 20
9.237649863418271
 30
0.0
 10
0.9762240595641438
 20
9.30438167825753
 30
0.0
 10
0.9762240595641438
 20
9.371086366342787
 30
0.0
 10
1.030314807039542
 20
9.425163550441187
 30
0.0
 10
1.0970330585018
 20
9.425163550441187
 30
0.0
  0
ENDBLK
  5
51
330
4E
100
AcDbEntity
  8
0
100
AcDbBlockEnd
  0
BLOCK
  5
56
330
54
100
AcDbEntity
  8
0
100
AcDbBlockBegin
  2
block 4
 70
     0
 71
     0
 10
0.0
 20
0.0
 30
0.0
  3
block 4
  1

  0
SPLINE
  5
58
330
54
100
AcDbEntity
  8
slide table
370
     0
100
AcDbSpline
210
0.0
220
0.0
230
1.0
 70
    11
 71
     3
 72
    17
 73
    13
 74
     0
 42
0.0000000001
 43
0.0000000001
 40
0.0
 40
0.0
 40
0.0
 40
0.0
 40
1.0
 40
1.0
 40
1.0
 40
2.0
 40
2.0
 40
2.0
 40
3.0
 40
3.0
 40
3.0
 40
4.0
 40
4.0
 40
4.0
 40
4.0
 10
5.316925164202873
 20
5.636830974121315
 30
0.0
 10
5.316925164202873
 20
5.599287546585733
 30
0.0
 10
5.286502509592211
 20
5.56891914548307
 30
0.0
 10
5.248972645433629
 20
5.56891914548307
 30
0.0
 10
5.211497034783045
 20
5.56891914548307
 30
0.0
 10
5.181074380172383
 20
5.599287546585733
 30
0.0
 10
5.181074380172383
 20
5.636830974121315
 30
0.0
 10
5.181074380172383
 20
5.674306584771898
 30
0.0
 10
5.211497034783045
 20
5.70472923938256
 30
0.0
 10
5.248972645433629
 20
5.70472923938256
 30
0.0
 10
5.286502509592211
 20
5.70472923938256
 30
0.0
 10
5.316925164202873
 20
5.674306584771898
 30
0.0
 10
5.316925164202873
 20
5.636830974121315
 30
0.0
  0
SPLINE
  5
59
330
54
100
AcDbEntity
  8
slide table
370
     0
100
AcDbSpline
210
0.0
220
0.0
230
1.0
 70
    11
 71
     3
 72
    17
 73
    13
 74
     0
 42
0.0000000001
 43
0.0000000001
 40
0.0
 40
0.0
 40
0.0
 40
0.0
 40
1.0
 40
1.0
 40
1.0
 40
2.0
 40
2.0
 40
2.0
 40
3.0
 40
3.0
 40
3.0
 40
4.0
 40
4.0
 40
4.0
 40
4.0
 10
5.316925164202873
 20
9.573791035605534
 30
0.0
 10
5.316925164202873
 20
9.53632898833195
 30
0.0
 10
5.286556763100211
 20
9.505919897098288
 30
0.0
 10
5.249026898941628
 20
9.505919897098288
 30
0.0
 10
5.211510598160045
 20
9.505919897098288
 30
0.0
 10
5.181128633680383
 20
9.53632898833195
 30
0.0
 10
5.181128633680383
 20
9.573791035605534
 30
0.0
 10
5.181128633680383
 20
9.611320899764117
 30
0.0
 10
5.211510598160045
 20
9.641743554374779
 30
0.0
 10
5.249026898941628
 20
9.641743554374779
 30
0.0
 10
5.286556763100211
 20
9.641743554374779
 30
0.0
 10
5.316925164202873
 20
9.611320899764117
 30
0.0
 10
5.316925164202873
 20
9.573791035605534
 30
0.0
  0
SPLINE
  5
5A
330
54
100
AcDbEntity
  8
slide table
370
     0
100
AcDbSpline
210
0.0
220
0.0
230
1.0
 70
    11
 71
     3
 72
    17
 73
    13
 74
     0
 42
0.0000000001
 43
0.0000000001
 40
0.0
 40
0.0
 40
0.0
 40
0.0
 40
1.0
 40
1.0
 40
1.0
 40
2.0
 40
2.0
 40
2.0
 40
3.0
 40
3.0
 40
3.0
 40
4.0
 40
4.0
 40
4.0
 40
4.0
 10
5.120079873804062
 20
4.258846124444639
 30
0.0
 10
5.120079873804062
 20
4.221356950417056
 30
0.0
 10
5.0896843459474
 20
4.190961422560394
 30
0.0
 10
5.052168045165817
 20
4.190961422560394
 30
0.0
 10
5.014665307761234
 20
4.190961422560394
 30
0.0
 10
4.984269779904572
 20
4.221356950417056
 30
0.0
 10
4.984269779904572
 20
4.258846124444639
 30
0.0
 10
4.984269779904572
 20
4.296348861849222
 30
0.0
 10
5.014665307761234
 20
4.326771516459884
 30
0.0
 10
5.052168045165817
 20
4.326771516459884
 30
0.0
 10
5.0896843459474
 20
4.326771516459884
 30
0.0
 10
5.120079873804062
 20
4.296348861849222
 30
0.0
 10
5.120079873804062
 20
4.258846124444639
 30
0.0
  0
SPLINE
  5
5B
330
54
100
AcDbEntity
  8
slide table
370
     0
100
AcDbSpline
210
0.0
220
0.0
230
1.0
 70
    11
 71
     3
 72
    17
 73
    13
 74
     0
 42
0.0000000001
 43
0.0000000001
 40
0.0
 40
0.0
 40
0.0
 40
0.0
 40
1.0
 40
1.0
 40
1.0
 40
2.0
 40
2.0
 40
2.0
 40
3.0
 40
3.0
 40
3.0
 40
4.0
 40
4.0
 40
4.0
 40
4.0
 10
1.183065558811843
 20
4.258846124444639
 30
0.0
 10
1.183065558811843
 20
4.221343387040056
 30
0.0
 10
1.152670030955182
 20
4.190961422560394
 30
0.0
 10
1.115153730173599
 20
4.190961422560394
 30
0.0
 10
1.077650992769016
 20
4.190961422560394
 30
0.0
 10
1.047255464912354
 20
4.221343387040056
 30
0.0
 10
1.047255464912354
 20
4.258846124444639
 30
0.0
 10
1.047255464912354
 20
4.296348861849222
 30
0.0
 10
1.077650992769016
 20
4.326757953082883
 30
0.0
 10
1.115153730173599
 20
4.326757953082883
 30
0.0
 10
1.152670030955182
 20
4.326757953082883
 30
0.0
 10
1.183065558811843
 20
4.296348861849222
 30
0.0
 10
1.183065558811843
 20
4.258846124444639
 30
0.0
  0
ENDBLK
  5
57
330
54
100
AcDbEntity
  8
0
100
AcDbBlockEnd
  0
BLOCK
  5
5E
330
5C
100
AcDbEntity
  8
0
100
AcDbBlockBegin
  2
block 5
 70
     0
 71
     0
 10
0.0
 20
0.0
 30
0.0
  3
block 5
  1

  0
INSERT
  5
61
330
5C
100
AcDbEntity
  8
slide table
100
AcDbBlockReference
  2
block 6
 10
0.0
 20
0.0
 30
0.0
  0
INSERT
  5
88
330
5C
100
AcDbEntity
  8
slide table
100
AcDbBlockReference
  2
block 7
 10
0.0
 20
0.0
 30
0.0
  0
ENDBLK
  5
5F
330
5C
100
AcDbEntity
  8
0
100
AcDbBlockEnd
  0
BLOCK
  5
62
330
60
100
AcDbEntity
  8
0
100
AcDbBlockBegin
  2
block 6
 70
     0
 71
     0
 10
0.0
 20
0.0
 30
0.0
  3
block 6
  1

  0
POLYLINE
  5
64
330
60
100
AcDbEntity
  8
slide table
370
     0
100
AcDb2dPolyline
 66
     1
 10
0.0
 20
0.0
 30
0.0
  0
VERTEX
  5
65
330
64
100
AcDbEntity
  8
slide table
370
     0
100
AcDbVertex
100
AcDb2dVertex
 10
6.108972127486065
 20
2.622031351479841
 30
0.0
  0
VERTEX
  5
66
330
64
100
AcDbEntity
  8
slide table
370
     0
100
AcDbVertex
100
AcDb2dVertex
 10
6.108972127486065
 20
2.511828913356067
 30
0.0
  0
VERTEX
  5
67
330
64
100
AcDbEntity
  8
slide table
370
     0
100
AcDbVertex
100
AcDb2dVertex
 10
5.608971797763625
 20
2.511828913356067
 30
0.0
  0
VERTEX
  5
68
330
64
100
AcDbEntity
  8
slide table
370
     0
100
AcDbVertex
100
AcDb2dVertex
 10
5.608971797763625
 20
2.622031351479841
 30
0.0
  0
VERTEX
  5
69
330
64
100
AcDbEntity
  8
slide table
370
     0
100
AcDbVertex
100
AcDb2dVertex
 10
6.108972127486065
 20
2.622031351479841
 30
0.0
  0
SEQEND
  5
6A
330
64
100
AcDbEntity
  8
slide table
370
     0
  0
POLYLINE
  5
6B
330
60
100
AcDbEntity
  8
slide table
370
     0
100
AcDb2dPolyline
 66
     1
 10
0.0
 20
0.0
 30
0.0
  0
VERTEX
  5
6C
330
6B
100
AcDbEntity
  8
slide table
370
     0
100
AcDbVertex
100
AcDb2dVertex
 10
5.108971468041185
 20
2.622994351246831
 30
0.0
  0
VERTEX
  5
6D
330
6B
100
AcDbEntity
  8
slide table
370
     0
100
AcDbVertex
100
AcDb2dVertex
 10
5.108971468041185
 20
2.512791913123056
 30
0.0
  0
VERTEX
  5
6E
330
6B
100
AcDbEntity
  8
slide table
370
     0
100
AcDbVertex
100
AcDb2dVertex
 10
4.608971138318745
 20
2.512791913123056
 30
0.0
  0
VERTEX
  5
6F
330
6B
100
AcDbEntity
  8
slide table
370
     0
100
AcDbVertex
100
AcDb2dVertex
 10
4.608971138318745
 20
2.622994351246831
 30
0.0
  0
VERTEX
  5
70
330
6B
100
AcDbEntity
  8
slide table
370
     0
100
AcDbVertex
100
AcDb2dVertex
 10
5.108971468041185
 20
2.622994351246831
 30
0.0
  0
SEQEND
  5
71
330
6B
100
AcDbEntity
  8
slide table
370
     0
  0
POLYLINE
  5
72
330
60
100
AcDbEntity
  8
slide table
370
     0
100
AcDb2dPolyline
 66
     1
 10
0.0
 20
0.0
 30
0.0
  0
VERTEX
  5
73
330
72
100
AcDbEntity
  8
slide table
370
     0
100
AcDbVertex
100
AcDb2dVertex
 10
4.108970808596306
 20
2.622031351479841
 30
0.0
  0
VERTEX
  5
74
330
72
100
AcDbEntity
  8
slide table
370
     0
100
AcDbVertex
100
AcDb2dVertex
 10
4.108970808596306
 20
2.511828913356067
 30
0.0
  0
VERTEX
  5
75
330
72
100
AcDbEntity
  8
slide table
370
     0
100
AcDbVertex
100
AcDb2dVertex
 10
3.608970478873866
 20
2.511828913356067
 30
0.0
  0
VERTEX
  5
76
330
72
100
AcDbEntity
  8
slide table
370
     0
100
AcDbVertex
100
AcDb2dVertex
 10
3.608970478873866
 20
2.622031351479841
 30
0.0
  0
VERTEX
  5
77
330
72
100
AcDbEntity
  8
slide table
370
     0
100
AcDbVertex
100
AcDb2dVertex
 10
4.108970808596306
 20
2.622031351479841
 30
0.0
  0
SEQEND
  5
78
330
72
100
AcDbEntity
  8
slide table
370
     0
  0
POLYLINE
  5
79
330
60
100
AcDbEntity
  8
slide table
370
     0
100
AcDb2dPolyline
 66
     1
 10
0.0
 20
0.0
 30
0.0
  0
VERTEX
  5
7A
330
79
100
AcDbEntity
  8
slide table
370
     0
100
AcDbVertex
100
AcDb2dVertex
 10
2.108969489706547
 20
2.622031351479841
 30
0.0
  0
VERTEX
  5
7B
330
79
100
AcDbEntity
  8
slide table
370
     0
100
AcDbVertex
100
AcDb2dVertex
 10
2.108969489706547
 20
2.511828913356067
 30
0.0
  0
VERTEX
  5
7C
330
79
100
AcDbEntity
  8
slide table
370
     0
100
AcDbVertex
100
AcDb2dVertex
 10
1.608969159984107
 20
2.511828913356067
 30
0.0
  0
VERTEX
  5
7D
330
79
100
AcDbEntity
  8
slide table
370
     0
100
AcDbVertex
100
AcDb2dVertex
 10
1.608969159984107
 20
2.622031351479841
 30
0.0
  0
VERTEX
  5
7E
330
79
100
AcDbEntity
  8
slide table
370
     0
100
AcDbVertex
100
AcDb2dVertex
 10
2.108969489706547
 20
2.622031351479841
 30
0.0
  0
SEQEND
  5
7F
330
79
100
AcDbEntity
  8
slide table
370
     0
  0
POLYLINE
  5
80
330
60
100
AcDbEntity
  8
slide table
370
     0
100
AcDb2dPolyline
 66
     1
 10
0.0
 20
0.0
 30
0.0
  0
VERTEX
  5
81
330
80
100
AcDbEntity
  8
slide table
370
     0
100
AcDbVertex
100
AcDb2dVertex
 10
3.108970149151427
 20
2.622031351479841
 30
0.0
  0
VERTEX
  5
82
330
80
100
AcDbEntity
  8
slide table
370
     0
100
AcDbVertex
100
AcDb2dVertex
 10
3.108970149151427
 20
2.511828913356067
 30
0.0
  0
VERTEX
  5
83
330
80
100
AcDbEntity
  8
slide table
370
     0
100
AcDbVertex
100
AcDb2dVertex
 10
2.608969819428987
 20
2.511828913356067
 30
0.0
  0
VERTEX
  5
84
330
80
100
AcDbEntity
  8
slide table
370
     0
100
AcDbVertex
100
AcDb2dVertex
 10
2.608969819428987
 20
2.622031351479841
 30
0.0
  0
VERTEX
  5
85
330
80
100
AcDbEntity
  8
slide table
370
     0
100
AcDbVertex
100
AcDb2dVertex
 10
3.108970149151427
 20
2.622031351479841
 30
0.0
  0
SEQEND
  5
86
330
80
100
AcDbEntity
  8
slide table
370
     0
  0
ENDBLK
  5
63
330
60
100
AcDbEntity
  8
0
100
AcDbBlockEnd
  0
BLOCK
  5
89
330
87
100
AcDbEntity
  8
0
100
AcDbBlockBegin
  2
block 7
 70
     0
 71
     0
 10
0.0
 20
0.0
 30
0.0
  3
block 7
  1

  0
POLYLINE
  5
8B
330
87
100
AcDbEntity
  8
slide table
370
     0
100
AcDb2dPolyline
 66
     1
 10
0.0
 20
0.0
 30
0.0
  0
VERTEX
  5
8C
330
8B
100
AcDbEntity
  8
slide table
370
     0
100
AcDbVertex
100
AcDb2dVertex
 10
6.108985690863064
 20
12.37203778106742
 30
0.0
  0
VERTEX
  5
8D
330
8B
100
AcDbEntity
  8
slide table
370
     0
100
AcDbVertex
100
AcDb2dVertex
 10
6.108985690863064
 20
12.26183534294364
 30
0.0
  0
VERTEX
  5
8E
330
8B
100
AcDbEntity
  8
slide table
370
     0
100
AcDbVertex
100
AcDb2dVertex
 10
5.608985361140625
 20
12.26183534294364
 30
0.0
  0
VERTEX
  5
8F
330
8B
100
AcDbEntity
  8
slide table
370
     0
100
AcDbVertex
100
AcDb2dVertex
 10
5.608985361140625
 20
12.37203778106742
 30
0.0
  0
VERTEX
  5
90
330
8B
100
AcDbEntity
  8
slide table
370
     0
100
AcDbVertex
100
AcDb2dVertex
 10
6.108985690863064
 20
12.37203778106742
 30
0.0
  0
SEQEND
  5
91
330
8B
100
AcDbEntity
  8
slide table
370
     0
  0
POLYLINE
  5
92
330
87
100
AcDbEntity
  8
slide table
370
     0
100
AcDb2dPolyline
 66
     1
 10
0.0
 20
0.0
 30
0.0
  0
VERTEX
  5
93
330
92
100
AcDbEntity
  8
slide table
370
     0
100
AcDbVertex
100
AcDb2dVertex
 10
5.108985031418185
 20
12.3730007808344
 30
0.0
  0
VERTEX
  5
94
330
92
100
AcDbEntity
  8
slide table
370
     0
100
AcDbVertex
100
AcDb2dVertex
 10
5.108985031418185
 20
12.26279834271063
 30
0.0
  0
VERTEX
  5
95
330
92
100
AcDbEntity
  8
slide table
370
     0
100
AcDbVertex
100
AcDb2dVertex
 10
4.608984701695745
 20
12.26279834271063
 30
0.0
  0
VERTEX
  5
96
330
92
100
AcDbEntity
  8
slide table
370
     0
100
AcDbVertex
100
AcDb2dVertex
 10
4.608984701695745
 20
12.3730007808344
 30
0.0
  0
VERTEX
  5
97
330
92
100
AcDbEntity
  8
slide table
370
     0
100
AcDbVertex
100
AcDb2dVertex
 10
5.108985031418185
 20
12.3730007808344
 30
0.0
  0
SEQEND
  5
98
330
92
100
AcDbEntity
  8
slide table
370
     0
  0
POLYLINE
  5
99
330
87
100
AcDbEntity
  8
slide table
370
     0
100
AcDb2dPolyline
 66
     1
 10
0.0
 20
0.0
 30
0.0
  0
VERTEX
  5
9A
330
99
100
AcDbEntity
  8
slide table
370
     0
100
AcDbVertex
100
AcDb2dVertex
 10
4.108984371973306
 20
12.37203778106742
 30
0.0
  0
VERTEX
  5
9B
330
99
100
AcDbEntity
  8
slide table
370
     0
100
AcDbVertex
100
AcDb2dVertex
 10
4.108984371973306
 20
12.26183534294364
 30
0.0
  0
VERTEX
  5
9C
330
99
100
AcDbEntity
  8
slide table
370
     0
100
AcDbVertex
100
AcDb2dVertex
 10
3.608984042250866
 20
12.26183534294364
 30
0.0
  0
VERTEX
  5
9D
330
99
100
AcDbEntity
  8
slide table
370
     0
100
AcDbVertex
100
AcDb2dVertex
 10
3.608984042250866
 20
12.37203778106742
 30
0.0
  0
VERTEX
  5
9E
330
99
100
AcDbEntity
  8
slide table
370
     0
100
AcDbVertex
100
AcDb2dVertex
 10
4.108984371973306
 20
12.37203778106742
 30
0.0
  0
SEQEND
  5
9F
330
99
100
AcDbEntity
  8
slide table
370
     0
  0
POLYLINE
  5
A0
330
87
100
AcDbEntity
  8
slide table
370
     0
100
AcDb2dPolyline
 66
     1
 10
0.0
 20
0.0
 30
0.0
  0
VERTEX
  5
A1
330
A0
100
AcDbEntity
  8
slide table
370
     0
100
AcDbVertex
100
AcDb2dVertex
 10
2.108983053083547
 20
12.37203778106742
 30
0.0
  0
VERTEX
  5
A2
330
A0
100
AcDbEntity
  8
slide table
370
     0
100
AcDbVertex
100
AcDb2dVertex
 10
2.108983053083547
 20
12.26183534294364
 30
0.0
  0
VERTEX
  5
A3
330
A0
100
AcDbEntity
  8
slide table
370
     0
100
AcDbVertex
100
AcDb2dVertex
 10
1.608982723361107
 20
12.26183534294364
 30
0.0
  0
VERTEX
  5
A4
330
A0
100
AcDbEntity
  8
slide table
370
     0
100
AcDbVertex
100
AcDb2dVertex
 10
1.608982723361107
 20
12.37203778106742
 30
0.0
  0
VERTEX
  5
A5
330
A0
100
AcDbEntity
  8
slide table
370
     0
100
AcDbVertex
100
AcDb2dVertex
 10
2.108983053083547
 20
12.37203778106742
 30
0.0
  0
SEQEND
  5
A6
330
A0
100
AcDbEntity
  8
slide table
370
     0
  0
POLYLINE
  5
A7
330
87
100
AcDbEntity
  8
slide table
370
     0
100
AcDb2dPolyline
 66
     1
 10
0.0
 20
0.0
 30
0.0
  0
VERTEX
  5
A8
330
A7
100
AcDbEntity
  8
slide table
370
     0
100
AcDbVertex
100
AcDb2dVertex
 10
3.108983712528426
 20
12.37203778106742
 30
0.0
  0
VERTEX
  5
A9
330
A7
100
AcDbEntity
  8
slide table
370
     0
100
AcDbVertex
100
AcDb2dVertex
 10
3.108983712528426
 20
12.26183534294364
 30
0.0
  0
VERTEX
  5
AA
330
A7
100
AcDbEntity
  8
slide table
370
     0
100
AcDbVertex
100
AcDb2dVertex
 10
2.608983382805987
 20
12.26183534294364
 30
0.0
  0
VERTEX
  5
AB
330
A7
100
AcDbEntity
  8
slide table
370
     0
100
AcDbVertex
100
AcDb2dVertex
 10
2.608983382805987
 20
12.37203778106742
 30
0.0
  0
VERTEX
  5
AC
330
A7
100
AcDbEntity
  8
slide table
370
     0
100
AcDbVertex
100
AcDb2dVertex
 10
3.108983712528426
 20
12.37203778106742
 30
0.0
  0
SEQEND
  5
AD
330
A7
100
AcDbEntity
  8
slide table
370
     0
  0
ENDBLK
  5
8A
330
87
100
AcDbEntity
  8
0
100
AcDbBlockEnd
  0
BLOCK
  5
BB
330
B9
100
AcDbEntity
  8
0
100
AcDbBlockBegin
  2
block 8
 70
     0
 71
     0
 10
0.0
 20
0.0
 30
0.0
  3
block 8
  1

  0
SPLINE
  5
BD
330
B9
100
AcDbEntity
  8
servo mounts
370
     0
100
AcDbSpline
210
0.0
220
0.0
230
1.0
 70
    11
 71
     3
 72
    29
 73
    25
 74
     0
 42
0.0000000001
 43
0.0000000001
 40
0.0
 40
0.0
 40
0.0
 40
0.0
 40
1.0
 40
1.0
 40
1.0
 40
2.0
 40
2.0
 40
2.0
 40
3.0
 40
3.0
 40
3.0
 40
4.0
 40
4.0
 40
4.0
 40
5.0
 40
5.0
 40
5.0
 40
6.0
 40
6.0
 40
6.0
 40
7.0
 40
7.0
 40
7.0
 40
8.0
 40
8.0
 40
8.0
 40
8.0
 10
14.58448227390581
 20
5.195858461102219
 30
0.0
 10
14.6758994348848
 20
5.195858461102219
 30
0.0
 10
14.75000972681197
 20
5.120473211737058
 30
0.0
 10
14.75000972681197
 20
5.027455572272092
 30
0.0
 10
14.75000972681197
 20
5.027455572272092
 30
0.0
 10
14.75000972681197
 20
4.655615591821227
 30
0.0
 10
14.75000972681197
 20
4.655615591821227
 30
0.0
 10
14.75000972681197
 20
4.562597952356261
 30
0.0
 10
14.6758994348848
 20
4.4871855762371
 30
0.0
 10
14.58448227390581
 20
4.4871855762371
 30
0.0
 10
14.58448227390581
 20
4.4871855762371
 30
0.0
 10
10.74234378102754
 20
4.4872127029911
 30
0.0
 10
10.74234378102754
 20
4.4872127029911
 30
0.0
 10
10.65092662004855
 20
4.4872127029911
 30
0.0
 10
10.57678920136738
 20
4.562597952356261
 30
0.0
 10
10.57678920136738
 20
4.655615591821227
 30
0.0
 10
10.57678920136738
 20
4.655615591821227
 30
0.0
 10
10.57678920136738
 20
5.027455572272092
 30
0.0
 10
10.57678920136738
 20
5.027455572272092
 30
0.0
 10
10.57678920136738
 20
5.120473211737058
 30
0.0
 10
10.65092662004855
 20
5.195858461102219
 30
0.0
 10
10.74234378102754
 20
5.195858461102219
 30
0.0
 10
10.74234378102754
 20
5.195858461102219
 30
0.0
 10
14.58448227390581
 20
5.195858461102219
 30
0.0
 10
14.58448227390581
 20
5.195858461102219
 30
0.0
  0
POLYLINE
  5
BE
330
B9
100
AcDbEntity
  8
servo mounts
370
     0
100
AcDb2dPolyline
 66
     1
 10
0.0
 20
0.0
 30
0.0
  0
VERTEX
  5
BF
330
BE
100
AcDbEntity
  8
servo mounts
370
     0
100
AcDbVertex
100
AcDb2dVertex
 10
12.82896082543833
 20
5.077748574187533
 30
0.0
  0
VERTEX
  5
C0
330
BE
100
AcDbEntity
  8
servo mounts
370
     0
100
AcDbVertex
100
AcDb2dVertex
 10
12.82896082543833
 20
4.605322589905786
 30
0.0
  0
VERTEX
  5
C1
330
BE
100
AcDbEntity
  8
servo mounts
370
     0
100
AcDbVertex
100
AcDb2dVertex
 10
11.96283069698197
 20
4.605322589905786
 30
0.0
  0
VERTEX
  5
C2
330
BE
100
AcDbEntity
  8
servo mounts
370
     0
100
AcDbVertex
100
AcDb2dVertex
 10
11.96283069698197
 20
5.077748574187533
 30
0.0
  0
VERTEX
  5
C3
330
BE
100
AcDbEntity
  8
servo mounts
370
     0
100
AcDbVertex
100
AcDb2dVertex
 10
12.82896082543833
 20
5.077748574187533
 30
0.0
  0
SEQEND
  5
C4
330
BE
100
AcDbEntity
  8
servo mounts
370
     0
  0
SPLINE
  5
C5
330
B9
100
AcDbEntity
  8
servo mounts
370
     0
100
AcDbSpline
210
0.0
220
0.0
230
1.0
 70
    11
 71
     3
 72
    17
 73
    13
 74
     0
 42
0.0000000001
 43
0.0000000001
 40
0.0
 40
0.0
 40
0.0
 40
0.0
 40
1.0
 40
1.0
 40
1.0
 40
2.0
 40
2.0
 40
2.0
 40
3.0
 40
3.0
 40
3.0
 40
4.0
 40
4.0
 40
4.0
 40
4.0
 10
14.62304295471638
 20
5.045467736927892
 30
0.0
 10
14.66054569212097
 20
5.045467736927892
 30
0.0
 10
14.69092765660063
 20
5.015085772448229
 30
0.0
 10
14.69092765660063
 20
4.977542344912647
 30
0.0
 10
14.69092765660063
 20
4.940053170885063
 30
0.0
 10
14.66054569212097
 20
4.909671206405402
 30
0.0
 10
14.62304295471638
 20
4.909671206405402
 30
0.0
 10
14.5855402173118
 20
4.909671206405402
 30
0.0
 10
14.55513112607814
 20
4.940053170885063
 30
0.0
 10
14.55513112607814
 20
4.977542344912647
 30
0.0
 10
14.55513112607814
 20
5.015085772448229
 30
0.0
 10
14.5855402173118
 20
5.045467736927892
 30
0.0
 10
14.62304295471638
 20
5.045467736927892
 30
0.0
  0
SPLINE
  5
C6
330
B9
100
AcDbEntity
  8
servo mounts
370
     0
100
AcDbSpline
210
0.0
220
0.0
230
1.0
 70
    11
 71
     3
 72
    17
 73
    13
 74
     0
 42
0.0000000001
 43
0.0000000001
 40
0.0
 40
0.0
 40
0.0
 40
0.0
 40
1.0
 40
1.0
 40
1.0
 40
2.0
 40
2.0
 40
2.0
 40
3.0
 40
3.0
 40
3.0
 40
4.0
 40
4.0
 40
4.0
 40
4.0
 10
10.68602863972417
 20
5.045467736927892
 30
0.0
 10
10.72350425037475
 20
5.045467736927892
 30
0.0
 10
10.75391334160841
 20
5.015085772448229
 30
0.0
 10
10.75391334160841
 20
4.977569471666646
 30
0.0
 10
10.75391334160841
 20
4.940080297639064
 30
0.0
 10
10.72350425037475
 20
4.909671206405402
 30
0.0
 10
10.68602863972417
 20
4.909671206405402
 30
0.0
 10
10.64851233894258
 20
4.909671206405402
 30
0.0
 10
10.61811681108592
 20
4.940080297639064
 30
0.0
 10
10.61811681108592
 20
4.977569471666646
 30
0.0
 10
10.61811681108592
 20
5.015085772448229
 30
0.0
 10
10.64851233894258
 20
5.045467736927892
 30
0.0
 10
10.68602863972417
 20
5.045467736927892
 30
0.0
  0
SPLINE
  5
C7
330
B9
100
AcDbEntity
  8
servo mounts
370
     0
100
AcDbSpline
210
0.0
220
0.0
230
1.0
 70
    11
 71
     3
 72
    17
 73
    13
 74
     0
 42
0.0000000001
 43
0.0000000001
 40
0.0
 40
0.0
 40
0.0
 40
0.0
 40
1.0
 40
1.0
 40
1.0
 40
2.0
 40
2.0
 40
2.0
 40
3.0
 40
3.0
 40
3.0
 40
4.0
 40
4.0
 40
4.0
 40
4.0
 10
12.92785140714424
 20
4.878583946321747
 30
0.0
 10
12.95067857063498
 20
4.878583946321747
 30
0.0
 10
12.96917901686277
 20
4.860083500093953
 30
0.0
 10
12.96917901686277
 20
4.837242773226207
 30
0.0
 10
12.96917901686277
 20
4.814402046358461
 30
0.0
 10
12.95067857063498
 20
4.795901600130667
 30
0.0
 10
12.92785140714424
 20
4.795901600130667
 30
0.0
 10
12.90501068027649
 20
4.795901600130667
 30
0.0
 10
12.8864966706717
 20
4.814402046358461
 30
0.0
 10
12.8864966706717
 20
4.837242773226207
 30
0.0
 10
12.8864966706717
 20
4.860083500093953
 30
0.0
 10
12.90501068027649
 20
4.878583946321747
 30
0.0
 10
12.92785140714424
 20
4.878583946321747
 30
0.0
  0
SPLINE
  5
C8
330
B9
100
AcDbEntity
  8
servo mounts
370
     0
100
AcDbSpline
210
0.0
220
0.0
230
1.0
 70
    11
 71
     3
 72
    17
 73
    13
 74
     0
 42
0.0000000001
 43
0.0000000001
 40
0.0
 40
0.0
 40
0.0
 40
0.0
 40
1.0
 40
1.0
 40
1.0
 40
2.0
 40
2.0
 40
2.0
 40
3.0
 40
3.0
 40
3.0
 40
4.0
 40
4.0
 40
4.0
 40
4.0
 10
11.86375022799807
 20
4.879072227893742
 30
0.0
 10
11.88657739148881
 20
4.879072227893742
 30
0.0
 10
11.90507783771661
 20
4.860571781665947
 30
0.0
 10
11.90507783771661
 20
4.837731054798201
 30
0.0
 10
11.90507783771661
 20
4.814890327930455
 30
0.0
 10
11.88657739148881
 20
4.796389881702662
 30
0.0
 10
11.86375022799807
 20
4.796389881702662
 30
0.0
 10
11.84090950113032
 20
4.796389881702662
 30
0.0
 10
11.82239549152553
 20
4.814890327930455
 30
0.0
 10
11.82239549152553
 20
4.837731054798201
 30
0.0
 10
11.82239549152553
 20
4.860571781665947
 30
0.0
 10
11.84090950113032
 20
4.879072227893742
 30
0.0
 10
11.86375022799807
 20
4.879072227893742
 30
0.0
  0
SPLINE
  5
C9
330
B9
100
AcDbEntity
  8
servo mounts
370
     0
100
AcDbSpline
210
0.0
220
0.0
230
1.0
 70
    11
 71
     3
 72
    29
 73
    25
 74
     0
 42
0.0000000001
 43
0.0000000001
 40
0.0
 40
0.0
 40
0.0
 40
0.0
 40
1.0
 40
1.0
 40
1.0
 40
2.0
 40
2.0
 40
2.0
 40
3.0
 40
3.0
 40
3.0
 40
4.0
 40
4.0
 40
4.0
 40
5.0
 40
5.0
 40
5.0
 40
6.0
 40
6.0
 40
6.0
 40
7.0
 40
7.0
 40
7.0
 40
8.0
 40
8.0
 40
8.0
 40
8.0
 10
14.58446871052881
 20
5.983253186074463
 30
0.0
 10
14.67588587150779
 20
5.983253186074463
 30
0.0
 10
14.74999616343497
 20
5.907867936709301
 30
0.0
 10
14.74999616343497
 20
5.814850297244336
 30
0.0
 10
14.74999616343497
 20
5.814850297244336
 30
0.0
 10
14.74999616343497
 20
5.44299675341647
 30
0.0
 10
14.74999616343497
 20
5.44299675341647
 30
0.0
 10
14.74999616343497
 20
5.349979113951505
 30
0.0
 10
14.67588587150779
 20
5.274593864586343
 30
0.0
 10
14.58446871052881
 20
5.274593864586343
 30
0.0
 10
14.58446871052881
 20
5.274593864586343
 30
0.0
 10
10.74233021765054
 20
5.274607427963343
 30
0.0
 10
10.74233021765054
 20
5.274607427963343
 30
0.0
 10
10.65091305667156
 20
5.274607427963343
 30
0.0
 10
10.57677563799038
 20
5.349979113951505
 30
0.0
 10
10.57677563799038
 20
5.44299675341647
 30
0.0
 10
10.57677563799038
 20
5.44299675341647
 30
0.0
 10
10.57677563799038
 20
5.814850297244336
 30
0.0
 10
10.57677563799038
 20
5.814850297244336
 30
0.0
 10
10.57677563799038
 20
5.907867936709301
 30
0.0
 10
10.65091305667156
 20
5.983253186074463
 30
0.0
 10
10.74233021765054
 20
5.983253186074463
 30
0.0
 10
10.74233021765054
 20
5.983253186074463
 30
0.0
 10
14.58446871052881
 20
5.983253186074463
 30
0.0
 10
14.58446871052881
 20
5.983253186074463
 30
0.0
  0
POLYLINE
  5
CA
330
B9
100
AcDbEntity
  8
servo mounts
370
     0
100
AcDb2dPolyline
 66
     1
 10
0.0
 20
0.0
 30
0.0
  0
VERTEX
  5
CB
330
CA
100
AcDbEntity
  8
servo mounts
370
     0
100
AcDbVertex
100
AcDb2dVertex
 10
12.82894726206133
 20
5.865143299159776
 30
0.0
  0
VERTEX
  5
CC
330
CA
100
AcDbEntity
  8
servo mounts
370
     0
100
AcDbVertex
100
AcDb2dVertex
 10
12.82894726206133
 20
5.39270375150103
 30
0.0
  0
VERTEX
  5
CD
330
CA
100
AcDbEntity
  8
servo mounts
370
     0
100
AcDbVertex
100
AcDb2dVertex
 10
11.96281713360497
 20
5.39270375150103
 30
0.0
  0
VERTEX
  5
CE
330
CA
100
AcDbEntity
  8
servo mounts
370
     0
100
AcDbVertex
100
AcDb2dVertex
 10
11.96281713360497
 20
5.865143299159776
 30
0.0
  0
VERTEX
  5
CF
330
CA
100
AcDbEntity
  8
servo mounts
370
     0
100
AcDbVertex
100
AcDb2dVertex
 10
12.82894726206133
 20
5.865143299159776
 30
0.0
  0
SEQEND
  5
D0
330
CA
100
AcDbEntity
  8
servo mounts
370
     0
  0
SPLINE
  5
D1
330
B9
100
AcDbEntity
  8
servo mounts
370
     0
100
AcDbSpline
210
0.0
220
0.0
230
1.0
 70
    11
 71
     3
 72
    17
 73
    13
 74
     0
 42
0.0000000001
 43
0.0000000001
 40
0.0
 40
0.0
 40
0.0
 40
0.0
 40
1.0
 40
1.0
 40
1.0
 40
2.0
 40
2.0
 40
2.0
 40
3.0
 40
3.0
 40
3.0
 40
4.0
 40
4.0
 40
4.0
 40
4.0
 10
14.62302939133938
 20
5.832862461900135
 30
0.0
 10
14.66053212874397
 20
5.832862461900135
 30
0.0
 10
14.69091409322363
 20
5.802480497420473
 30
0.0
 10
14.69091409322363
 20
5.76496419663889
 30
0.0
 10
14.69091409322363
 20
5.727447895857307
 30
0.0
 10
14.66053212874397
 20
5.697065931377645
 30
0.0
 10
14.62302939133938
 20
5.697065931377645
 30
0.0
 10
14.5855266539348
 20
5.697065931377645
 30
0.0
 10
14.55511756270114
 20
5.727447895857307
 30
0.0
 10
14.55511756270114
 20
5.76496419663889
 30
0.0
 10
14.55511756270114
 20
5.802480497420473
 30
0.0
 10
14.5855266539348
 20
5.832862461900135
 30
0.0
 10
14.62302939133938
 20
5.832862461900135
 30
0.0
  0
SPLINE
  5
D2
330
B9
100
AcDbEntity
  8
servo mounts
370
     0
100
AcDbSpline
210
0.0
220
0.0
230
1.0
 70
    11
 71
     3
 72
    17
 73
    13
 74
     0
 42
0.0000000001
 43
0.0000000001
 40
0.0
 40
0.0
 40
0.0
 40
0.0
 40
1.0
 40
1.0
 40
1.0
 40
2.0
 40
2.0
 40
2.0
 40
3.0
 40
3.0
 40
3.0
 40
4.0
 40
4.0
 40
4.0
 40
4.0
 10
10.68601507634716
 20
5.832862461900135
 30
0.0
 10
10.72349068699775
 20
5.832862461900135
 30
0.0
 10
10.75389977823141
 20
5.802480497420473
 30
0.0
 10
10.75389977823141
 20
5.76496419663889
 30
0.0
 10
10.75389977823141
 20
5.727475022611307
 30
0.0
 10
10.72349068699775
 20
5.697093058131645
 30
0.0
 10
10.68601507634716
 20
5.697093058131645
 30
0.0
 10
10.64849877556558
 20
5.697093058131645
 30
0.0
 10
10.61810324770892
 20
5.727475022611307
 30
0.0
 10
10.61810324770892
 20
5.76496419663889
 30
0.0
 10
10.61810324770892
 20
5.802480497420473
 30
0.0
 10
10.64849877556558
 20
5.832862461900135
 30
0.0
 10
10.68601507634716
 20
5.832862461900135
 30
0.0
  0
SPLINE
  5
D3
330
B9
100
AcDbEntity
  8
servo mounts
370
     0
100
AcDbSpline
210
0.0
220
0.0
230
1.0
 70
    11
 71
     3
 72
    17
 73
    13
 74
     0
 42
0.0000000001
 43
0.0000000001
 40
0.0
 40
0.0
 40
0.0
 40
0.0
 40
1.0
 40
1.0
 40
1.0
 40
2.0
 40
2.0
 40
2.0
 40
3.0
 40
3.0
 40
3.0
 40
4.0
 40
4.0
 40
4.0
 40
4.0
 10
12.92783784376723
 20
5.666005798047991
 30
0.0
 10
12.95066500725798
 20
5.666005798047991
 30
0.0
 10
12.96916545348578
 20
5.647505351820197
 30
0.0
 10
12.96916545348578
 20
5.624664624952451
 30
0.0
 10
12.96916545348578
 20
5.601823898084705
 30
0.0
 10
12.95066500725798
 20
5.58332345185691
 30
0.0
 10
12.92783784376723
 20
5.58332345185691
 30
0.0
 10
12.90499711689949
 20
5.58332345185691
 30
0.0
 10
12.88648310729469
 20
5.601823898084705
 30
0.0
 10
12.88648310729469
 20
5.624664624952451
 30
0.0
 10
12.88648310729469
 20
5.647505351820197
 30
0.0
 10
12.90499711689949
 20
5.666005798047991
 30
0.0
 10
12.92783784376723
 20
5.666005798047991
 30
0.0
  0
SPLINE
  5
D4
330
B9
100
AcDbEntity
  8
servo mounts
370
     0
100
AcDbSpline
210
0.0
220
0.0
230
1.0
 70
    11
 71
     3
 72
    17
 73
    13
 74
     0
 42
0.0000000001
 43
0.0000000001
 40
0.0
 40
0.0
 40
0.0
 40
0.0
 40
1.0
 40
1.0
 40
1.0
 40
2.0
 40
2.0
 40
2.0
 40
3.0
 40
3.0
 40
3.0
 40
4.0
 40
4.0
 40
4.0
 40
4.0
 10
11.86373666462107
 20
5.666494079619985
 30
0.0
 10
11.88656382811181
 20
5.666494079619985
 30
0.0
 10
11.90506427433961
 20
5.647993633392191
 30
0.0
 10
11.90506427433961
 20
5.625152906524445
 30
0.0
 10
11.90506427433961
 20
5.602312179656699
 30
0.0
 10
11.88656382811181
 20
5.583811733428905
 30
0.0
 10
11.86373666462107
 20
5.583811733428905
 30
0.0
 10
11.84089593775332
 20
5.583811733428905
 30
0.0
 10
11.82238192814853
 20
5.602312179656699
 30
0.0
 10
11.82238192814853
 20
5.625152906524445
 30
0.0
 10
11.82238192814853
 20
5.647993633392191
 30
0.0
 10
11.84089593775332
 20
5.666494079619985
 30
0.0
 10
11.86373666462107
 20
5.666494079619985
 30
0.0
  0
ENDBLK
  5
BC
330
B9
100
AcDbEntity
  8
0
100
AcDbBlockEnd
  0
BLOCK
  5
D7
330
D5
100
AcDbEntity
  8
0
100
AcDbBlockBegin
  2
block 9
 70
     0
 71
     0
 10
0.0
 20
0.0
 30
0.0
  3
block 9
  1

  0
ENDBLK
  5
D8
330
D5
100
AcDbEntity
  8
0
100
AcDbBlockEnd
  0
BLOCK
  5
DB
330
D9
100
AcDbEntity
  8
0
100
AcDbBlockBegin
  2
block 10
 70
     0
 71
     0
 10
0.0
 20
0.0
 30
0.0
  3
block 10
  1

  0
SPLINE
  5
DD
330
D9
100
AcDbEntity
  8
servo mounts
370
     0
100
AcDbSpline
210
0.0
220
0.0
230
1.0
 70
    11
 71
     3
 72
    29
 73
    25
 74
     0
 42
0.0000000001
 43
0.0000000001
 40
0.0
 40
0.0
 40
0.0
 40
0.0
 40
1.0
 40
1.0
 40
1.0
 40
2.0
 40
2.0
 40
2.0
 40
3.0
 40
3.0
 40
3.0
 40
4.0
 40
4.0
 40
4.0
 40
5.0
 40
5.0
 40
5.0
 40
6.0
 40
6.0
 40
6.0
 40
7.0
 40
7.0
 40
7.0
 40
8.0
 40
8.0
 40
8.0
 40
8.0
 10
14.58446871052881
 20
8.345471269433693
 30
0.0
 10
14.67588587150779
 20
8.345471269433693
 30
0.0
 10
14.74999616343497
 20
8.27008602006853
 30
0.0
 10
14.74999616343497
 20
8.177068380603567
 30
0.0
 10
14.74999616343497
 20
8.177068380603567
 30
0.0
 10
14.74999616343497
 20
7.805214836775701
 30
0.0
 10
14.74999616343497
 20
7.805214836775701
 30
0.0
 10
14.74999616343497
 20
7.712190415622236
 30
0.0
 10
14.67588587150779
 20
7.636805166257075
 30
0.0
 10
14.58446871052881
 20
7.636805166257075
 30
0.0
 10
14.58446871052881
 20
7.636805166257075
 30
0.0
 10
10.74233021765054
 20
7.636805166257075
 30
0.0
 10
10.74233021765054
 20
7.636805166257075
 30
0.0
 10
10.65091305667156
 20
7.636805166257075
 30
0.0
 10
10.57677563799038
 20
7.712190415622236
 30
0.0
 10
10.57677563799038
 20
7.805214836775701
 30
0.0
 10
10.57677563799038
 20
7.805214836775701
 30
0.0
 10
10.57677563799038
 20
8.177068380603567
 30
0.0
 10
10.57677563799038
 20
8.177068380603567
 30
0.0
 10
10.57677563799038
 20
8.27008602006853
 30
0.0
 10
10.65091305667156
 20
8.345471269433693
 30
0.0
 10
10.74233021765054
 20
8.345471269433693
 30
0.0
 10
10.74233021765054
 20
8.345471269433693
 30
0.0
 10
14.58446871052881
 20
8.345471269433693
 30
0.0
 10
14.58446871052881
 20
8.345471269433693
 30
0.0
  0
POLYLINE
  5
DE
330
D9
100
AcDbEntity
  8
servo mounts
370
     0
100
AcDb2dPolyline
 66
     1
 10
0.0
 20
0.0
 30
0.0
  0
VERTEX
  5
DF
330
DE
100
AcDbEntity
  8
servo mounts
370
     0
100
AcDbVertex
100
AcDb2dVertex
 10
12.82894726206133
 20
8.227361382519007
 30
0.0
  0
VERTEX
  5
E0
330
DE
100
AcDbEntity
  8
servo mounts
370
     0
100
AcDbVertex
100
AcDb2dVertex
 10
12.82894726206133
 20
7.75492183486026
 30
0.0
  0
VERTEX
  5
E1
330
DE
100
AcDbEntity
  8
servo mounts
370
     0
100
AcDbVertex
100
AcDb2dVertex
 10
11.96281713360497
 20
7.75492183486026
 30
0.0
  0
VERTEX
  5
E2
330
DE
100
AcDbEntity
  8
servo mounts
370
     0
100
AcDbVertex
100
AcDb2dVertex
 10
11.96281713360497
 20
8.227361382519007
 30
0.0
  0
VERTEX
  5
E3
330
DE
100
AcDbEntity
  8
servo mounts
370
     0
100
AcDbVertex
100
AcDb2dVertex
 10
12.82894726206133
 20
8.227361382519007
 30
0.0
  0
SEQEND
  5
E4
330
DE
100
AcDbEntity
  8
servo mounts
370
     0
  0
SPLINE
  5
E5
330
D9
100
AcDbEntity
  8
servo mounts
370
     0
100
AcDbSpline
210
0.0
220
0.0
230
1.0
 70
    11
 71
     3
 72
    17
 73
    13
 74
     0
 42
0.0000000001
 43
0.0000000001
 40
0.0
 40
0.0
 40
0.0
 40
0.0
 40
1.0
 40
1.0
 40
1.0
 40
2.0
 40
2.0
 40
2.0
 40
3.0
 40
3.0
 40
3.0
 40
4.0
 40
4.0
 40
4.0
 40
4.0
 10
14.62302939133938
 20
8.195080545259366
 30
0.0
 10
14.66053212874397
 20
8.195080545259366
 30
0.0
 10
14.69091409322363
 20
8.164698580779703
 30
0.0
 10
14.69091409322363
 20
8.127155153244122
 30
0.0
 10
14.69091409322363
 20
8.089665979216537
 30
0.0
 10
14.66053212874397
 20
8.059284014736877
 30
0.0
 10
14.62302939133938
 20
8.059284014736877
 30
0.0
 10
14.5855266539348
 20
8.059284014736877
 30
0.0
 10
14.55511756270114
 20
8.089665979216537
 30
0.0
 10
14.55511756270114
 20
8.127155153244122
 30
0.0
 10
14.55511756270114
 20
8.164698580779703
 30
0.0
 10
14.5855266539348
 20
8.195080545259366
 30
0.0
 10
14.62302939133938
 20
8.195080545259366
 30
0.0
  0
SPLINE
  5
E6
330
D9
100
AcDbEntity
  8
servo mounts
370
     0
100
AcDbSpline
210
0.0
220
0.0
230
1.0
 70
    11
 71
     3
 72
    17
 73
    13
 74
     0
 42
0.0000000001
 43
0.0000000001
 40
0.0
 40
0.0
 40
0.0
 40
0.0
 40
1.0
 40
1.0
 40
1.0
 40
2.0
 40
2.0
 40
2.0
 40
3.0
 40
3.0
 40
3.0
 40
4.0
 40
4.0
 40
4.0
 40
4.0
 10
10.68601507634716
 20
8.195080545259366
 30
0.0
 10
10.72349068699775
 20
8.195080545259366
 30
0.0
 10
10.75389977823141
 20
8.164698580779703
 30
0.0
 10
10.75389977823141
 20
8.12718227999812
 30
0.0
 10
10.75389977823141
 20
8.089693105970538
 30
0.0
 10
10.72349068699775
 20
8.059284014736877
 30
0.0
 10
10.68601507634716
 20
8.059284014736877
 30
0.0
 10
10.64849877556558
 20
8.059284014736877
 30
0.0
 10
10.61810324770892
 20
8.089693105970538
 30
0.0
 10
10.61810324770892
 20
8.12718227999812
 30
0.0
 10
10.61810324770892
 20
8.164698580779703
 30
0.0
 10
10.64849877556558
 20
8.195080545259366
 30
0.0
 10
10.68601507634716
 20
8.195080545259366
 30
0.0
  0
SPLINE
  5
E7
330
D9
100
AcDbEntity
  8
servo mounts
370
     0
100
AcDbSpline
210
0.0
220
0.0
230
1.0
 70
    11
 71
     3
 72
    17
 73
    13
 74
     0
 42
0.0000000001
 43
0.0000000001
 40
0.0
 40
0.0
 40
0.0
 40
0.0
 40
1.0
 40
1.0
 40
1.0
 40
2.0
 40
2.0
 40
2.0
 40
3.0
 40
3.0
 40
3.0
 40
4.0
 40
4.0
 40
4.0
 40
4.0
 10
12.92783784376723
 20
8.028196754653221
 30
0.0
 10
12.95066500725798
 20
8.028196754653221
 30
0.0
 10
12.96916545348578
 20
8.009696308425427
 30
0.0
 10
12.96916545348578
 20
7.986855581557681
 30
0.0
 10
12.96916545348578
 20
7.964014854689935
 30
0.0
 10
12.95066500725798
 20
7.945514408462141
 30
0.0
 10
12.92783784376723
 20
7.945514408462141
 30
0.0
 10
12.90499711689949
 20
7.945514408462141
 30
0.0
 10
12.88648310729469
 20
7.964014854689935
 30
0.0
 10
12.88648310729469
 20
7.986855581557681
 30
0.0
 10
12.88648310729469
 20
8.009696308425427
 30
0.0
 10
12.90499711689949
 20
8.028196754653221
 30
0.0
 10
12.92783784376723
 20
8.028196754653221
 30
0.0
  0
SPLINE
  5
E8
330
D9
100
AcDbEntity
  8
servo mounts
370
     0
100
AcDbSpline
210
0.0
220
0.0
230
1.0
 70
    11
 71
     3
 72
    17
 73
    13
 74
     0
 42
0.0000000001
 43
0.0000000001
 40
0.0
 40
0.0
 40
0.0
 40
0.0
 40
1.0
 40
1.0
 40
1.0
 40
2.0
 40
2.0
 40
2.0
 40
3.0
 40
3.0
 40
3.0
 40
4.0
 40
4.0
 40
4.0
 40
4.0
 10
11.86373666462107
 20
8.028685036225216
 30
0.0
 10
11.88656382811181
 20
8.028685036225216
 30
0.0
 10
11.90506427433961
 20
8.010184589997422
 30
0.0
 10
11.90506427433961
 20
7.987343863129676
 30
0.0
 10
11.90506427433961
 20
7.96450313626193
 30
0.0
 10
11.88656382811181
 20
7.946002690034136
 30
0.0
 10
11.86373666462107
 20
7.946002690034136
 30
0.0
 10
11.84089593775332
 20
7.946002690034136
 30
0.0
 10
11.82238192814853
 20
7.96450313626193
 30
0.0
 10
11.82238192814853
 20
7.987343863129676
 30
0.0
 10
11.82238192814853
 20
8.010184589997422
 30
0.0
 10
11.84089593775332
 20
8.028685036225216
 30
0.0
 10
11.86373666462107
 20
8.028685036225216
 30
0.0
  0
POLYLINE
  5
E9
330
D9
100
AcDbEntity
  8
servo mounts
370
     0
100
AcDb2dPolyline
 66
     1
 10
0.0
 20
0.0
 30
0.0
  0
VERTEX
  5
EA
330
E9
100
AcDbEntity
  8
servo mounts
370
     0
100
AcDbVertex
100
AcDb2dVertex
 10
9.439811997601023
 20
121.5257962853446
 30
0.0
  0
VERTEX
  5
EB
330
E9
100
AcDbEntity
  8
servo mounts
370
     0
100
AcDbVertex
100
AcDb2dVertex
 10
9.439811997601023
 20
-106.016020432509
 30
0.0
  0
SEQEND
  5
EC
330
E9
100
AcDbEntity
  8
servo mounts
370
     0
  0
ENDBLK
  5
DC
330
D9
100
AcDbEntity
  8
0
100
AcDbBlockEnd
  0
BLOCK
  5
EF
330
ED
100
AcDbEntity
  8
0
100
AcDbBlockBegin
  2
block 11
 70
     0
 71
     0
 10
0.0
 20
0.0
 30
0.0
  3
block 11
  1

  0
SPLINE
  5
F1
330
ED
100
AcDbEntity
  8
servo mounts
370
     0
100
AcDbSpline
210
0.0
220
0.0
230
1.0
 70
    11
 71
     3
 72
    29
 73
    25
 74
     0
 42
0.0000000001
 43
0.0000000001
 40
0.0
 40
0.0
 40
0.0
 40
0.0
 40
1.0
 40
1.0
 40
1.0
 40
2.0
 40
2.0
 40
2.0
 40
3.0
 40
3.0
 40
3.0
 40
4.0
 40
4.0
 40
4.0
 40
5.0
 40
5.0
 40
5.0
 40
6.0
 40
6.0
 40
6.0
 40
7.0
 40
7.0
 40
7.0
 40
8.0
 40
8.0
 40
8.0
 40
8.0
 10
14.58446871052881
 20
9.132872776094437
 30
0.0
 10
14.67588587150779
 20
9.132872776094437
 30
0.0
 10
14.74999616343497
 20
9.057487526729275
 30
0.0
 10
14.74999616343497
 20
8.96446988726431
 30
0.0
 10
14.74999616343497
 20
8.96446988726431
 30
0.0
 10
14.74999616343497
 20
8.592616343436445
 30
0.0
 10
14.74999616343497
 20
8.592616343436445
 30
0.0
 10
14.74999616343497
 20
8.499598703971479
 30
0.0
 10
14.67588587150779
 20
8.424206672917817
 30
0.0
 10
14.58446871052881
 20
8.424206672917817
 30
0.0
 10
14.58446871052881
 20
8.424206672917817
 30
0.0
 10
10.74233021765054
 20
8.424220236294818
 30
0.0
 10
10.74233021765054
 20
8.424220236294818
 30
0.0
 10
10.65091305667156
 20
8.424220236294818
 30
0.0
 10
10.57677563799038
 20
8.499598703971479
 30
0.0
 10
10.57677563799038
 20
8.592616343436445
 30
0.0
 10
10.57677563799038
 20
8.592616343436445
 30
0.0
 10
10.57677563799038
 20
8.96446988726431
 30
0.0
 10
10.57677563799038
 20
8.96446988726431
 30
0.0
 10
10.57677563799038
 20
9.057487526729275
 30
0.0
 10
10.65091305667156
 20
9.132872776094437
 30
0.0
 10
10.74233021765054
 20
9.132872776094437
 30
0.0
 10
10.74233021765054
 20
9.132872776094437
 30
0.0
 10
14.58446871052881
 20
9.132872776094437
 30
0.0
 10
14.58446871052881
 20
9.132872776094437
 30
0.0
  0
POLYLINE
  5
F2
330
ED
100
AcDbEntity
  8
servo mounts
370
     0
100
AcDb2dPolyline
 66
     1
 10
0.0
 20
0.0
 30
0.0
  0
VERTEX
  5
F3
330
F2
100
AcDbEntity
  8
servo mounts
370
     0
100
AcDbVertex
100
AcDb2dVertex
 10
12.82894726206133
 20
9.014762889179751
 30
0.0
  0
VERTEX
  5
F4
330
F2
100
AcDbEntity
  8
servo mounts
370
     0
100
AcDbVertex
100
AcDb2dVertex
 10
12.82894726206133
 20
8.542323341521005
 30
0.0
  0
VERTEX
  5
F5
330
F2
100
AcDbEntity
  8
servo mounts
370
     0
100
AcDbVertex
100
AcDb2dVertex
 10
11.96281713360497
 20
8.542323341521005
 30
0.0
  0
VERTEX
  5
F6
330
F2
100
AcDbEntity
  8
servo mounts
370
     0
100
AcDbVertex
100
AcDb2dVertex
 10
11.96281713360497
 20
9.014762889179751
 30
0.0
  0
VERTEX
  5
F7
330
F2
100
AcDbEntity
  8
servo mounts
370
     0
100
AcDbVertex
100
AcDb2dVertex
 10
12.82894726206133
 20
9.014762889179751
 30
0.0
  0
SEQEND
  5
F8
330
F2
100
AcDbEntity
  8
servo mounts
370
     0
  0
SPLINE
  5
F9
330
ED
100
AcDbEntity
  8
servo mounts
370
     0
100
AcDbSpline
210
0.0
220
0.0
230
1.0
 70
    11
 71
     3
 72
    17
 73
    13
 74
     0
 42
0.0000000001
 43
0.0000000001
 40
0.0
 40
0.0
 40
0.0
 40
0.0
 40
1.0
 40
1.0
 40
1.0
 40
2.0
 40
2.0
 40
2.0
 40
3.0
 40
3.0
 40
3.0
 40
4.0
 40
4.0
 40
4.0
 40
4.0
 10
14.62302939133938
 20
8.98248205192011
 30
0.0
 10
14.66053212874397
 20
8.98248205192011
 30
0.0
 10
14.69091409322363
 20
8.952100087440447
 30
0.0
 10
14.69091409322363
 20
8.914570223281865
 30
0.0
 10
14.69091409322363
 20
8.877067485877282
 30
0.0
 10
14.66053212874397
 20
8.84668552139762
 30
0.0
 10
14.62302939133938
 20
8.84668552139762
 30
0.0
 10
14.5855266539348
 20
8.84668552139762
 30
0.0
 10
14.55511756270114
 20
8.877067485877282
 30
0.0
 10
14.55511756270114
 20
8.914570223281865
 30
0.0
 10
14.55511756270114
 20
8.952100087440447
 30
0.0
 10
14.5855266539348
 20
8.98248205192011
 30
0.0
 10
14.62302939133938
 20
8.98248205192011
 30
0.0
  0
SPLINE
  5
FA
330
ED
100
AcDbEntity
  8
servo mounts
370
     0
100
AcDbSpline
210
0.0
220
0.0
230
1.0
 70
    11
 71
     3
 72
    17
 73
    13
 74
     0
 42
0.0000000001
 43
0.0000000001
 40
0.0
 40
0.0
 40
0.0
 40
0.0
 40
1.0
 40
1.0
 40
1.0
 40
2.0
 40
2.0
 40
2.0
 40
3.0
 40
3.0
 40
3.0
 40
4.0
 40
4.0
 40
4.0
 40
4.0
 10
10.68601507634716
 20
8.98248205192011
 30
0.0
 10
10.72349068699775
 20
8.98248205192011
 30
0.0
 10
10.75389977823141
 20
8.952100087440447
 30
0.0
 10
10.75389977823141
 20
8.914583786658865
 30
0.0
 10
10.75389977823141
 20
8.877094612631282
 30
0.0
 10
10.72349068699775
 20
8.84669908477462
 30
0.0
 10
10.68601507634716
 20
8.84669908477462
 30
0.0
 10
10.64849877556558
 20
8.84669908477462
 30
0.0
 10
10.61810324770892
 20
8.877094612631282
 30
0.0
 10
10.61810324770892
 20
8.914583786658865
 30
0.0
 10
10.61810324770892
 20
8.952100087440447
 30
0.0
 10
10.64849877556558
 20
8.98248205192011
 30
0.0
 10
10.68601507634716
 20
8.98248205192011
 30
0.0
  0
SPLINE
  5
FB
330
ED
100
AcDbEntity
  8
servo mounts
370
     0
100
AcDbSpline
210
0.0
220
0.0
230
1.0
 70
    11
 71
     3
 72
    17
 73
    13
 74
     0
 42
0.0000000001
 43
0.0000000001
 40
0.0
 40
0.0
 40
0.0
 40
0.0
 40
1.0
 40
1.0
 40
1.0
 40
2.0
 40
2.0
 40
2.0
 40
3.0
 40
3.0
 40
3.0
 40
4.0
 40
4.0
 40
4.0
 40
4.0
 10
12.92783784376723
 20
8.815611824690965
 30
0.0
 10
12.95066500725798
 20
8.815611824690965
 30
0.0
 10
12.96916545348578
 20
8.797111378463171
 30
0.0
 10
12.96916545348578
 20
8.774270651595424
 30
0.0
 10
12.96916545348578
 20
8.75142992472768
 30
0.0
 10
12.95066500725798
 20
8.732929478499885
 30
0.0
 10
12.92783784376723
 20
8.732929478499885
 30
0.0
 10
12.90499711689949
 20
8.732929478499885
 30
0.0
 10
12.88648310729469
 20
8.75142992472768
 30
0.0
 10
12.88648310729469
 20
8.774270651595424
 30
0.0
 10
12.88648310729469
 20
8.797111378463171
 30
0.0
 10
12.90499711689949
 20
8.815611824690965
 30
0.0
 10
12.92783784376723
 20
8.815611824690965
 30
0.0
  0
SPLINE
  5
FC
330
ED
100
AcDbEntity
  8
servo mounts
370
     0
100
AcDbSpline
210
0.0
220
0.0
230
1.0
 70
    11
 71
     3
 72
    17
 73
    13
 74
     0
 42
0.0000000001
 43
0.0000000001
 40
0.0
 40
0.0
 40
0.0
 40
0.0
 40
1.0
 40
1.0
 40
1.0
 40
2.0
 40
2.0
 40
2.0
 40
3.0
 40
3.0
 40
3.0
 40
4.0
 40
4.0
 40
4.0
 40
4.0
 10
11.86373666462107
 20
8.81610010626296
 30
0.0
 10
11.88656382811181
 20
8.81610010626296
 30
0.0
 10
11.90506427433961
 20
8.797599660035166
 30
0.0
 10
11.90506427433961
 20
8.77475893316742
 30
0.0
 10
11.90506427433961
 20
8.751918206299674
 30
0.0
 10
11.88656382811181
 20
8.733417760071879
 30
0.0
 10
11.86373666462107
 20
8.733417760071879
 30
0.0
 10
11.84089593775332
 20
8.733417760071879
 30
0.0
 10
11.82238192814853
 20
8.751918206299674
 30
0.0
 10
11.82238192814853
 20
8.77475893316742
 30
0.0
 10
11.82238192814853
 20
8.797599660035166
 30
0.0
 10
11.84089593775332
 20
8.81610010626296
 30
0.0
 10
11.86373666462107
 20
8.81610010626296
 30
0.0
  0
SPLINE
  5
FD
330
ED
100
AcDbEntity
  8
servo mounts
370
     0
100
AcDbSpline
210
0.0
220
0.0
230
1.0
 70
    11
 71
     3
 72
    29
 73
    25
 74
     0
 42
0.0000000001
 43
0.0000000001
 40
0.0
 40
0.0
 40
0.0
 40
0.0
 40
1.0
 40
1.0
 40
1.0
 40
2.0
 40
2.0
 40
2.0
 40
3.0
 40
3.0
 40
3.0
 40
4.0
 40
4.0
 40
4.0
 40
5.0
 40
5.0
 40
5.0
 40
6.0
 40
6.0
 40
6.0
 40
7.0
 40
7.0
 40
7.0
 40
8.0
 40
8.0
 40
8.0
 40
8.0
 10
14.58448227390581
 20
6.770675037800706
 30
0.0
 10
14.6758994348848
 20
6.770675037800706
 30
0.0
 10
14.75000972681197
 20
6.695289788435544
 30
0.0
 10
14.75000972681197
 20
6.602272148970579
 30
0.0
 10
14.75000972681197
 20
6.602272148970579
 30
0.0
 10
14.75000972681197
 20
6.230418605142714
 30
0.0
 10
14.75000972681197
 20
6.230418605142714
 30
0.0
 10
14.75000972681197
 20
6.137400965677749
 30
0.0
 10
14.6758994348848
 20
6.062002152935587
 30
0.0
 10
14.58448227390581
 20
6.062002152935587
 30
0.0
 10
14.58448227390581
 20
6.062002152935587
 30
0.0
 10
10.74234378102754
 20
6.062015716312587
 30
0.0
 10
10.74234378102754
 20
6.062015716312587
 30
0.0
 10
10.65092662004855
 20
6.062015716312587
 30
0.0
 10
10.57678920136738
 20
6.137400965677749
 30
0.0
 10
10.57678920136738
 20
6.230418605142714
 30
0.0
 10
10.57678920136738
 20
6.230418605142714
 30
0.0
 10
10.57678920136738
 20
6.602272148970579
 30
0.0
 10
10.57678920136738
 20
6.602272148970579
 30
0.0
 10
10.57678920136738
 20
6.695289788435544
 30
0.0
 10
10.65092662004855
 20
6.770675037800706
 30
0.0
 10
10.74234378102754
 20
6.770675037800706
 30
0.0
 10
10.74234378102754
 20
6.770675037800706
 30
0.0
 10
14.58448227390581
 20
6.770675037800706
 30
0.0
 10
14.58448227390581
 20
6.770675037800706
 30
0.0
  0
POLYLINE
  5
FE
330
ED
100
AcDbEntity
  8
servo mounts
370
     0
100
AcDb2dPolyline
 66
     1
 10
0.0
 20
0.0
 30
0.0
  0
VERTEX
  5
FF
330
FE
100
AcDbEntity
  8
servo mounts
370
     0
100
AcDbVertex
100
AcDb2dVertex
 10
12.82896082543833
 20
6.652565150886019
 30
0.0
  0
VERTEX
  5
100
330
FE
100
AcDbEntity
  8
servo mounts
370
     0
100
AcDbVertex
100
AcDb2dVertex
 10
12.82896082543833
 20
6.180125603227273
 30
0.0
  0
VERTEX
  5
101
330
FE
100
AcDbEntity
  8
servo mounts
370
     0
100
AcDbVertex
100
AcDb2dVertex
 10
11.96283069698197
 20
6.180125603227273
 30
0.0
  0
VERTEX
  5
102
330
FE
100
AcDbEntity
  8
servo mounts
370
     0
100
AcDbVertex
100
AcDb2dVertex
 10
11.96283069698197
 20
6.652565150886019
 30
0.0
  0
VERTEX
  5
103
330
FE
100
AcDbEntity
  8
servo mounts
370
     0
100
AcDbVertex
100
AcDb2dVertex
 10
12.82896082543833
 20
6.652565150886019
 30
0.0
  0
SEQEND
  5
104
330
FE
100
AcDbEntity
  8
servo mounts
370
     0
  0
SPLINE
  5
105
330
ED
100
AcDbEntity
  8
servo mounts
370
     0
100
AcDbSpline
210
0.0
220
0.0
230
1.0
 70
    11
 71
     3
 72
    17
 73
    13
 74
     0
 42
0.0000000001
 43
0.0000000001
 40
0.0
 40
0.0
 40
0.0
 40
0.0
 40
1.0
 40
1.0
 40
1.0
 40
2.0
 40
2.0
 40
2.0
 40
3.0
 40
3.0
 40
3.0
 40
4.0
 40
4.0
 40
4.0
 40
4.0
 10
14.62304295471638
 20
6.620284313626379
 30
0.0
 10
14.66054569212097
 20
6.620284313626379
 30
0.0
 10
14.69092765660063
 20
6.589902349146716
 30
0.0
 10
14.69092765660063
 20
6.552358921611134
 30
0.0
 10
14.69092765660063
 20
6.514869747583551
 30
0.0
 10
14.66054569212097
 20
6.484487783103889
 30
0.0
 10
14.62304295471638
 20
6.484487783103889
 30
0.0
 10
14.5855402173118
 20
6.484487783103889
 30
0.0
 10
14.55513112607814
 20
6.514869747583551
 30
0.0
 10
14.55513112607814
 20
6.552358921611134
 30
0.0
 10
14.55513112607814
 20
6.589902349146716
 30
0.0
 10
14.5855402173118
 20
6.620284313626379
 30
0.0
 10
14.62304295471638
 20
6.620284313626379
 30
0.0
  0
SPLINE
  5
106
330
ED
100
AcDbEntity
  8
servo mounts
370
     0
100
AcDbSpline
210
0.0
220
0.0
230
1.0
 70
    11
 71
     3
 72
    17
 73
    13
 74
     0
 42
0.0000000001
 43
0.0000000001
 40
0.0
 40
0.0
 40
0.0
 40
0.0
 40
1.0
 40
1.0
 40
1.0
 40
2.0
 40
2.0
 40
2.0
 40
3.0
 40
3.0
 40
3.0
 40
4.0
 40
4.0
 40
4.0
 40
4.0
 10
10.68602863972417
 20
6.620284313626379
 30
0.0
 10
10.72350425037475
 20
6.620284313626379
 30
0.0
 10
10.75391334160841
 20
6.589902349146716
 30
0.0
 10
10.75391334160841
 20
6.552386048365133
 30
0.0
 10
10.75391334160841
 20
6.51489687433755
 30
0.0
 10
10.72350425037475
 20
6.484487783103889
 30
0.0
 10
10.68602863972417
 20
6.484487783103889
 30
0.0
 10
10.64851233894258
 20
6.484487783103889
 30
0.0
 10
10.61811681108592
 20
6.51489687433755
 30
0.0
 10
10.61811681108592
 20
6.552386048365133
 30
0.0
 10
10.61811681108592
 20
6.589902349146716
 30
0.0
 10
10.64851233894258
 20
6.620284313626379
 30
0.0
 10
10.68602863972417
 20
6.620284313626379
 30
0.0
  0
SPLINE
  5
107
330
ED
100
AcDbEntity
  8
servo mounts
370
     0
100
AcDbSpline
210
0.0
220
0.0
230
1.0
 70
    11
 71
     3
 72
    17
 73
    13
 74
     0
 42
0.0000000001
 43
0.0000000001
 40
0.0
 40
0.0
 40
0.0
 40
0.0
 40
1.0
 40
1.0
 40
1.0
 40
2.0
 40
2.0
 40
2.0
 40
3.0
 40
3.0
 40
3.0
 40
4.0
 40
4.0
 40
4.0
 40
4.0
 10
12.92785140714424
 20
6.453400523020234
 30
0.0
 10
12.95067857063498
 20
6.453400523020234
 30
0.0
 10
12.96917901686277
 20
6.43490007679244
 30
0.0
 10
12.96917901686277
 20
6.412059349924694
 30
0.0
 10
12.96917901686277
 20
6.389218623056948
 30
0.0
 10
12.95067857063498
 20
6.370718176829154
 30
0.0
 10
12.92785140714424
 20
6.370718176829154
 30
0.0
 10
12.90501068027649
 20
6.370718176829154
 30
0.0
 10
12.8864966706717
 20
6.389218623056948
 30
0.0
 10
12.8864966706717
 20
6.412059349924694
 30
0.0
 10
12.8864966706717
 20
6.43490007679244
 30
0.0
 10
12.90501068027649
 20
6.453400523020234
 30
0.0
 10
12.92785140714424
 20
6.453400523020234
 30
0.0
  0
SPLINE
  5
108
330
ED
100
AcDbEntity
  8
servo mounts
370
     0
100
AcDbSpline
210
0.0
220
0.0
230
1.0
 70
    11
 71
     3
 72
    17
 73
    13
 74
     0
 42
0.0000000001
 43
0.0000000001
 40
0.0
 40
0.0
 40
0.0
 40
0.0
 40
1.0
 40
1.0
 40
1.0
 40
2.0
 40
2.0
 40
2.0
 40
3.0
 40
3.0
 40
3.0
 40
4.0
 40
4.0
 40
4.0
 40
4.0
 10
11.86375022799807
 20
6.453888804592229
 30
0.0
 10
11.88657739148881
 20
6.453888804592229
 30
0.0
 10
11.90507783771661
 20
6.435388358364435
 30
0.0
 10
11.90507783771661
 20
6.412547631496689
 30
0.0
 10
11.90507783771661
 20
6.389706904628943
 30
0.0
 10
11.88657739148881
 20
6.371206458401148
 30
0.0
 10
11.86375022799807
 20
6.371206458401148
 30
0.0
 10
11.84090950113032
 20
6.371206458401148
 30
0.0
 10
11.82239549152553
 20
6.389706904628943
 30
0.0
 10
11.82239549152553
 20
6.412547631496689
 30
0.0
 10
11.82239549152553
 20
6.435388358364435
 30
0.0
 10
11.84090950113032
 20
6.453888804592229
 30
0.0
 10
11.86375022799807
 20
6.453888804592229
 30
0.0
  0
SPLINE
  5
109
330
ED
100
AcDbEntity
  8
servo mounts
370
     0
100
AcDbSpline
210
0.0
220
0.0
230
1.0
 70
    11
 71
     3
 72
    29
 73
    25
 74
     0
 42
0.0000000001
 43
0.0000000001
 40
0.0
 40
0.0
 40
0.0
 40
0.0
 40
1.0
 40
1.0
 40
1.0
 40
2.0
 40
2.0
 40
2.0
 40
3.0
 40
3.0
 40
3.0
 40
4.0
 40
4.0
 40
4.0
 40
5.0
 40
5.0
 40
5.0
 40
6.0
 40
6.0
 40
6.0
 40
7.0
 40
7.0
 40
7.0
 40
8.0
 40
8.0
 40
8.0
 40
8.0
 10
14.58448227390581
 20
7.558069762772949
 30
0.0
 10
14.6758994348848
 20
7.558069762772949
 30
0.0
 10
14.75000972681197
 20
7.482684513407788
 30
0.0
 10
14.75000972681197
 20
7.389666873942822
 30
0.0
 10
14.75000972681197
 20
7.389666873942822
 30
0.0
 10
14.75000972681197
 20
7.017813330114958
 30
0.0
 10
14.75000972681197
 20
7.017813330114958
 30
0.0
 10
14.75000972681197
 20
6.924795690649992
 30
0.0
 10
14.6758994348848
 20
6.849410441284831
 30
0.0
 10
14.58448227390581
 20
6.849410441284831
 30
0.0
 10
14.58448227390581
 20
6.849410441284831
 30
0.0
 10
10.74234378102754
 20
6.849410441284831
 30
0.0
 10
10.74234378102754
 20
6.849410441284831
 30
0.0
 10
10.65092662004855
 20
6.849410441284831
 30
0.0
 10
10.57678920136738
 20
6.924795690649992
 30
0.0
 10
10.57678920136738
 20
7.017813330114958
 30
0.0
 10
10.57678920136738
 20
7.017813330114958
 30
0.0
 10
10.57678920136738
 20
7.389666873942822
 30
0.0
 10
10.57678920136738
 20
7.389666873942822
 30
0.0
 10
10.57678920136738
 20
7.482684513407788
 30
0.0
 10
10.65092662004855
 20
7.558069762772949
 30
0.0
 10
10.74234378102754
 20
7.558069762772949
 30
0.0
 10
10.74234378102754
 20
7.558069762772949
 30
0.0
 10
14.58448227390581
 20
7.558069762772949
 30
0.0
 10
14.58448227390581
 20
7.558069762772949
 30
0.0
  0
POLYLINE
  5
10A
330
ED
100
AcDbEntity
  8
servo mounts
370
     0
100
AcDb2dPolyline
 66
     1
 10
0.0
 20
0.0
 30
0.0
  0
VERTEX
  5
10B
330
10A
100
AcDbEntity
  8
servo mounts
370
     0
100
AcDbVertex
100
AcDb2dVertex
 10
12.82896082543833
 20
7.439959875858263
 30
0.0
  0
VERTEX
  5
10C
330
10A
100
AcDbEntity
  8
servo mounts
370
     0
100
AcDbVertex
100
AcDb2dVertex
 10
12.82896082543833
 20
6.967520328199517
 30
0.0
  0
VERTEX
  5
10D
330
10A
100
AcDbEntity
  8
servo mounts
370
     0
100
AcDbVertex
100
AcDb2dVertex
 10
11.96283069698197
 20
6.967520328199517
 30
0.0
  0
VERTEX
  5
10E
330
10A
100
AcDbEntity
  8
servo mounts
370
     0
100
AcDbVertex
100
AcDb2dVertex
 10
11.96283069698197
 20
7.439959875858263
 30
0.0
  0
VERTEX
  5
10F
330
10A
100
AcDbEntity
  8
servo mounts
370
     0
100
AcDbVertex
100
AcDb2dVertex
 10
12.82896082543833
 20
7.439959875858263
 30
0.0
  0
SEQEND
  5
110
330
10A
100
AcDbEntity
  8
servo mounts
370
     0
  0
SPLINE
  5
111
330
ED
100
AcDbEntity
  8
servo mounts
370
     0
100
AcDbSpline
210
0.0
220
0.0
230
1.0
 70
    11
 71
     3
 72
    17
 73
    13
 74
     0
 42
0.0000000001
 43
0.0000000001
 40
0.0
 40
0.0
 40
0.0
 40
0.0
 40
1.0
 40
1.0
 40
1.0
 40
2.0
 40
2.0
 40
2.0
 40
3.0
 40
3.0
 40
3.0
 40
4.0
 40
4.0
 40
4.0
 40
4.0
 10
14.62304295471638
 20
7.407679038598622
 30
0.0
 10
14.66054569212097
 20
7.407679038598622
 30
0.0
 10
14.69092765660063
 20
7.37729707411896
 30
0.0
 10
14.69092765660063
 20
7.339767209960377
 30
0.0
 10
14.69092765660063
 20
7.302264472555795
 30
0.0
 10
14.66054569212097
 20
7.271882508076132
 30
0.0
 10
14.62304295471638
 20
7.271882508076132
 30
0.0
 10
14.5855402173118
 20
7.271882508076132
 30
0.0
 10
14.55513112607814
 20
7.302264472555795
 30
0.0
 10
14.55513112607814
 20
7.339767209960377
 30
0.0
 10
14.55513112607814
 20
7.37729707411896
 30
0.0
 10
14.5855402173118
 20
7.407679038598622
 30
0.0
 10
14.62304295471638
 20
7.407679038598622
 30
0.0
  0
SPLINE
  5
112
330
ED
100
AcDbEntity
  8
servo mounts
370
     0
100
AcDbSpline
210
0.0
220
0.0
230
1.0
 70
    11
 71
     3
 72
    17
 73
    13
 74
     0
 42
0.0000000001
 43
0.0000000001
 40
0.0
 40
0.0
 40
0.0
 40
0.0
 40
1.0
 40
1.0
 40
1.0
 40
2.0
 40
2.0
 40
2.0
 40
3.0
 40
3.0
 40
3.0
 40
4.0
 40
4.0
 40
4.0
 40
4.0
 10
10.68602863972417
 20
7.407679038598622
 30
0.0
 10
10.72350425037475
 20
7.407679038598622
 30
0.0
 10
10.75391334160841
 20
7.37729707411896
 30
0.0
 10
10.75391334160841
 20
7.339780773337377
 30
0.0
 10
10.75391334160841
 20
7.302291599309794
 30
0.0
 10
10.72350425037475
 20
7.271896071453132
 30
0.0
 10
10.68602863972417
 20
7.271896071453132
 30
0.0
 10
10.64851233894258
 20
7.271896071453132
 30
0.0
 10
10.61811681108592
 20
7.302291599309794
 30
0.0
 10
10.61811681108592
 20
7.339780773337377
 30
0.0
 10
10.61811681108592
 20
7.37729707411896
 30
0.0
 10
10.64851233894258
 20
7.407679038598622
 30
0.0
 10
10.68602863972417
 20
7.407679038598622
 30
0.0
  0
SPLINE
  5
113
330
ED
100
AcDbEntity
  8
servo mounts
370
     0
100
AcDbSpline
210
0.0
220
0.0
230
1.0
 70
    11
 71
     3
 72
    17
 73
    13
 74
     0
 42
0.0000000001
 43
0.0000000001
 40
0.0
 40
0.0
 40
0.0
 40
0.0
 40
1.0
 40
1.0
 40
1.0
 40
2.0
 40
2.0
 40
2.0
 40
3.0
 40
3.0
 40
3.0
 40
4.0
 40
4.0
 40
4.0
 40
4.0
 10
12.92785140714424
 20
7.240808811369478
 30
0.0
 10
12.95067857063498
 20
7.240808811369478
 30
0.0
 10
12.96917901686277
 20
7.222308365141684
 30
0.0
 10
12.96917901686277
 20
7.199467638273938
 30
0.0
 10
12.96917901686277
 20
7.176626911406192
 30
0.0
 10
12.95067857063498
 20
7.158126465178397
 30
0.0
 10
12.92785140714424
 20
7.158126465178397
 30
0.0
 10
12.90501068027649
 20
7.158126465178397
 30
0.0
 10
12.8864966706717
 20
7.176626911406192
 30
0.0
 10
12.8864966706717
 20
7.199467638273938
 30
0.0
 10
12.8864966706717
 20
7.222308365141684
 30
0.0
 10
12.90501068027649
 20
7.240808811369478
 30
0.0
 10
12.92785140714424
 20
7.240808811369478
 30
0.0
  0
SPLINE
  5
114
330
ED
100
AcDbEntity
  8
servo mounts
370
     0
100
AcDbSpline
210
0.0
220
0.0
230
1.0
 70
    11
 71
     3
 72
    17
 73
    13
 74
     0
 42
0.0000000001
 43
0.0000000001
 40
0.0
 40
0.0
 40
0.0
 40
0.0
 40
1.0
 40
1.0
 40
1.0
 40
2.0
 40
2.0
 40
2.0
 40
3.0
 40
3.0
 40
3.0
 40
4.0
 40
4.0
 40
4.0
 40
4.0
 10
11.86375022799807
 20
7.241297092941473
 30
0.0
 10
11.88657739148881
 20
7.241297092941473
 30
0.0
 10
11.90507783771661
 20
7.222796646713678
 30
0.0
 10
11.90507783771661
 20
7.199955919845932
 30
0.0
 10
11.90507783771661
 20
7.177115192978186
 30
0.0
 10
11.88657739148881
 20
7.158614746750392
 30
0.0
 10
11.86375022799807
 20
7.158614746750392
 30
0.0
 10
11.84090950113032
 20
7.158614746750392
 30
0.0
 10
11.82239549152553
 20
7.177115192978186
 30
0.0
 10
11.82239549152553
 20
7.199955919845932
 30
0.0
 10
11.82239549152553
 20
7.222796646713678
 30
0.0
 10
11.84090950113032
 20
7.241297092941473
 30
0.0
 10
11.86375022799807
 20
7.241297092941473
 30
0.0
  0
ENDBLK
  5
F0
330
ED
100
AcDbEntity
  8
0
100
AcDbBlockEnd
  0
ENDSEC
  0
SECTION
  2
ENTITIES
  0
POLYLINE
  5
3C
330
1F
100
AcDbEntity
  8
slide table
370
     0
100
AcDb2dPolyline
 66
     1
 10
0.0
 20
0.0
 30
0.0
  0
VERTEX
  5
3D
330
3C
100
AcDbEntity
  8
slide table
370
     0
100
AcDbVertex
100
AcDb2dVertex
 10
0.7500004945836596
 20
12.49805511677301
 30
0.0
  0
VERTEX
  5
3E
330
3C
100
AcDbEntity
  8
slide table
370
     0
100
AcDbVertex
100
AcDb2dVertex
 10
0.7500004945836596
 20
2.261828748494847
 30
0.0
  0
VERTEX
  5
3F
330
3C
100
AcDbEntity
  8
slide table
370
     0
100
AcDbVertex
100
AcDb2dVertex
 10
7.167322434784295
 20
2.261828748494847
 30
0.0
  0
VERTEX
  5
40
330
3C
100
AcDbEntity
  8
slide table
370
     0
100
AcDbVertex
100
AcDb2dVertex
 10
7.167322434784295
 20
12.49805511677301
 30
0.0
  0
VERTEX
  5
41
330
3C
100
AcDbEntity
  8
slide table
370
     0
100
AcDbVertex
100
AcDb2dVertex
 10
0.7500004945836596
 20
12.49805511677301
 30
0.0
  0
SEQEND
  5
42
330
3C
100
AcDbEntity
  8
slide table
370
     0
  0
SPLINE
  5
43
330
1F
100
AcDbEntity
  8
slide table
370
     0
100
AcDbSpline
210
0.0
220
0.0
230
1.0
 70
    11
 71
     3
 72
    29
 73
    25
 74
     0
 42
0.0000000001
 43
0.0000000001
 40
0.0
 40
0.0
 40
0.0
 40
0.0
 40
1.0
 40
1.0
 40
1.0
 40
2.0
 40
2.0
 40
2.0
 40
3.0
 40
3.0
 40
3.0
 40
4.0
 40
4.0
 40
4.0
 40
5.0
 40
5.0
 40
5.0
 40
6.0
 40
6.0
 40
6.0
 40
7.0
 40
7.0
 40
7.0
 40
8.0
 40
8.0
 40
8.0
 40
8.0
 10
2.994101909339704
 20
8.59123287898246
 30
0.0
 10
2.994101909339704
 20
8.683273955303436
 30
0.0
 10
3.068727609592874
 20
8.757899655556606
 30
0.0
 10
3.16076868591385
 20
8.757899655556606
 30
0.0
 10
3.16076868591385
 20
8.757899655556606
 30
0.0
 10
4.008534001912423
 20
8.757899655556606
 30
0.0
 10
4.008534001912423
 20
8.757899655556606
 30
0.0
 10
4.100588641610399
 20
8.757899655556606
 30
0.0
 10
4.17520077848657
 20
8.683273955303436
 30
0.0
 10
4.17520077848657
 20
8.59123287898246
 30
0.0
 10
4.17520077848657
 20
8.59123287898246
 30
0.0
 10
4.17520077848657
 20
7.743453999606889
 30
0.0
 10
4.17520077848657
 20
7.743453999606889
 30
0.0
 10
4.17520077848657
 20
7.651399359908912
 30
0.0
 10
4.100588641610399
 20
7.576787223032742
 30
0.0
 10
4.008534001912423
 20
7.576787223032742
 30
0.0
 10
4.008534001912423
 20
7.576787223032742
 30
0.0
 10
3.16076868591385
 20
7.576787223032742
 30
0.0
 10
3.16076868591385
 20
7.576787223032742
 30
0.0
 10
3.068727609592874
 20
7.576787223032742
 30
0.0
 10
2.994101909339704
 20
7.651399359908912
 30
0.0
 10
2.994101909339704
 20
7.743453999606889
 30
0.0
 10
2.994101909339704
 20
7.743453999606889
 30
0.0
 10
2.994101909339704
 20
8.59123287898246
 30
0.0
 10
2.994101909339704
 20
8.59123287898246
 30
0.0
  0
SPLINE
  5
44
330
1F
100
AcDbEntity
  8
slide table
370
     0
100
AcDbSpline
210
0.0
220
0.0
230
1.0
 70
    11
 71
     3
 72
    20
 73
    16
 74
     0
 42
0.0000000001
 43
0.0000000001
 40
0.0
 40
0.0
 40
0.0
 40
0.0
 40
1.0
 40
1.0
 40
1.0
 40
2.0
 40
2.0
 40
2.0
 40
3.0
 40
3.0
 40
3.0
 40
4.0
 40
4.0
 40
4.0
 40
5.0
 40
5.0
 40
5.0
 40
5.0
 10
3.104317910840478
 20
2.891766229875842
 30
0.0
 10
2.23455279734815
 20
2.891766229875842
 30
0.0
 10
1.529501334141991
 20
3.596817693082001
 30
0.0
 10
1.529501334141991
 20
4.466582806574329
 30
0.0
 10
1.529501334141991
 20
4.514366583744797
 30
0.0
 10
1.531752854723966
 20
4.561621389212272
 30
0.0
 10
1.53591681146292
 20
4.608320096222752
 30
0.0
 10
1.53591681146292
 20
4.608320096222752
 30
0.0
 10
4.672705446841037
 20
4.608320096222752
 30
0.0
 10
4.672705446841037
 20
4.608320096222752
 30
0.0
 10
4.676869403579991
 20
4.561621389212272
 30
0.0
 10
4.679120924161966
 20
4.514366583744797
 30
0.0
 10
4.679120924161966
 20
4.466582806574329
 30
0.0
 10
4.679120924161966
 20
3.596817693082001
 30
0.0
 10
3.974055897578806
 20
2.891766229875842
 30
0.0
 10
3.104317910840478
 20
2.891766229875842
 30
0.0
  0
SPLINE
  5
45
330
1F
100
AcDbEntity
  8
slide table
370
     0
100
AcDbSpline
210
0.0
220
0.0
230
1.0
 70
    11
 71
     3
 72
    20
 73
    16
 74
     0
 42
0.0000000001
 43
0.0000000001
 40
0.0
 40
0.0
 40
0.0
 40
0.0
 40
1.0
 40
1.0
 40
1.0
 40
2.0
 40
2.0
 40
2.0
 40
3.0
 40
3.0
 40
3.0
 40
4.0
 40
4.0
 40
4.0
 40
5.0
 40
5.0
 40
5.0
 40
5.0
 10
4.994076101475463
 20
6.159482143433503
 30
0.0
 10
4.954348970242905
 20
6.159482143433503
 30
0.0
 10
4.914960923435343
 20
6.160987678280486
 30
0.0
 10
4.875966214560776
 20
6.163876677581454
 30
0.0
 10
4.875966214560776
 20
6.163876677581454
 30
0.0
 10
4.875966214560776
 20
9.304693635928526
 30
0.0
 10
4.875966214560776
 20
9.304693635928526
 30
0.0
 10
4.914960923435343
 20
9.307582635229494
 30
0.0
 10
4.954348970242905
 20
9.309088170076478
 30
0.0
 10
4.994076101475463
 20
9.309088170076478
 30
0.0
 10
5.863814088213791
 20
9.309088170076478
 30
0.0
 10
6.568879114796951
 20
8.604036706870318
 30
0.0
 10
6.568879114796951
 20
7.73429872013199
 30
0.0
 10
6.568879114796951
 20
6.864533606639663
 30
0.0
 10
5.863814088213791
 20
6.159482143433503
 30
0.0
 10
4.994076101475463
 20
6.159482143433503
 30
0.0
  0
INSERT
  5
47
330
1F
100
AcDbEntity
  8
slide table
100
AcDbBlockReference
  2
block 2
 10
0.0
 20
0.0
 30
0.0
  0
INSERT
  5
4F
330
1F
100
AcDbEntity
  8
slide table
100
AcDbBlockReference
  2
block 3
 10
0.0
 20
0.0
 30
0.0
  0
INSERT
  5
55
330
1F
100
AcDbEntity
  8
slide table
100
AcDbBlockReference
  2
block 4
 10
0.0
 20
0.0
 30
0.0
  0
INSERT
  5
5D
330
1F
100
AcDbEntity
  8
slide table
100
AcDbBlockReference
  2
block 5
 10
0.0
 20
0.0
 30
0.0
  0
SPLINE
  5
AF
330
1F
100
AcDbEntity
  8
camera mount 2
370
     0
100
AcDbSpline
210
0.0
220
0.0
230
1.0
 70
    11
 71
     3
 72
    17
 73
    13
 74
     0
 42
0.0000000001
 43
0.0000000001
 40
0.0
 40
0.0
 40
0.0
 40
0.0
 40
1.0
 40
1.0
 40
1.0
 40
2.0
 40
2.0
 40
2.0
 40
3.0
 40
3.0
 40
3.0
 40
4.0
 40
4.0
 40
4.0
 40
4.0
 10
8.75048048833769
 20
2.63202756032873
 30
0.0
 10
8.683409589073435
 20
2.63202756032873
 30
0.0
 10
8.62902044730404
 20
2.686403138721126
 30
0.0
 10
8.62902044730404
 20
2.75347403798538
 30
0.0
 10
8.62902044730404
 20
2.820544937249634
 30
0.0
 10
8.683409589073435
 20
2.874934079019029
 30
0.0
 10
8.75048048833769
 20
2.874934079019029
 30
0.0
 10
8.817564950978943
 20
2.874934079019029
 30
0.0
 10
8.871926965994339
 20
2.820544937249634
 30
0.0
 10
8.871926965994339
 20
2.75347403798538
 30
0.0
 10
8.871926965994339
 20
2.686403138721126
 30
0.0
 10
8.817564950978943
 20
2.63202756032873
 30
0.0
 10
8.75048048833769
 20
2.63202756032873
 30
0.0
  0
SPLINE
  5
B0
330
1F
100
AcDbEntity
  8
camera mount 2
370
     0
100
AcDbSpline
210
0.0
220
0.0
230
1.0
 70
    11
 71
     3
 72
    17
 73
    13
 74
     0
 42
0.0000000001
 43
0.0000000001
 40
0.0
 40
0.0
 40
0.0
 40
0.0
 40
1.0
 40
1.0
 40
1.0
 40
2.0
 40
2.0
 40
2.0
 40
3.0
 40
3.0
 40
3.0
 40
4.0
 40
4.0
 40
4.0
 40
4.0
 10
14.42307808760761
 20
2.628026364113775
 30
0.0
 10
14.35600718834335
 20
2.628026364113775
 30
0.0
 10
14.30161804657396
 20
2.68240194250617
 30
0.0
 10
14.30161804657396
 20
2.749472841770424
 30
0.0
 10
14.30161804657396
 20
2.816557304411678
 30
0.0
 10
14.35600718834335
 20
2.870919319427073
 30
0.0
 10
14.42307808760761
 20
2.870919319427073
 30
0.0
 10
14.49016255024886
 20
2.870919319427073
 30
0.0
 10
14.54453812864126
 20
2.816557304411678
 30
0.0
 10
14.54453812864126
 20
2.749472841770424
 30
0.0
 10
14.54453812864126
 20
2.68240194250617
 30
0.0
 10
14.49016255024886
 20
2.628026364113775
 30
0.0
 10
14.42307808760761
 20
2.628026364113775
 30
0.0
  0
SPLINE
  5
B1
330
1F
100
AcDbEntity
  8
camera mount 2
370
     0
100
AcDbSpline
210
0.0
220
0.0
230
1.0
 70
    11
 71
     3
 72
    29
 73
    25
 74
     0
 42
0.0000000001
 43
0.0000000001
 40
0.0
 40
0.0
 40
0.0
 40
0.0
 40
1.0
 40
1.0
 40
1.0
 40
2.0
 40
2.0
 40
2.0
 40
3.0
 40
3.0
 40
3.0
 40
4.0
 40
4.0
 40
4.0
 40
5.0
 40
5.0
 40
5.0
 40
6.0
 40
6.0
 40
6.0
 40
7.0
 40
7.0
 40
7.0
 40
8.0
 40
8.0
 40
8.0
 40
8.0
 10
8.690313347966358
 20
2.261950818887846
 30
0.0
 10
8.38350976022977
 20
2.264839818188813
 30
0.0
 10
8.435484620893192
 20
2.224963489809257
 30
0.0
 10
8.435484620893192
 20
2.578180953639329
 30
0.0
 10
8.435484620893192
 20
2.578180953639329
 30
0.0
 10
8.435484620893192
 20
2.941720147366286
 30
0.0
 10
8.435484620893192
 20
2.941720147366286
 30
0.0
 10
8.435484620893192
 20
3.116362189616344
 30
0.0
 10
8.549579748215924
 20
3.25795028211777
 30
0.0
 10
8.690313347966358
 20
3.25795028211777
 30
0.0
 10
8.690313347966358
 20
3.25795028211777
 30
0.0
 10
14.49516743636181
 20
3.25795028211777
 30
0.0
 10
14.49516743636181
 20
3.25795028211777
 30
0.0
 10
14.63591459948924
 20
3.25795028211777
 30
0.0
 10
14.75000972681197
 20
3.116362189616344
 30
0.0
 10
14.75000972681197
 20
2.941720147366286
 30
0.0
 10
14.75000972681197
 20
2.941720147366286
 30
0.0
 10
14.75000972681197
 20
2.578180953639329
 30
0.0
 10
14.75000972681197
 20
2.578180953639329
 30
0.0
 10
14.75000972681197
 20
2.403538911389271
 30
0.0
 10
14.63591459948924
 20
2.261950818887846
 30
0.0
 10
14.49516743636181
 20
2.261950818887846
 30
0.0
 10
14.49516743636181
 20
2.261950818887846
 30
0.0
 10
8.690313347966358
 20
2.261950818887846
 30
0.0
 10
8.690313347966358
 20
2.261950818887846
 30
0.0
  0
SPLINE
  5
B2
330
1F
100
AcDbEntity
  8
camera mount 2
370
     0
100
AcDbSpline
210
0.0
220
0.0
230
1.0
 70
    11
 71
     3
 72
    17
 73
    13
 74
     0
 42
0.0000000001
 43
0.0000000001
 40
0.0
 40
0.0
 40
0.0
 40
0.0
 40
1.0
 40
1.0
 40
1.0
 40
2.0
 40
2.0
 40
2.0
 40
3.0
 40
3.0
 40
3.0
 40
4.0
 40
4.0
 40
4.0
 40
4.0
 10
11.97194528632586
 20
2.569947983800421
 30
0.0
 10
11.86701900185503
 20
2.569947983800421
 30
0.0
 10
11.78194950131198
 20
2.655003920966475
 30
0.0
 10
11.78194950131198
 20
2.759943768814308
 30
0.0
 10
11.78194950131198
 20
2.864883616662141
 30
0.0
 10
11.86701900185503
 20
2.949953117205195
 30
0.0
 10
11.97194528632586
 20
2.949953117205195
 30
0.0
 10
12.0768715707967
 20
2.949953117205195
 30
0.0
 10
12.16194107133975
 20
2.864883616662141
 30
0.0
 10
12.16194107133975
 20
2.759943768814308
 30
0.0
 10
12.16194107133975
 20
2.655003920966475
 30
0.0
 10
12.0768715707967
 20
2.569947983800421
 30
0.0
 10
11.97194528632586
 20
2.569947983800421
 30
0.0
  0
SPLINE
  5
B4
330
1F
100
AcDbEntity
  8
camera mount
370
     0
100
AcDbSpline
210
0.0
220
0.0
230
1.0
 70
    11
 71
     3
 72
    17
 73
    13
 74
     0
 42
0.0000000001
 43
0.0000000001
 40
0.0
 40
0.0
 40
0.0
 40
0.0
 40
1.0
 40
1.0
 40
1.0
 40
2.0
 40
2.0
 40
2.0
 40
3.0
 40
3.0
 40
3.0
 40
4.0
 40
4.0
 40
4.0
 40
4.0
 10
8.75048048833769
 20
3.717667382150657
 30
0.0
 10
8.683409589073435
 20
3.717667382150657
 30
0.0
 10
8.62902044730404
 20
3.772042960543053
 30
0.0
 10
8.62902044730404
 20
3.839113859807307
 30
0.0
 10
8.62902044730404
 20
3.906184759071561
 30
0.0
 10
8.683409589073435
 20
3.960573900840956
 30
0.0
 10
8.75048048833769
 20
3.960573900840956
 30
0.0
 10
8.817564950978943
 20
3.960573900840956
 30
0.0
 10
8.871926965994339
 20
3.906184759071561
 30
0.0
 10
8.871926965994339
 20
3.839113859807307
 30
0.0
 10
8.871926965994339
 20
3.772042960543053
 30
0.0
 10
8.817564950978943
 20
3.717667382150657
 30
0.0
 10
8.75048048833769
 20
3.717667382150657
 30
0.0
  0
SPLINE
  5
B5
330
1F
100
AcDbEntity
  8
camera mount
370
     0
100
AcDbSpline
210
0.0
220
0.0
230
1.0
 70
    11
 71
     3
 72
    17
 73
    13
 74
     0
 42
0.0000000001
 43
0.0000000001
 40
0.0
 40
0.0
 40
0.0
 40
0.0
 40
1.0
 40
1.0
 40
1.0
 40
2.0
 40
2.0
 40
2.0
 40
3.0
 40
3.0
 40
3.0
 40
4.0
 40
4.0
 40
4.0
 40
4.0
 10
14.42307808760761
 20
3.713666185935702
 30
0.0
 10
14.35600718834335
 20
3.713666185935702
 30
0.0
 10
14.30161804657396
 20
3.768041764328097
 30
0.0
 10
14.30161804657396
 20
3.835112663592351
 30
0.0
 10
14.30161804657396
 20
3.902197126233605
 30
0.0
 10
14.35600718834335
 20
3.956559141249001
 30
0.0
 10
14.42307808760761
 20
3.956559141249001
 30
0.0
 10
14.49016255024886
 20
3.956559141249001
 30
0.0
 10
14.54453812864126
 20
3.902197126233605
 30
0.0
 10
14.54453812864126
 20
3.835112663592351
 30
0.0
 10
14.54453812864126
 20
3.768041764328097
 30
0.0
 10
14.49016255024886
 20
3.713666185935702
 30
0.0
 10
14.42307808760761
 20
3.713666185935702
 30
0.0
  0
SPLINE
  5
B6
330
1F
100
AcDbEntity
  8
camera mount
370
     0
100
AcDbSpline
210
0.0
220
0.0
230
1.0
 70
    11
 71
     3
 72
    29
 73
    25
 74
     0
 42
0.0000000001
 43
0.0000000001
 40
0.0
 40
0.0
 40
0.0
 40
0.0
 40
1.0
 40
1.0
 40
1.0
 40
2.0
 40
2.0
 40
2.0
 40
3.0
 40
3.0
 40
3.0
 40
4.0
 40
4.0
 40
4.0
 40
5.0
 40
5.0
 40
5.0
 40
6.0
 40
6.0
 40
6.0
 40
7.0
 40
7.0
 40
7.0
 40
8.0
 40
8.0
 40
8.0
 40
8.0
 10
8.690313347966358
 20
3.347590640709773
 30
0.0
 10
8.38350976022977
 20
3.350479640010741
 30
0.0
 10
8.435484620893192
 20
3.310603311631184
 30
0.0
 10
8.435484620893192
 20
3.663820775461256
 30
0.0
 10
8.435484620893192
 20
3.663820775461256
 30
0.0
 10
8.435484620893192
 20
4.027359969188213
 30
0.0
 10
8.435484620893192
 20
4.027359969188213
 30
0.0
 10
8.435484620893192
 20
4.202002011438271
 30
0.0
 10
8.549579748215924
 20
4.343590103939697
 30
0.0
 10
8.690313347966358
 20
4.343590103939697
 30
0.0
 10
8.690313347966358
 20
4.343590103939697
 30
0.0
 10
14.49516743636181
 20
4.343590103939697
 30
0.0
 10
14.49516743636181
 20
4.343590103939697
 30
0.0
 10
14.63591459948924
 20
4.343590103939697
 30
0.0
 10
14.75000972681197
 20
4.202002011438271
 30
0.0
 10
14.75000972681197
 20
4.027359969188213
 30
0.0
 10
14.75000972681197
 20
4.027359969188213
 30
0.0
 10
14.75000972681197
 20
3.663820775461256
 30
0.0
 10
14.75000972681197
 20
3.663820775461256
 30
0.0
 10
14.75000972681197
 20
3.489178733211198
 30
0.0
 10
14.63591459948924
 20
3.347590640709773
 30
0.0
 10
14.49516743636181
 20
3.347590640709773
 30
0.0
 10
14.49516743636181
 20
3.347590640709773
 30
0.0
 10
8.690313347966358
 20
3.347590640709773
 30
0.0
 10
8.690313347966358
 20
3.347590640709773
 30
0.0
  0
SPLINE
  5
B7
330
1F
100
AcDbEntity
  8
camera mount
370
     0
100
AcDbSpline
210
0.0
220
0.0
230
1.0
 70
    11
 71
     3
 72
    17
 73
    13
 74
     0
 42
0.0000000001
 43
0.0000000001
 40
0.0
 40
0.0
 40
0.0
 40
0.0
 40
1.0
 40
1.0
 40
1.0
 40
2.0
 40
2.0
 40
2.0
 40
3.0
 40
3.0
 40
3.0
 40
4.0
 40
4.0
 40
4.0
 40
4.0
 10
11.97194528632586
 20
3.655587805622348
 30
0.0
 10
11.86701900185503
 20
3.655587805622348
 30
0.0
 10
11.78194950131198
 20
3.740643742788402
 30
0.0
 10
11.78194950131198
 20
3.845583590636235
 30
0.0
 10
11.78194950131198
 20
3.950523438484068
 30
0.0
 10
11.86701900185503
 20
4.035592939027122
 30
0.0
 10
11.97194528632586
 20
4.035592939027122
 30
0.0
 10
12.0768715707967
 20
4.035592939027122
 30
0.0
 10
12.16194107133975
 20
3.950523438484068
 30
0.0
 10
12.16194107133975
 20
3.845583590636235
 30
0.0
 10
12.16194107133975
 20
3.740643742788402
 30
0.0
 10
12.0768715707967
 20
3.655587805622348
 30
0.0
 10
11.97194528632586
 20
3.655587805622348
 30
0.0
  0
INSERT
  5
BA
330
1F
100
AcDbEntity
  8
servo mounts
100
AcDbBlockReference
  2
block 8
 10
0.0
 20
0.0
 30
0.0
  0
INSERT
  5
D6
330
1F
100
AcDbEntity
  8
servo mounts
100
AcDbBlockReference
  2
block 9
 10
0.0
 20
0.0
 30
0.0
  0
INSERT
  5
DA
330
1F
100
AcDbEntity
  8
servo mounts
100
AcDbBlockReference
  2
block 10
 10
0.0
 20
0.0
 30
0.0
  0
INSERT
  5
EE
330
1F
100
AcDbEntity
  8
servo mounts
100
AcDbBlockReference
  2
block 11
 10
0.0
 20
0.0
 30
0.0
  0
ENDSEC
  0
SECTION
  2
OBJECTS
  0
DICTIONARY
  5
C
330
0
100
AcDbDictionary
281
     1
  3
ACAD_GROUP
350
D
  3
ACAD_LAYOUT
350
1A
  3
ACAD_MLINESTYLE
350
17
  3
ACAD_PLOTSETTINGS
350
19
  3
ACAD_PLOTSTYLENAME
350
E
  3
ACAD_TABLESTYLE
350
115
  3
ACAD_VISUALSTYLE
350
2A
  0
DICTIONARY
  5
D
102
{ACAD_REACTORS
330
C
102
}
330
C
100
AcDbDictionary
281
     1
  0
DICTIONARY
  5
1A
102
{ACAD_REACTORS
330
C
102
}
330
C
100
AcDbDictionary
281
     1
  3
Layout1
350
1E
  3
Layout2
350
26
  3
Model
350
22
  0
DICTIONARY
  5
17
102
{ACAD_REACTORS
330
C
102
}
330
C
100
AcDbDictionary
281
     1
  3
Standard
350
18
  0
DICTIONARY
  5
19
102
{ACAD_REACTORS
330
C
102
}
330
C
100
AcDbDictionary
281
     1
  0
ACDBDICTIONARYWDFLT
  5
E
102
{ACAD_REACTORS
330
C
102
}
330
C
100
AcDbDictionary
281
     1
  3
Normal
350
F
100
AcDbDictionaryWithDefault
340
F
  0
DICTIONARY
  5
115
102
{ACAD_REACTORS
330
C
102
}
330
C
100
AcDbDictionary
281
     1
  0
DICTIONARY
  5
2A
102
{ACAD_REACTORS
330
C
102
}
330
C
100
AcDbDictionary
281
     1
  3
2dWireframe
350
2F
  3
3D Hidden
350
31
  3
3dWireframe
350
30
  3
Basic
350
32
  3
Brighten
350
36
  3
ColorChange
350
3A
  3
Conceptual
350
34
  3
Dim
350
35
  3
Facepattern
350
39
  3
Flat
350
2B
  3
FlatWithEdges
350
2C
  3
Gouraud
350
2D
  3
GouraudWithEdges
350
2E
  3
Linepattern
350
38
  3
Realistic
350
33
  3
Thicken
350
37
  0
LAYOUT
  5
1E
102
{ACAD_REACTORS
330
1A
102
}
330
1A
100
AcDbPlotSettings
  1

  2
none_device
  4

  6

 40
0.0
 41
0.0
 42
0.0
 43
0.0
 44
0.0
 45
0.0
 46
0.0
 47
0.0
 48
0.0
 49
0.0
140
0.0
141
0.0
142
1.0
143
1.0
 70
   688
 72
     0
 73
     0
 74
     5
  7

 75
    16
147
1.0
148
0.0
149
0.0
100
AcDbLayout
  1
Layout1
 70
     1
 71
     1
 10
0.0
 20
0.0
 11
12.0
 21
9.0
 12
0.0
 22
0.0
 32
0.0
 14
1.000000000000000E+20
 24
1.000000000000000E+20
 34
1.000000000000000E+20
 15
-1.000000000000000E+20
 25
-1.000000000000000E+20
 35
-1.000000000000000E+20
146
0.0
 13
0.0
 23
0.0
 33
0.0
 16
1.0
 26
0.0
 36
0.0
 17
0.0
 27
1.0
 37
0.0
 76
     0
330
1B
  0
LAYOUT
  5
26
102
{ACAD_REACTORS
330
1A
102
}
330
1A
100
AcDbPlotSettings
  1

  2
none_device
  4

  6

 40
0.0
 41
0.0
 42
0.0
 43
0.0
 44
0.0
 45
0.0
 46
0.0
 47
0.0
 48
0.0
 49
0.0
140
0.0
141
0.0
142
1.0
143
1.0
 70
   688
 72
     0
 73
     0
 74
     5
  7

 75
    16
147
1.0
148
0.0
149
0.0
100
AcDbLayout
  1
Layout2
 70
     1
 71
     2
 10
0.0
 20
0.0
 11
0.0
 21
0.0
 12
0.0
 22
0.0
 32
0.0
 14
0.0
 24
0.0
 34
0.0
 15
0.0
 25
0.0
 35
0.0
146
0.0
 13
0.0
 23
0.0
 33
0.0
 16
1.0
 26
0.0
 36
0.0
 17
0.0
 27
1.0
 37
0.0
 76
     0
330
23
  0
LAYOUT
  5
22
102
{ACAD_REACTORS
330
1A
102
}
330
1A
100
AcDbPlotSettings
  1

  2
none_device
  4

  6

 40
0.0
 41
0.0
 42
0.0
 43
0.0
 44
0.0
 45
0.0
 46
0.0
 47
0.0
 48
0.0
 49
0.0
140
0.0
141
0.0
142
1.0
143
1.0
 70
  1712
 72
     0
 73
     0
 74
     0
  7

 75
     0
147
1.0
148
0.0
149
0.0
100
AcDbLayout
  1
Model
 70
     1
 71
     0
 10
0.0
 20
0.0
 11
12.0
 21
9.0
 12
0.0
 22
0.0
 32
0.0
 14
1.000000000000000E+20
 24
1.000000000000000E+20
 34
1.000000000000000E+20
 15
-1.000000000000000E+20
 25
-1.000000000000000E+20
 35
-1.000000000000000E+20
146
0.0
 13
0.0
 23
0.0
 33
0.0
 16
1.0
 26
0.0
 36
0.0
 17
0.0
 27
1.0
 37
0.0
 76
     0
330
1F
331
29
  0
MLINESTYLE
  5
18
102
{ACAD_REACTORS
330
17
102
}
330
17
100
AcDbMlineStyle
  2
Standard
 70
     0
  3

 62
   256
 51
90.0
 52
90.0
 71
     2
 49
0.5
 62
   256
  6
BYLAYER
 49
-0.5
 62
   256
  6
BYLAYER
  0
ACDBPLACEHOLDER
  5
F
102
{ACAD_REACTORS
330
E
102
}
330
E
  0
VISUALSTYLE
  5
2F
102
{ACAD_REACTORS
330
2A
102
}
330
2A
100
AcDbVisualStyle
  2
2dWireframe
 70
     4
 71
     0
 72
     2
 73
     0
 90
        0
 40
-0.6
 41
-30.0
 62
     5
 63
     7
 74
     1
 91
        4
 64
     7
 65
   257
 75
     1
175
     1
 42
1.0
 92
        0
 66
   257
 43
1.0
 76
     1
 77
     6
 78
     2
 67
     7
 79
     5
170
     0
171
     0
290
     0
174
     0
 93
        1
 44
0.0
173
     0
291
     0
 45
0.0
1001
ACAD
1000
AcDbSavedByObjectVersion
1070
     0
  0
VISUALSTYLE
  5
31
102
{ACAD_REACTORS
330
2A
102
}
330
2A
100
AcDbVisualStyle
  2
3D Hidden
 70
     6
 71
     1
 72
     2
 73
     2
 90
        0
 40
-0.6
 41
-30.0
 62
     5
 63
     7
 74
     2
 91
        2
 64
     7
 65
   257
 75
     2
175
     1
 42
40.0
 92
        0
 66
   257
 43
1.0
 76
     1
 77
     6
 78
     2
 67
     7
 79
     3
170
     0
171
     0
290
     0
174
     0
 93
        1
 44
0.0
173
     0
291
     0
 45
0.0
1001
ACAD
1000
AcDbSavedByObjectVersion
1070
     0
  0
VISUALSTYLE
  5
30
102
{ACAD_REACTORS
330
2A
102
}
330
2A
100
AcDbVisualStyle
  2
3dWireframe
 70
     5
 71
     0
 72
     2
 73
     0
 90
        0
 40
-0.6
 41
-30.0
 62
     5
 63
     7
 74
     1
 91
        4
 64
     7
 65
   257
 75
     1
175
     1
 42
1.0
 92
        0
 66
   257
 43
1.0
 76
     1
 77
     6
 78
     2
 67
     7
 79
     5
170
     0
171
     0
290
     0
174
     0
 93
        1
 44
0.0
173
     0
291
     0
 45
0.0
1001
ACAD
1000
AcDbSavedByObjectVersion
1070
     0
  0
VISUALSTYLE
  5
32
102
{ACAD_REACTORS
330
2A
102
}
330
2A
100
AcDbVisualStyle
  2
Basic
 70
     7
 71
     1
 72
     0
 73
     1
 90
        0
 40
-0.6
 41
-30.0
 62
     5
 63
     7
 74
     0
 91
        4
 64
     7
 65
   257
 75
     1
175
     1
 42
1.0
 92
        8
 66
     7
 43
1.0
 76
     1
 77
     6
 78
     2
 67
     7
 79
     5
170
     0
171
     0
290
     0
174
     0
 93
        1
 44
0.0
173
     0
291
     1
 45
0.0
1001
ACAD
1000
AcDbSavedByObjectVersion
1070
     0
  0
VISUALSTYLE
  5
36
102
{ACAD_REACTORS
330
2A
102
}
330
2A
100
AcDbVisualStyle
  2
Brighten
 70
    12
 71
     2
 72
     2
 73
     0
 90
        0
 40
-0.6
 41
-30.0
 62
     5
 63
     7
 74
     1
 91
        4
 64
     7
 65
   257
 75
     1
175
     1
 42
1.0
 92
        8
 66
     7
 43
1.0
 76
     1
 77
     6
 78
     2
 67
     7
 79
     5
170
     0
171
     0
290
     0
174
     0
 93
        1
 44
50.0
173
     0
291
     1
 45
0.0
1001
ACAD
1000
AcDbSavedByObjectVersion
1070
     0
  0
VISUALSTYLE
  5
3A
102
{ACAD_REACTORS
330
2A
102
}
330
2A
100
AcDbVisualStyle
  2
ColorChange
 70
    16
 71
     2
 72
     2
 73
     3
 90
        0
 40
-0.6
 41
-30.0
 62
     5
 63
     8
 74
     1
 91
        4
 64
     7
 65
   257
 75
     1
175
     1
 42
1.0
 92
        8
 66
     8
 43
1.0
 76
     1
 77
     6
 78
     2
 67
     7
 79
     5
170
     0
171
     0
290
     0
174
     0
 93
        1
 44
0.0
173
     0
291
     1
 45
0.0
1001
ACAD
1000
AcDbSavedByObjectVersion
1070
     0
  0
VISUALSTYLE
  5
34
102
{ACAD_REACTORS
330
2A
102
}
330
2A
100
AcDbVisualStyle
  2
Conceptual
 70
     9
 71
     3
 72
     2
 73
     0
 90
        0
 40
-0.6
 41
-30.0
 62
     5
 63
     7
 74
     2
 91
        2
 64
     7
 65
   257
 75
     1
175
     1
 42
40.0
 92
        8
 66
     7
 43
1.0
 76
     1
 77
     6
 78
     2
 67
     7
 79
     3
170
     0
171
     0
290
     0
174
     0
 93
        1
 44
0.0
173
     0
291
     0
 45
0.0
1001
ACAD
1000
AcDbSavedByObjectVersion
1070
     0
  0
VISUALSTYLE
  5
35
102
{ACAD_REACTORS
330
2A
102
}
330
2A
100
AcDbVisualStyle
  2
Dim
 70
    11
 71
     2
 72
     2
 73
     0
 90
        0
 40
-0.6
 41
-30.0
 62
     5
 63
     7
 74
     1
 91
        4
 64
     7
 65
   257
 75
     1
175
     1
 42
1.0
 92
        8
 66
     7
 43
1.0
 76
     1
 77
     6
 78
     2
 67
     7
 79
     5
170
     0
171
     0
290
     0
174
     0
 93
        1
 44
-50.0
173
     0
291
     1
 45
0.0
1001
ACAD
1000
AcDbSavedByObjectVersion
1070
     0
  0
VISUALSTYLE
  5
39
102
{ACAD_REACTORS
330
2A
102
}
330
2A
100
AcDbVisualStyle
  2
Facepattern
 70
    15
 71
     2
 72
     2
 73
     0
 90
        0
 40
-0.6
 41
-30.0
 62
     5
 63
     7
 74
     1
 91
        4
 64
     7
 65
   257
 75
     1
175
     1
 42
1.0
 92
        8
 66
     7
 43
1.0
 76
     1
 77
     6
 78
     2
 67
     7
 79
     5
170
     0
171
     0
290
     0
174
     0
 93
        1
 44
0.0
173
     0
291
     1
 45
0.0
1001
ACAD
1000
AcDbSavedByObjectVersion
1070
     0
  0
VISUALSTYLE
  5
2B
102
{ACAD_REACTORS
330
2A
102
}
330
2A
100
AcDbVisualStyle
  2
Flat
 70
     0
 71
     2
 72
     1
 73
     1
 90
        2
 40
-0.6
 41
30.0
 62
     5
 63
     7
 74
     0
 91
        4
 64
     7
 65
   257
 75
     1
175
     1
 42
1.0
 92
        8
 66
     7
 43
1.0
 76
     1
 77
     6
 78
     2
 67
     7
 79
     5
170
     0
171
     0
290
     0
174
     0
 93
       13
 44
0.0
173
     0
291
     1
 45
0.0
1001
ACAD
1000
AcDbSavedByObjectVersion
1070
     0
  0
VISUALSTYLE
  5
2C
102
{ACAD_REACTORS
330
2A
102
}
330
2A
100
AcDbVisualStyle
  2
FlatWithEdges
 70
     1
 71
     2
 72
     1
 73
     1
 90
        2
 40
-0.6
 41
30.0
 62
     5
 63
     7
 74
     1
 91
        4
 64
     7
 65
   257
 75
     1
175
     1
 42
1.0
 92
        0
 66
   257
 43
1.0
 76
     1
 77
     6
 78
     2
 67
     7
 79
     5
170
     0
171
     0
290
     0
174
     0
 93
       13
 44
0.0
173
     0
291
     1
 45
0.0
1001
ACAD
1000
AcDbSavedByObjectVersion
1070
     0
  0
VISUALSTYLE
  5
2D
102
{ACAD_REACTORS
330
2A
102
}
330
2A
100
AcDbVisualStyle
  2
Gouraud
 70
     2
 71
     2
 72
     2
 73
     1
 90
        2
 40
-0.6
 41
30.0
 62
     5
 63
     7
 74
     0
 91
        4
 64
     7
 65
   257
 75
     1
175
     1
 42
1.0
 92
        0
 66
     7
 43
1.0
 76
     1
 77
     6
 78
     2
 67
     7
 79
     5
170
     0
171
     0
290
     0
174
     0
 93
       13
 44
0.0
173
     0
291
     1
 45
0.0
1001
ACAD
1000
AcDbSavedByObjectVersion
1070
     0
  0
VISUALSTYLE
  5
2E
102
{ACAD_REACTORS
330
2A
102
}
330
2A
100
AcDbVisualStyle
  2
GouraudWithEdges
 70
     3
 71
     2
 72
     2
 73
     1
 90
        2
 40
-0.6
 41
30.0
 62
     5
 63
     7
 74
     1
 91
        4
 64
     7
 65
   257
 75
     1
175
     1
 42
1.0
 92
        0
 66
   257
 43
1.0
 76
     1
 77
     6
 78
     2
 67
     7
 79
     5
170
     0
171
     0
290
     0
174
     0
 93
       13
 44
0.0
173
     0
291
     1
 45
0.0
1001
ACAD
1000
AcDbSavedByObjectVersion
1070
     0
  0
VISUALSTYLE
  5
38
102
{ACAD_REACTORS
330
2A
102
}
330
2A
100
AcDbVisualStyle
  2
Linepattern
 70
    14
 71
     2
 72
     2
 73
     0
 90
        0
 40
-0.6
 41
-30.0
 62
     5
 63
     7
 74
     1
 91
        4
 64
     7
 65
   257
 75
     7
175
     7
 42
1.0
 92
        8
 66
     7
 43
1.0
 76
     1
 77
     6
 78
     2
 67
     7
 79
     5
170
     0
171
     0
290
     0
174
     0
 93
        1
 44
0.0
173
     0
291
     1
 45
0.0
1001
ACAD
1000
AcDbSavedByObjectVersion
1070
     0
  0
VISUALSTYLE
  5
33
102
{ACAD_REACTORS
330
2A
102
}
330
2A
100
AcDbVisualStyle
  2
Realistic
 70
     8
 71
     2
 72
     2
 73
     0
 90
        0
 40
-0.6
 41
-30.0
 62
     5
 63
     7
 74
     1
 91
        0
 64
     7
 65
   257
 75
     1
175
     1
 42
1.0
 92
        8
 66
     8
 43
1.0
 76
     1
 77
     6
 78
     2
 67
     7
 79
     5
170
     0
171
     0
290
     0
174
     0
 93
       13
 44
0.0
173
     0
291
     0
 45
0.0
1001
ACAD
1000
AcDbSavedByObjectVersion
1070
     0
  0
VISUALSTYLE
  5
37
102
{ACAD_REACTORS
330
2A
102
}
330
2A
100
AcDbVisualStyle
  2
Thicken
 70
    13
 71
     2
 72
     2
 73
     0
 90
        0
 40
-0.6
 41
-30.0
 62
     5
 63
     7
 74
     1
 91
        4
 64
     7
 65
   257
 75
     1
175
     1
 42
1.0
 92
       12
 66
     7
 43
1.0
 76
     1
 77
     6
 78
     2
 67
     7
 79
     5
170
     0
171
     0
290
     0
174
     0
 93
        1
 44
0.0
173
     0
291
     1
 45
0.0
1001
ACAD
1000
AcDbSavedByObjectVersion
1070
     0
  0
ENDSEC
  0
EOF
