  0
SECTION
  2
HEADER
  9
$ACADVER
  1
AC1015
  9
$ACADMAINTVER
 70
     6
  9
$DWGCODEPAGE
  3
ASCII
  9
$INSBASE
 10
0.0
 20
0.0
 30
0.0
  9
$EXTMIN
 10
1.000000000000000E+20
 20
1.000000000000000E+20
 30
1.000000000000000E+20
  9
$EXTMAX
 10
-1.000000000000000E+20
 20
-1.000000000000000E+20
 30
-1.000000000000000E+20
  9
$LIMMIN
 10
0.0
 20
0.0
  9
$LIMMAX
 10
12.0
 20
9.0
  9
$ORTHOMODE
 70
     0
  9
$REGENMODE
 70
     1
  9
$FILLMODE
 70
     1
  9
$QTEXTMODE
 70
     0
  9
$MIRRTEXT
 70
     1
  9
$LTSCALE
 40
1.0
  9
$ATTMODE
 70
     1
  9
$TEXTSIZE
 40
0.2
  9
$TRACEWID
 40
0.05
  9
$TEXTSTYLE
  7
Standard
  9
$CLAYER
  8
0
  9
$CELTYPE
  6
ByLayer
  9
$CECOLOR
 62
   256
  9
$CELTSCALE
 40
1.0
  9
$DISPSILH
 70
     0
  9
$DIMSCALE
 40
1.0
  9
$DIMASZ
 40
0.18
  9
$DIMEXO
 40
0.0625
  9
$DIMDLI
 40
0.38
  9
$DIMRND
 40
0.0
  9
$DIMDLE
 40
0.0
  9
$DIMEXE
 40
0.18
  9
$DIMTP
 40
0.0
  9
$DIMTM
 40
0.0
  9
$DIMTXT
 40
0.18
  9
$DIMCEN
 40
0.09
  9
$DIMTSZ
 40
0.0
  9
$DIMTOL
 70
     0
  9
$DIMLIM
 70
     0
  9
$DIMTIH
 70
     1
  9
$DIMTOH
 70
     1
  9
$DIMSE1
 70
     0
  9
$DIMSE2
 70
     0
  9
$DIMTAD
 70
     0
  9
$DIMZIN
 70
     0
  9
$DIMBLK
  1

  9
$DIMASO
 70
     1
  9
$DIMSHO
 70
     1
  9
$DIMPOST
  1

  9
$DIMAPOST
  1

  9
$DIMALT
 70
     0
  9
$DIMALTD
 70
     2
  9
$DIMALTF
 40
25.4
  9
$DIMLFAC
 40
1.0
  9
$DIMTOFL
 70
     0
  9
$DIMTVP
 40
0.0
  9
$DIMTIX
 70
     0
  9
$DIMSOXD
 70
     0
  9
$DIMSAH
 70
     0
  9
$DIMBLK1
  1

  9
$DIMBLK2
  1

  9
$DIMSTYLE
  2
Standard
  9
$DIMCLRD
 70
     0
  9
$DIMCLRE
 70
     0
  9
$DIMCLRT
 70
     0
  9
$DIMTFAC
 40
1.0
  9
$DIMGAP
 40
0.09
  9
$DIMJUST
 70
     0
  9
$DIMSD1
 70
     0
  9
$DIMSD2
 70
     0
  9
$DIMTOLJ
 70
     1
  9
$DIMTZIN
 70
     0
  9
$DIMALTZ
 70
     0
  9
$DIMALTTZ
 70
     0
  9
$DIMUPT
 70
     0
  9
$DIMDEC
 70
     4
  9
$DIMTDEC
 70
     4
  9
$DIMALTU
 70
     2
  9
$DIMALTTD
 70
     2
  9
$DIMTXSTY
  7
Standard
  9
$DIMAUNIT
 70
     0
  9
$DIMADEC
 70
     0
  9
$DIMALTRND
 40
0.0
  9
$DIMAZIN
 70
     0
  9
$DIMDSEP
 70
    46
  9
$DIMATFIT
 70
     3
  9
$DIMFRAC
 70
     0
  9
$DIMLDRBLK
  1

  9
$DIMLUNIT
 70
     2
  9
$DIMLWD
 70
    -2
  9
$DIMLWE
 70
    -2
  9
$DIMTMOVE
 70
     0
  9
$LUNITS
 70
     2
  9
$LUPREC
 70
     4
  9
$SKETCHINC
 40
0.1
  9
$FILLETRAD
 40
0.5
  9
$AUNITS
 70
     0
  9
$AUPREC
 70
     0
  9
$MENU
  1
.
  9
$ELEVATION
 40
0.0
  9
$PELEVATION
 40
0.0
  9
$THICKNESS
 40
0.0
  9
$LIMCHECK
 70
     0
  9
$CHAMFERA
 40
0.5
  9
$CHAMFERB
 40
0.5
  9
$CHAMFERC
 40
1.0
  9
$CHAMFERD
 40
0.0
  9
$SKPOLY
 70
     0
  9
$TDCREATE
 40
2455383.863518518
  9
$TDUCREATE
 40
2455384.196851852
  9
$TDUPDATE
 40
2455383.86351853
  9
$TDUUPDATE
 40
2455384.196851864
  9
$TDINDWG
 40
0.0000000116
  9
$TDUSRTIMER
 40
0.0000000116
  9
$USRTIMER
 70
     1
  9
$ANGBASE
 50
0.0
  9
$ANGDIR
 70
     0
  9
$PDMODE
 70
     0
  9
$PDSIZE
 40
0.0
  9
$PLINEWID
 40
0.0
  9
$SPLFRAME
 70
     0
  9
$SPLINETYPE
 70
     6
  9
$SPLINESEGS
 70
     8
  9
$HANDSEED
  5
E1
  9
$SURFTAB1
 70
     6
  9
$SURFTAB2
 70
     6
  9
$SURFTYPE
 70
     6
  9
$SURFU
 70
     6
  9
$SURFV
 70
     6
  9
$UCSBASE
  2

  9
$UCSNAME
  2

  9
$UCSORG
 10
0.0
 20
0.0
 30
0.0
  9
$UCSXDIR
 10
1.0
 20
0.0
 30
0.0
  9
$UCSYDIR
 10
0.0
 20
1.0
 30
0.0
  9
$UCSORTHOREF
  2

  9
$UCSORTHOVIEW
 70
     0
  9
$UCSORGTOP
 10
0.0
 20
0.0
 30
0.0
  9
$UCSORGBOTTOM
 10
0.0
 20
0.0
 30
0.0
  9
$UCSORGLEFT
 10
0.0
 20
0.0
 30
0.0
  9
$UCSORGRIGHT
 10
0.0
 20
0.0
 30
0.0
  9
$UCSORGFRONT
 10
0.0
 20
0.0
 30
0.0
  9
$UCSORGBACK
 10
0.0
 20
0.0
 30
0.0
  9
$PUCSBASE
  2

  9
$PUCSNAME
  2

  9
$PUCSORG
 10
0.0
 20
0.0
 30
0.0
  9
$PUCSXDIR
 10
1.0
 20
0.0
 30
0.0
  9
$PUCSYDIR
 10
0.0
 20
1.0
 30
0.0
  9
$PUCSORTHOREF
  2

  9
$PUCSORTHOVIEW
 70
     0
  9
$PUCSORGTOP
 10
0.0
 20
0.0
 30
0.0
  9
$PUCSORGBOTTOM
 10
0.0
 20
0.0
 30
0.0
  9
$PUCSORGLEFT
 10
0.0
 20
0.0
 30
0.0
  9
$PUCSORGRIGHT
 10
0.0
 20
0.0
 30
0.0
  9
$PUCSORGFRONT
 10
0.0
 20
0.0
 30
0.0
  9
$PUCSORGBACK
 10
0.0
 20
0.0
 30
0.0
  9
$USERI1
 70
     0
  9
$USERI2
 70
     0
  9
$USERI3
 70
     0
  9
$USERI4
 70
     0
  9
$USERI5
 70
     0
  9
$USERR1
 40
0.0
  9
$USERR2
 40
0.0
  9
$USERR3
 40
0.0
  9
$USERR4
 40
0.0
  9
$USERR5
 40
0.0
  9
$WORLDVIEW
 70
     1
  9
$SHADEDGE
 70
     3
  9
$SHADEDIF
 70
    70
  9
$TILEMODE
 70
     1
  9
$MAXACTVP
 70
    64
  9
$PINSBASE
 10
0.0
 20
0.0
 30
0.0
  9
$PLIMCHECK
 70
     0
  9
$PEXTMIN
 10
1.000000000000000E+20
 20
1.000000000000000E+20
 30
1.000000000000000E+20
  9
$PEXTMAX
 10
-1.000000000000000E+20
 20
-1.000000000000000E+20
 30
-1.000000000000000E+20
  9
$PLIMMIN
 10
0.0
 20
0.0
  9
$PLIMMAX
 10
12.0
 20
9.0
  9
$UNITMODE
 70
     0
  9
$VISRETAIN
 70
     1
  9
$PLINEGEN
 70
     0
  9
$PSLTSCALE
 70
     1
  9
$TREEDEPTH
 70
  3020
  9
$CMLSTYLE
  2
Standard
  9
$CMLJUST
 70
     0
  9
$CMLSCALE
 40
1.0
  9
$PROXYGRAPHICS
 70
     1
  9
$MEASUREMENT
 70
     0
  9
$CELWEIGHT
370
    -1
  9
$ENDCAPS
280
     0
  9
$JOINSTYLE
280
     0
  9
$LWDISPLAY
290
     1
  9
$INSUNITS
 70
     1
  9
$HYPERLINKBASE
  1

  9
$STYLESHEET
  1

  9
$XEDIT
290
     1
  9
$CEPSNTYPE
380
     0
  9
$PSTYLEMODE
290
     1
  9
$FINGERPRINTGUID
  2
{5C16EFEA-FDDC-6CD8-1981-E6AAD78E64EB}
  9
$VERSIONGUID
  2
{FAEB1C32-E019-11D5-929B-00C0DF256EC4}
  9
$EXTNAMES
290
     1
  9
$PSVPSCALE
 40
0.0
  9
$OLESTARTUP
290
     0
  0
ENDSEC
  0
SECTION
  2
CLASSES
  0
CLASS
  1
ACDBDICTIONARYWDFLT
  2
AcDbDictionaryWithDefault
  3
ObjectDBX Classes
 90
        0
280
     0
281
     0
  0
CLASS
  1
VISUALSTYLE
  2
AcDbVisualStyle
  3
ObjectDBX Classes
 90
     4095
280
     0
281
     0
  0
CLASS
  1
ACDBPLACEHOLDER
  2
AcDbPlaceHolder
  3
ObjectDBX Classes
 90
        0
280
     0
281
     0
  0
CLASS
  1
LAYOUT
  2
AcDbLayout
  3
ObjectDBX Classes
 90
        0
280
     0
281
     0
  0
ENDSEC
  0
SECTION
  2
TABLES
  0
TABLE
  2
VPORT
  5
8
330
0
100
AcDbSymbolTable
 70
     1
  0
VPORT
  5
29
330
8
100
AcDbSymbolTableRecord
100
AcDbViewportTableRecord
  2
*Active
 70
     0
 10
0.0
 20
0.0
 11
1.0
 21
1.0
 12
0.0
 22
0.0
 13
0.0
 23
0.0
 14
0.5
 24
0.5
 15
0.5
 25
0.5
 16
0.0
 26
0.0
 36
1.0
 17
7.750008501542065
 27
7.379938541789681
 37
0.0
 40
10.44105465547778
 41
1.367688767840616
 42
50.0
 43
0.0
 44
0.0
 50
0.0
 51
0.0
 71
     0
 72
   100
 73
     1
 74
     3
 75
     0
 76
     0
 77
     0
 78
     0
281
     0
 65
     1
110
0.0
120
0.0
130
0.0
111
1.0
121
0.0
131
0.0
112
0.0
122
1.0
132
0.0
 79
     0
146
0.0
  0
ENDTAB
  0
TABLE
  2
LTYPE
  5
5
330
0
100
AcDbSymbolTable
 70
     1
  0
LTYPE
  5
14
330
5
100
AcDbSymbolTableRecord
100
AcDbLinetypeTableRecord
  2
ByBlock
 70
     0
  3

 72
    65
 73
     0
 40
0.0
  0
LTYPE
  5
15
330
5
100
AcDbSymbolTableRecord
100
AcDbLinetypeTableRecord
  2
ByLayer
 70
     0
  3

 72
    65
 73
     0
 40
0.0
  0
LTYPE
  5
16
330
5
100
AcDbSymbolTableRecord
100
AcDbLinetypeTableRecord
  2
Continuous
 70
     0
  3
Solid line
 72
    65
 73
     0
 40
0.0
  0
ENDTAB
  0
TABLE
  2
LAYER
  5
2
330
0
100
AcDbSymbolTable
 70
     3
  0
LAYER
  5
10
330
2
100
AcDbSymbolTableRecord
100
AcDbLayerTableRecord
  2
0
 70
     0
 62
     7
  6
Continuous
370
    -3
390
F
  0
LAYER
  5
3B
330
2
100
AcDbSymbolTableRecord
100
AcDbLayerTableRecord
  2
slide guides
 70
     0
 62
     7
  6
Continuous
370
    -3
390
F
  0
LAYER
  5
91
330
2
100
AcDbSymbolTableRecord
100
AcDbLayerTableRecord
  2
sides
 70
     0
 62
     7
  6
Continuous
370
    -3
390
F
  0
ENDTAB
  0
TABLE
  2
STYLE
  5
3
330
0
100
AcDbSymbolTable
 70
     1
  0
STYLE
  5
11
330
3
100
AcDbSymbolTableRecord
100
AcDbTextStyleTableRecord
  2
Standard
 70
     0
 40
0.0
 41
1.0
 50
0.0
 71
     0
 42
0.2
  3
txt
  4

  0
ENDTAB
  0
TABLE
  2
VIEW
  5
6
330
0
100
AcDbSymbolTable
 70
     0
  0
ENDTAB
  0
TABLE
  2
UCS
  5
7
330
0
100
AcDbSymbolTable
 70
     0
  0
ENDTAB
  0
TABLE
  2
APPID
  5
9
330
0
100
AcDbSymbolTable
 70
     1
  0
APPID
  5
12
330
9
100
AcDbSymbolTableRecord
100
AcDbRegAppTableRecord
  2
ACAD
 70
     0
  0
ENDTAB
  0
TABLE
  2
DIMSTYLE
  5
A
330
0
100
AcDbSymbolTable
 70
     1
100
AcDbDimStyleTable
  0
DIMSTYLE
105
27
330
A
100
AcDbSymbolTableRecord
100
AcDbDimStyleTableRecord
  2
Standard
 70
     0
340
11
  0
ENDTAB
  0
TABLE
  2
BLOCK_RECORD
  5
1
330
0
100
AcDbSymbolTable
 70
     9
  0
BLOCK_RECORD
  5
1F
330
1
100
AcDbSymbolTableRecord
100
AcDbBlockTableRecord
  2
*Model_Space
340
22
  0
BLOCK_RECORD
  5
1B
330
1
100
AcDbSymbolTableRecord
100
AcDbBlockTableRecord
  2
*Paper_Space
340
1E
  0
BLOCK_RECORD
  5
23
330
1
100
AcDbSymbolTableRecord
100
AcDbBlockTableRecord
  2
*Paper_Space0
340
26
  0
BLOCK_RECORD
  5
44
330
1
100
AcDbSymbolTableRecord
100
AcDbBlockTableRecord
  2
block 2
340
0
102
{BLKREFS
331
45
102
}
  0
BLOCK_RECORD
  5
4C
330
1
100
AcDbSymbolTableRecord
100
AcDbBlockTableRecord
  2
block 3
340
0
102
{BLKREFS
331
4D
102
}
  0
BLOCK_RECORD
  5
52
330
1
100
AcDbSymbolTableRecord
100
AcDbBlockTableRecord
  2
block 4
340
0
102
{BLKREFS
331
53
102
}
  0
BLOCK_RECORD
  5
5A
330
1
100
AcDbSymbolTableRecord
100
AcDbBlockTableRecord
  2
block 5
340
0
102
{BLKREFS
331
5B
102
}
  0
BLOCK_RECORD
  5
5E
330
1
100
AcDbSymbolTableRecord
100
AcDbBlockTableRecord
  2
block 6
340
0
102
{BLKREFS
331
5F
102
}
  0
BLOCK_RECORD
  5
73
330
1
100
AcDbSymbolTableRecord
100
AcDbBlockTableRecord
  2
block 7
340
0
102
{BLKREFS
331
74
102
}
  0
BLOCK_RECORD
  5
87
330
1
100
AcDbSymbolTableRecord
100
AcDbBlockTableRecord
  2
block 8
340
0
102
{BLKREFS
331
88
102
}
  0
BLOCK_RECORD
  5
92
330
1
100
AcDbSymbolTableRecord
100
AcDbBlockTableRecord
  2
block 9
340
0
102
{BLKREFS
331
93
102
}
  0
ENDTAB
  0
ENDSEC
  0
SECTION
  2
BLOCKS
  0
BLOCK
  5
20
330
1F
100
AcDbEntity
  8
0
100
AcDbBlockBegin
  2
*Model_Space
 70
     0
 71
     0
 10
0.0
 20
0.0
 30
0.0
  3
*Model_Space
  1

  0
ENDBLK
  5
21
330
1F
100
AcDbEntity
  8
0
100
AcDbBlockEnd
  0
BLOCK
  5
1C
330
1B
100
AcDbEntity
 67
     1
  8
0
100
AcDbBlockBegin
  2
*Paper_Space
 70
     0
 71
     0
 10
0.0
 20
0.0
 30
0.0
  3
*Paper_Space
  1

  0
ENDBLK
  5
1D
330
1B
100
AcDbEntity
 67
     1
  8
0
100
AcDbBlockEnd
  0
BLOCK
  5
24
330
23
100
AcDbEntity
  8
0
100
AcDbBlockBegin
  2
*Paper_Space0
 70
     0
 71
     0
 10
0.0
 20
0.0
 30
0.0
  3
*Paper_Space0
  1

  0
ENDBLK
  5
25
330
23
100
AcDbEntity
  8
0
100
AcDbBlockEnd
  0
BLOCK
  5
46
330
44
100
AcDbEntity
  8
0
100
AcDbBlockBegin
  2
block 2
 70
     0
 71
     0
 10
0.0
 20
0.0
 30
0.0
  3
block 2
  1

  0
SPLINE
  5
48
330
44
100
AcDbEntity
  8
slide guides
370
     0
100
AcDbSpline
210
0.0
220
0.0
230
1.0
 70
    11
 71
     3
 72
    17
 73
    13
 74
     0
 42
0.0000000001
 43
0.0000000001
 40
0.0
 40
0.0
 40
0.0
 40
0.0
 40
1.0
 40
1.0
 40
1.0
 40
2.0
 40
2.0
 40
2.0
 40
3.0
 40
3.0
 40
3.0
 40
4.0
 40
4.0
 40
4.0
 40
4.0
 10
1.045858437081369
 20
12.30473630439416
 30
0.0
 10
1.112942899722623
 20
12.30473630439416
 30
0.0
 10
1.167318478115019
 20
12.25034716262477
 30
0.0
 10
1.167318478115019
 20
12.18327626336051
 30
0.0
 10
1.167318478115019
 20
12.11620536409626
 30
0.0
 10
1.112942899722623
 20
12.06182978570387
 30
0.0
 10
1.045858437081369
 20
12.06182978570387
 30
0.0
 10
0.9788011011941151
 20
12.06182978570387
 30
0.0
 10
0.92441195942472
 20
12.11620536409626
 30
0.0
 10
0.92441195942472
 20
12.18327626336051
 30
0.0
 10
0.92441195942472
 20
12.25034716262477
 30
0.0
 10
0.9788011011941151
 20
12.30473630439416
 30
0.0
 10
1.045858437081369
 20
12.30473630439416
 30
0.0
  0
SPLINE
  5
49
330
44
100
AcDbEntity
  8
slide guides
370
     0
100
AcDbSpline
210
0.0
220
0.0
230
1.0
 70
    11
 71
     3
 72
    17
 73
    13
 74
     0
 42
0.0000000001
 43
0.0000000001
 40
0.0
 40
0.0
 40
0.0
 40
0.0
 40
1.0
 40
1.0
 40
1.0
 40
2.0
 40
2.0
 40
2.0
 40
3.0
 40
3.0
 40
3.0
 40
4.0
 40
4.0
 40
4.0
 40
4.0
 10
6.795862228889426
 20
2.754721868669366
 30
0.0
 10
6.86294669153068
 20
2.754721868669366
 30
0.0
 10
6.917322269923075
 20
2.70035985365397
 30
0.0
 10
6.917322269923075
 20
2.633275391012716
 30
0.0
 10
6.917322269923075
 20
2.566204491748462
 30
0.0
 10
6.86294669153068
 20
2.511828913356067
 30
0.0
 10
6.795862228889426
 20
2.511828913356067
 30
0.0
 10
6.728804893002172
 20
2.511828913356067
 30
0.0
 10
6.674415751232776
 20
2.566204491748462
 30
0.0
 10
6.674415751232776
 20
2.633275391012716
 30
0.0
 10
6.674415751232776
 20
2.70035985365397
 30
0.0
 10
6.728804893002172
 20
2.754721868669366
 30
0.0
 10
6.795862228889426
 20
2.754721868669366
 30
0.0
  0
SPLINE
  5
4A
330
44
100
AcDbEntity
  8
slide guides
370
     0
100
AcDbSpline
210
0.0
220
0.0
230
1.0
 70
    11
 71
     3
 72
    17
 73
    13
 74
     0
 42
0.0000000001
 43
0.0000000001
 40
0.0
 40
0.0
 40
0.0
 40
0.0
 40
1.0
 40
1.0
 40
1.0
 40
2.0
 40
2.0
 40
2.0
 40
3.0
 40
3.0
 40
3.0
 40
4.0
 40
4.0
 40
4.0
 40
4.0
 10
6.795862228889426
 20
12.30473630439416
 30
0.0
 10
6.86294669153068
 20
12.30473630439416
 30
0.0
 10
6.917322269923075
 20
12.25034716262477
 30
0.0
 10
6.917322269923075
 20
12.18327626336051
 30
0.0
 10
6.917322269923075
 20
12.11620536409626
 30
0.0
 10
6.86294669153068
 20
12.06182978570387
 30
0.0
 10
6.795862228889426
 20
12.06182978570387
 30
0.0
 10
6.728804893002172
 20
12.06182978570387
 30
0.0
 10
6.674415751232776
 20
12.11620536409626
 30
0.0
 10
6.674415751232776
 20
12.18327626336051
 30
0.0
 10
6.674415751232776
 20
12.25034716262477
 30
0.0
 10
6.728804893002172
 20
12.30473630439416
 30
0.0
 10
6.795862228889426
 20
12.30473630439416
 30
0.0
  0
SPLINE
  5
4B
330
44
100
AcDbEntity
  8
slide guides
370
     0
100
AcDbSpline
210
0.0
220
0.0
230
1.0
 70
    11
 71
     3
 72
    17
 73
    13
 74
     0
 42
0.0000000001
 43
0.0000000001
 40
0.0
 40
0.0
 40
0.0
 40
0.0
 40
1.0
 40
1.0
 40
1.0
 40
2.0
 40
2.0
 40
2.0
 40
3.0
 40
3.0
 40
3.0
 40
4.0
 40
4.0
 40
4.0
 40
4.0
 10
1.045872000458369
 20
2.754721868669366
 30
0.0
 10
1.112942899722623
 20
2.754721868669366
 30
0.0
 10
1.167318478115019
 20
2.700346290276971
 30
0.0
 10
1.167318478115019
 20
2.633275391012716
 30
0.0
 10
1.167318478115019
 20
2.566204491748462
 30
0.0
 10
1.112942899722623
 20
2.511828913356067
 30
0.0
 10
1.045872000458369
 20
2.511828913356067
 30
0.0
 10
0.9788011011941151
 20
2.511828913356067
 30
0.0
 10
0.92441195942472
 20
2.566204491748462
 30
0.0
 10
0.92441195942472
 20
2.633275391012716
 30
0.0
 10
0.92441195942472
 20
2.700346290276971
 30
0.0
 10
0.9788011011941151
 20
2.754721868669366
 30
0.0
 10
1.045872000458369
 20
2.754721868669366
 30
0.0
  0
ENDBLK
  5
47
330
44
100
AcDbEntity
  8
0
100
AcDbBlockEnd
  0
BLOCK
  5
4E
330
4C
100
AcDbEntity
  8
0
100
AcDbBlockBegin
  2
block 3
 70
     0
 71
     0
 10
0.0
 20
0.0
 30
0.0
  3
block 3
  1

  0
SPLINE
  5
50
330
4C
100
AcDbEntity
  8
slide guides
370
     0
100
AcDbSpline
210
0.0
220
0.0
230
1.0
 70
    11
 71
     3
 72
    17
 73
    13
 74
     0
 42
0.0000000001
 43
0.0000000001
 40
0.0
 40
0.0
 40
0.0
 40
0.0
 40
1.0
 40
1.0
 40
1.0
 40
2.0
 40
2.0
 40
2.0
 40
3.0
 40
3.0
 40
3.0
 40
4.0
 40
4.0
 40
4.0
 40
4.0
 10
6.770268136490711
 20
9.422267769451718
 30
0.0
 10
6.837339035754964
 20
9.422267769451718
 30
0.0
 10
6.89172817752436
 20
9.367898972747824
 30
0.0
 10
6.89172817752436
 20
9.300821291795069
 30
0.0
 10
6.89172817752436
 20
9.233743610842316
 30
0.0
 10
6.837339035754964
 20
9.17936803244992
 30
0.0
 10
6.770268136490711
 20
9.17936803244992
 30
0.0
 10
6.703183673849456
 20
9.17936803244992
 30
0.0
 10
6.648821658834061
 20
9.233743610842316
 30
0.0
 10
6.648821658834061
 20
9.300821291795069
 30
0.0
 10
6.648821658834061
 20
9.367898972747824
 30
0.0
 10
6.703183673849456
 20
9.422267769451718
 30
0.0
 10
6.770268136490711
 20
9.422267769451718
 30
0.0
  0
SPLINE
  5
51
330
4C
100
AcDbEntity
  8
slide guides
370
     0
100
AcDbSpline
210
0.0
220
0.0
230
1.0
 70
    11
 71
     3
 72
    17
 73
    13
 74
     0
 42
0.0000000001
 43
0.0000000001
 40
0.0
 40
0.0
 40
0.0
 40
0.0
 40
1.0
 40
1.0
 40
1.0
 40
2.0
 40
2.0
 40
2.0
 40
3.0
 40
3.0
 40
3.0
 40
4.0
 40
4.0
 40
4.0
 40
4.0
 10
1.100966437831757
 20
9.426431726190673
 30
0.0
 10
1.168037337096011
 20
9.426431726190673
 30
0.0
 10
1.222426478865406
 20
9.372062929486777
 30
0.0
 10
1.222426478865406
 20
9.304978466845522
 30
0.0
 10
1.222426478865406
 20
9.23789400420427
 30
0.0
 10
1.168037337096011
 20
9.183531989188873
 30
0.0
 10
1.100966437831757
 20
9.183531989188873
 30
0.0
 10
1.033881975190503
 20
9.183531989188873
 30
0.0
 10
0.9795199601751071
 20
9.23789400420427
 30
0.0
 10
0.9795199601751071
 20
9.304978466845522
 30
0.0
 10
0.9795199601751071
 20
9.372062929486777
 30
0.0
 10
1.033881975190503
 20
9.426431726190673
 30
0.0
 10
1.100966437831757
 20
9.426431726190673
 30
0.0
  0
ENDBLK
  5
4F
330
4C
100
AcDbEntity
  8
0
100
AcDbBlockEnd
  0
BLOCK
  5
54
330
52
100
AcDbEntity
  8
0
100
AcDbBlockBegin
  2
block 4
 70
     0
 71
     0
 10
0.0
 20
0.0
 30
0.0
  3
block 4
  1

  0
SPLINE
  5
56
330
52
100
AcDbEntity
  8
slide guides
370
     0
100
AcDbSpline
210
0.0
220
0.0
230
1.0
 70
    11
 71
     3
 72
    17
 73
    13
 74
     0
 42
0.0000000001
 43
0.0000000001
 40
0.0
 40
0.0
 40
0.0
 40
0.0
 40
1.0
 40
1.0
 40
1.0
 40
2.0
 40
2.0
 40
2.0
 40
3.0
 40
3.0
 40
3.0
 40
4.0
 40
4.0
 40
4.0
 40
4.0
 10
5.316898037448873
 20
5.636844537498315
 30
0.0
 10
5.316898037448873
 20
5.599314673339732
 30
0.0
 10
5.286488946215211
 20
5.56894627223707
 30
0.0
 10
5.248959082056628
 20
5.56894627223707
 30
0.0
 10
5.211469908029045
 20
5.56894627223707
 30
0.0
 10
5.181047253418384
 20
5.599314673339732
 30
0.0
 10
5.181047253418384
 20
5.636844537498315
 30
0.0
 10
5.181047253418384
 20
5.674320148148898
 30
0.0
 10
5.211469908029045
 20
5.70474280275956
 30
0.0
 10
5.248959082056628
 20
5.70474280275956
 30
0.0
 10
5.286488946215211
 20
5.70474280275956
 30
0.0
 10
5.316898037448873
 20
5.674320148148898
 30
0.0
 10
5.316898037448873
 20
5.636844537498315
 30
0.0
  0
SPLINE
  5
57
330
52
100
AcDbEntity
  8
slide guides
370
     0
100
AcDbSpline
210
0.0
220
0.0
230
1.0
 70
    11
 71
     3
 72
    17
 73
    13
 74
     0
 42
0.0000000001
 43
0.0000000001
 40
0.0
 40
0.0
 40
0.0
 40
0.0
 40
1.0
 40
1.0
 40
1.0
 40
2.0
 40
2.0
 40
2.0
 40
3.0
 40
3.0
 40
3.0
 40
4.0
 40
4.0
 40
4.0
 40
4.0
 10
5.316911600825873
 20
9.573824944048033
 30
0.0
 10
5.316911600825873
 20
9.53634933339745
 30
0.0
 10
5.286516072969211
 20
9.505926678786789
 30
0.0
 10
5.248986208810628
 20
9.505926678786789
 30
0.0
 10
5.211497034783045
 20
9.505926678786789
 30
0.0
 10
5.181101506926383
 20
9.53634933339745
 30
0.0
 10
5.181101506926383
 20
9.573824944048033
 30
0.0
 10
5.181101506926383
 20
9.611348026518115
 30
0.0
 10
5.211497034783045
 20
9.641757117751778
 30
0.0
 10
5.248986208810628
 20
9.641757117751778
 30
0.0
 10
5.286516072969211
 20
9.641757117751778
 30
0.0
 10
5.316911600825873
 20
9.611348026518115
 30
0.0
 10
5.316911600825873
 20
9.573824944048033
 30
0.0
  0
SPLINE
  5
58
330
52
100
AcDbEntity
  8
slide guides
370
     0
100
AcDbSpline
210
0.0
220
0.0
230
1.0
 70
    11
 71
     3
 72
    17
 73
    13
 74
     0
 42
0.0000000001
 43
0.0000000001
 40
0.0
 40
0.0
 40
0.0
 40
0.0
 40
1.0
 40
1.0
 40
1.0
 40
2.0
 40
2.0
 40
2.0
 40
3.0
 40
3.0
 40
3.0
 40
4.0
 40
4.0
 40
4.0
 40
4.0
 10
5.120052747050062
 20
4.258873251198639
 30
0.0
 10
5.120052747050062
 20
4.221370513794056
 30
0.0
 10
5.0896707825704
 20
4.190974985937394
 30
0.0
 10
5.052140918411817
 20
4.190974985937394
 30
0.0
 10
5.014638181007234
 20
4.190974985937394
 30
0.0
 10
4.984256216527572
 20
4.221370513794056
 30
0.0
 10
4.984256216527572
 20
4.258873251198639
 30
0.0
 10
4.984256216527572
 20
4.296375988603222
 30
0.0
 10
5.014638181007234
 20
4.326785079836884
 30
0.0
 10
5.052140918411817
 20
4.326785079836884
 30
0.0
 10
5.0896707825704
 20
4.326785079836884
 30
0.0
 10
5.120052747050062
 20
4.296375988603222
 30
0.0
 10
5.120052747050062
 20
4.258873251198639
 30
0.0
  0
SPLINE
  5
59
330
52
100
AcDbEntity
  8
slide guides
370
     0
100
AcDbSpline
210
0.0
220
0.0
230
1.0
 70
    11
 71
     3
 72
    17
 73
    13
 74
     0
 42
0.0000000001
 43
0.0000000001
 40
0.0
 40
0.0
 40
0.0
 40
0.0
 40
1.0
 40
1.0
 40
1.0
 40
2.0
 40
2.0
 40
2.0
 40
3.0
 40
3.0
 40
3.0
 40
4.0
 40
4.0
 40
4.0
 40
4.0
 10
1.183038432057844
 20
4.258873251198639
 30
0.0
 10
1.183038432057844
 20
4.221370513794056
 30
0.0
 10
1.152656467578182
 20
4.190974985937394
 30
0.0
 10
1.115126603419599
 20
4.190974985937394
 30
0.0
 10
1.077623866015016
 20
4.190974985937394
 30
0.0
 10
1.047241901535354
 20
4.221370513794056
 30
0.0
 10
1.047241901535354
 20
4.258873251198639
 30
0.0
 10
1.047241901535354
 20
4.296375988603222
 30
0.0
 10
1.077623866015016
 20
4.326785079836884
 30
0.0
 10
1.115126603419599
 20
4.326785079836884
 30
0.0
 10
1.152656467578182
 20
4.326785079836884
 30
0.0
 10
1.183038432057844
 20
4.296375988603222
 30
0.0
 10
1.183038432057844
 20
4.258873251198639
 30
0.0
  0
ENDBLK
  5
55
330
52
100
AcDbEntity
  8
0
100
AcDbBlockEnd
  0
BLOCK
  5
5C
330
5A
100
AcDbEntity
  8
0
100
AcDbBlockBegin
  2
block 5
 70
     0
 71
     0
 10
0.0
 20
0.0
 30
0.0
  3
block 5
  1

  0
INSERT
  5
5F
330
5A
100
AcDbEntity
  8
slide guides
100
AcDbBlockReference
  2
block 6
 10
0.0
 20
0.0
 30
0.0
  0
INSERT
  5
74
330
5A
100
AcDbEntity
  8
slide guides
100
AcDbBlockReference
  2
block 7
 10
0.0
 20
0.0
 30
0.0
  0
ENDBLK
  5
5D
330
5A
100
AcDbEntity
  8
0
100
AcDbBlockEnd
  0
BLOCK
  5
60
330
5E
100
AcDbEntity
  8
0
100
AcDbBlockBegin
  2
block 6
 70
     0
 71
     0
 10
0.0
 20
0.0
 30
0.0
  3
block 6
  1

  0
POLYLINE
  5
62
330
5E
100
AcDbEntity
  8
slide guides
370
     0
100
AcDb2dPolyline
 66
     1
 10
0.0
 20
0.0
 30
0.0
  0
VERTEX
  5
63
330
62
100
AcDbEntity
  8
slide guides
370
     0
100
AcDbVertex
100
AcDb2dVertex
 10
1.340536365780092
 20
10.94690663293926
 30
0.0
  0
VERTEX
  5
64
330
62
100
AcDbEntity
  8
slide guides
370
     0
100
AcDbVertex
100
AcDb2dVertex
 10
1.340536365780092
 20
4.608320096222752
 30
0.0
  0
VERTEX
  5
65
330
62
100
AcDbEntity
  8
slide guides
370
     0
100
AcDbVertex
100
AcDb2dVertex
 10
4.883860099974688
 20
4.608320096222752
 30
0.0
  0
VERTEX
  5
66
330
62
100
AcDbEntity
  8
slide guides
370
     0
100
AcDbVertex
100
AcDb2dVertex
 10
4.883860099974688
 20
10.94690663293926
 30
0.0
  0
VERTEX
  5
67
330
62
100
AcDbEntity
  8
slide guides
370
     0
100
AcDbVertex
100
AcDb2dVertex
 10
1.340536365780092
 20
10.94690663293926
 30
0.0
  0
SEQEND
  5
68
330
62
100
AcDbEntity
  8
slide guides
370
     0
  0
SPLINE
  5
69
330
5E
100
AcDbEntity
  8
slide guides
370
     0
100
AcDbSpline
210
0.0
220
0.0
230
1.0
 70
    11
 71
     3
 72
    17
 73
    13
 74
     0
 42
0.0000000001
 43
0.0000000001
 40
0.0
 40
0.0
 40
0.0
 40
0.0
 40
1.0
 40
1.0
 40
1.0
 40
2.0
 40
2.0
 40
2.0
 40
3.0
 40
3.0
 40
3.0
 40
4.0
 40
4.0
 40
4.0
 40
4.0
 10
4.687001246198878
 20
10.55907543100558
 30
0.0
 10
4.703304425352696
 20
10.55907543100558
 30
0.0
 10
4.716542281304549
 20
10.54585113843072
 30
0.0
 10
4.716542281304549
 20
10.52954795927691
 30
0.0
 10
4.716542281304549
 20
10.51324478012309
 30
0.0
 10
4.703304425352696
 20
10.50002048754823
 30
0.0
 10
4.687001246198878
 20
10.50002048754823
 30
0.0
 10
4.670698067045059
 20
10.50002048754823
 30
0.0
 10
4.657487337847206
 20
10.51324478012309
 30
0.0
 10
4.657487337847206
 20
10.52954795927691
 30
0.0
 10
4.657487337847206
 20
10.54585113843072
 30
0.0
 10
4.670698067045059
 20
10.55907543100558
 30
0.0
 10
4.687001246198878
 20
10.55907543100558
 30
0.0
  0
SPLINE
  5
6A
330
5E
100
AcDbEntity
  8
slide guides
370
     0
100
AcDbSpline
210
0.0
220
0.0
230
1.0
 70
    11
 71
     3
 72
    17
 73
    13
 74
     0
 42
0.0000000001
 43
0.0000000001
 40
0.0
 40
0.0
 40
0.0
 40
0.0
 40
1.0
 40
1.0
 40
1.0
 40
2.0
 40
2.0
 40
2.0
 40
3.0
 40
3.0
 40
3.0
 40
4.0
 40
4.0
 40
4.0
 40
4.0
 10
1.537408782932903
 20
4.988203159234528
 30
0.0
 10
1.521105603779084
 20
4.988203159234528
 30
0.0
 10
1.507881311204232
 20
5.001413888432381
 30
0.0
 10
1.507881311204232
 20
5.0177306309632
 30
0.0
 10
1.507881311204232
 20
5.034047373494018
 30
0.0
 10
1.521105603779084
 20
5.047258102691871
 30
0.0
 10
1.537408782932903
 20
5.047258102691871
 30
0.0
 10
1.553711962086722
 20
5.047258102691871
 30
0.0
 10
1.566936254661575
 20
5.034047373494018
 30
0.0
 10
1.566936254661575
 20
5.0177306309632
 30
0.0
 10
1.566936254661575
 20
5.001413888432381
 30
0.0
 10
1.553711962086722
 20
4.988203159234528
 30
0.0
 10
1.537408782932903
 20
4.988203159234528
 30
0.0
  0
SPLINE
  5
6B
330
5E
100
AcDbEntity
  8
slide guides
370
     0
100
AcDbSpline
210
0.0
220
0.0
230
1.0
 70
    11
 71
     3
 72
    17
 73
    13
 74
     0
 42
0.0000000001
 43
0.0000000001
 40
0.0
 40
0.0
 40
0.0
 40
0.0
 40
1.0
 40
1.0
 40
1.0
 40
2.0
 40
2.0
 40
2.0
 40
3.0
 40
3.0
 40
3.0
 40
4.0
 40
4.0
 40
4.0
 40
4.0
 10
4.687014809575878
 20
4.988203159234528
 30
0.0
 10
4.670711630422059
 20
4.988203159234528
 30
0.0
 10
4.657487337847206
 20
5.001413888432381
 30
0.0
 10
4.657487337847206
 20
5.0177306309632
 30
0.0
 10
4.657487337847206
 20
5.034047373494018
 30
0.0
 10
4.670711630422059
 20
5.047258102691871
 30
0.0
 10
4.687014809575878
 20
5.047258102691871
 30
0.0
 10
4.703317988729697
 20
5.047258102691871
 30
0.0
 10
4.716542281304549
 20
5.034047373494018
 30
0.0
 10
4.716542281304549
 20
5.0177306309632
 30
0.0
 10
4.716542281304549
 20
5.001413888432381
 30
0.0
 10
4.703317988729697
 20
4.988203159234528
 30
0.0
 10
4.687014809575878
 20
4.988203159234528
 30
0.0
  0
POLYLINE
  5
6C
330
5E
100
AcDbEntity
  8
slide guides
370
     0
100
AcDb2dPolyline
 66
     1
 10
0.0
 20
0.0
 30
0.0
  0
VERTEX
  5
6D
330
6C
100
AcDbEntity
  8
slide guides
370
     0
100
AcDbVertex
100
AcDb2dVertex
 10
4.883846536597689
 20
5.395701257817997
 30
0.0
  0
VERTEX
  5
6E
330
6C
100
AcDbEntity
  8
slide guides
370
     0
100
AcDbVertex
100
AcDb2dVertex
 10
2.127944654129336
 20
5.395701257817997
 30
0.0
  0
VERTEX
  5
6F
330
6C
100
AcDbEntity
  8
slide guides
370
     0
100
AcDbVertex
100
AcDb2dVertex
 10
2.127944654129336
 20
10.0807493777289
 30
0.0
  0
VERTEX
  5
70
330
6C
100
AcDbEntity
  8
slide guides
370
     0
100
AcDbVertex
100
AcDb2dVertex
 10
4.883846536597689
 20
10.0807493777289
 30
0.0
  0
VERTEX
  5
71
330
6C
100
AcDbEntity
  8
slide guides
370
     0
100
AcDbVertex
100
AcDb2dVertex
 10
4.883846536597689
 20
5.395701257817997
 30
0.0
  0
SEQEND
  5
72
330
6C
100
AcDbEntity
  8
slide guides
370
     0
  0
ENDBLK
  5
61
330
5E
100
AcDbEntity
  8
0
100
AcDbBlockEnd
  0
BLOCK
  5
75
330
73
100
AcDbEntity
  8
0
100
AcDbBlockBegin
  2
block 7
 70
     0
 71
     0
 10
0.0
 20
0.0
 30
0.0
  3
block 7
  1

  0
POLYLINE
  5
77
330
73
100
AcDbEntity
  8
slide guides
370
     0
100
AcDb2dPolyline
 66
     1
 10
0.0
 20
0.0
 30
0.0
  0
VERTEX
  5
78
330
77
100
AcDbEntity
  8
slide guides
370
     0
100
AcDbVertex
100
AcDb2dVertex
 10
2.127958217506336
 20
10.0807493777289
 30
0.0
  0
VERTEX
  5
79
330
77
100
AcDbEntity
  8
slide guides
370
     0
100
AcDbVertex
100
AcDb2dVertex
 10
2.127958217506336
 20
5.395714821194996
 30
0.0
  0
VERTEX
  5
7A
330
77
100
AcDbEntity
  8
slide guides
370
     0
100
AcDbVertex
100
AcDb2dVertex
 10
3.899606521226634
 20
5.395714821194996
 30
0.0
  0
VERTEX
  5
7B
330
77
100
AcDbEntity
  8
slide guides
370
     0
100
AcDbVertex
100
AcDb2dVertex
 10
3.899606521226634
 20
10.0807493777289
 30
0.0
  0
VERTEX
  5
7C
330
77
100
AcDbEntity
  8
slide guides
370
     0
100
AcDbVertex
100
AcDb2dVertex
 10
2.127958217506336
 20
10.0807493777289
 30
0.0
  0
SEQEND
  5
7D
330
77
100
AcDbEntity
  8
slide guides
370
     0
  0
SPLINE
  5
7E
330
73
100
AcDbEntity
  8
slide guides
370
     0
100
AcDbSpline
210
0.0
220
0.0
230
1.0
 70
    11
 71
     3
 72
    17
 73
    13
 74
     0
 42
0.0000000001
 43
0.0000000001
 40
0.0
 40
0.0
 40
0.0
 40
0.0
 40
1.0
 40
1.0
 40
1.0
 40
2.0
 40
2.0
 40
2.0
 40
3.0
 40
3.0
 40
3.0
 40
4.0
 40
4.0
 40
4.0
 40
4.0
 10
2.521662361680958
 20
9.771667142656334
 30
0.0
 10
2.537965540834776
 20
9.771667142656334
 30
0.0
 10
2.551189833409629
 20
9.75845641345848
 30
0.0
 10
2.551189833409629
 20
9.742153234304661
 30
0.0
 10
2.551189833409629
 20
9.725850055150843
 30
0.0
 10
2.537965540834776
 20
9.71261219919899
 30
0.0
 10
2.521662361680958
 20
9.71261219919899
 30
0.0
 10
2.505359182527139
 20
9.71261219919899
 30
0.0
 10
2.492134889952286
 20
9.725850055150843
 30
0.0
 10
2.492134889952286
 20
9.742153234304661
 30
0.0
 10
2.492134889952286
 20
9.75845641345848
 30
0.0
 10
2.505359182527139
 20
9.771667142656334
 30
0.0
 10
2.521662361680958
 20
9.771667142656334
 30
0.0
  0
SPLINE
  5
7F
330
73
100
AcDbEntity
  8
slide guides
370
     0
100
AcDbSpline
210
0.0
220
0.0
230
1.0
 70
    11
 71
     3
 72
    17
 73
    13
 74
     0
 42
0.0000000001
 43
0.0000000001
 40
0.0
 40
0.0
 40
0.0
 40
0.0
 40
1.0
 40
1.0
 40
1.0
 40
2.0
 40
2.0
 40
2.0
 40
3.0
 40
3.0
 40
3.0
 40
4.0
 40
4.0
 40
4.0
 40
4.0
 10
2.521648798303958
 20
5.775611447583771
 30
0.0
 10
2.505345619150139
 20
5.775611447583771
 30
0.0
 10
2.492121326575286
 20
5.788822176781625
 30
0.0
 10
2.492121326575286
 20
5.805125355935443
 30
0.0
 10
2.492121326575286
 20
5.821442098466262
 30
0.0
 10
2.505345619150139
 20
5.834666391041115
 30
0.0
 10
2.521648798303958
 20
5.834666391041115
 30
0.0
 10
2.537951977457777
 20
5.834666391041115
 30
0.0
 10
2.551176270032629
 20
5.821442098466262
 30
0.0
 10
2.551176270032629
 20
5.805125355935443
 30
0.0
 10
2.551176270032629
 20
5.788822176781625
 30
0.0
 10
2.537951977457777
 20
5.775611447583771
 30
0.0
 10
2.521648798303958
 20
5.775611447583771
 30
0.0
  0
POLYLINE
  5
80
330
73
100
AcDbEntity
  8
slide guides
370
     0
100
AcDb2dPolyline
 66
     1
 10
0.0
 20
0.0
 30
0.0
  0
VERTEX
  5
81
330
80
100
AcDbEntity
  8
slide guides
370
     0
100
AcDbVertex
100
AcDb2dVertex
 10
3.515749388753903
 20
6.251997937949474
 30
0.0
  0
VERTEX
  5
82
330
80
100
AcDbEntity
  8
slide guides
370
     0
100
AcDbVertex
100
AcDb2dVertex
 10
2.511815349979067
 20
6.251997937949474
 30
0.0
  0
VERTEX
  5
83
330
80
100
AcDbEntity
  8
slide guides
370
     0
100
AcDbVertex
100
AcDb2dVertex
 10
2.511815349979067
 20
9.303208446147043
 30
0.0
  0
VERTEX
  5
84
330
80
100
AcDbEntity
  8
slide guides
370
     0
100
AcDbVertex
100
AcDb2dVertex
 10
3.515749388753903
 20
9.303208446147043
 30
0.0
  0
VERTEX
  5
85
330
80
100
AcDbEntity
  8
slide guides
370
     0
100
AcDbVertex
100
AcDb2dVertex
 10
3.515749388753903
 20
6.251997937949474
 30
0.0
  0
SEQEND
  5
86
330
80
100
AcDbEntity
  8
slide guides
370
     0
  0
ENDBLK
  5
76
330
73
100
AcDbEntity
  8
0
100
AcDbBlockEnd
  0
BLOCK
  5
89
330
87
100
AcDbEntity
  8
0
100
AcDbBlockBegin
  2
block 8
 70
     0
 71
     0
 10
0.0
 20
0.0
 30
0.0
  3
block 8
  1

  0
SPLINE
  5
8B
330
87
100
AcDbEntity
  8
slide guides
370
     0
100
AcDbSpline
210
0.0
220
0.0
230
1.0
 70
    11
 71
     3
 72
    17
 73
    13
 74
     0
 42
0.0000000001
 43
0.0000000001
 40
0.0
 40
0.0
 40
0.0
 40
0.0
 40
1.0
 40
1.0
 40
1.0
 40
2.0
 40
2.0
 40
2.0
 40
3.0
 40
3.0
 40
3.0
 40
4.0
 40
4.0
 40
4.0
 40
4.0
 10
5.361792815318374
 20
8.679150688695483
 30
0.0
 10
5.322459022018811
 20
8.677197562407505
 30
0.0
 10
5.276533427497322
 20
7.502826128252564
 30
0.0
 10
5.27757780752631
 20
7.476974331690852
 30
0.0
 10
5.284006848224239
 20
7.321890679074576
 30
0.0
 10
5.486806461125983
 20
7.061202573137475
 30
0.0
 10
5.688209046196744
 20
7.057350574069518
 30
0.0
 10
5.983849974662456
 20
7.05173533599158
 30
0.0
 10
6.163781733942455
 20
7.22888660298661
 30
0.0
 10
6.206384301098981
 20
7.517840786591397
 30
0.0
 10
6.288849633258065
 20
8.077099510426178
 30
0.0
 10
5.926124242151098
 20
8.646273062847849
 30
0.0
 10
5.361792815318374
 20
8.679150688695483
 30
0.0
  0
SPLINE
  5
8C
330
87
100
AcDbEntity
  8
slide guides
370
     0
100
AcDbSpline
210
0.0
220
0.0
230
1.0
 70
    11
 71
     3
 72
    17
 73
    13
 74
     0
 42
0.0000000001
 43
0.0000000001
 40
0.0
 40
0.0
 40
0.0
 40
0.0
 40
1.0
 40
1.0
 40
1.0
 40
2.0
 40
2.0
 40
2.0
 40
3.0
 40
3.0
 40
3.0
 40
4.0
 40
4.0
 40
4.0
 40
4.0
 10
5.39987877793395
 20
7.89259011140873
 30
0.0
 10
5.41074304291083
 20
7.893132646488723
 30
0.0
 10
5.419966139270727
 20
7.884736916125817
 30
0.0
 10
5.420508674350721
 20
7.873852306083438
 30
0.0
 10
5.421051209430715
 20
7.863028731237558
 30
0.0
 10
5.412641915690808
 20
7.853825979943161
 30
0.0
 10
5.401764087336929
 20
7.853310571617167
 30
0.0
 10
5.39091338573705
 20
7.852740909783173
 30
0.0
 10
5.381717416131152
 20
7.86115020352308
 30
0.0
 10
5.381161317674159
 20
7.871994123434459
 30
0.0
 10
5.380659472725164
 20
7.882851606722838
 30
0.0
 10
5.389028076334071
 20
7.892095048148235
 30
0.0
 10
5.39987877793395
 20
7.89259011140873
 30
0.0
  0
SPLINE
  5
8D
330
87
100
AcDbEntity
  8
slide guides
370
     0
100
AcDbSpline
210
0.0
220
0.0
230
1.0
 70
    11
 71
     3
 72
    17
 73
    13
 74
     0
 42
0.0000000001
 43
0.0000000001
 40
0.0
 40
0.0
 40
0.0
 40
0.0
 40
1.0
 40
1.0
 40
1.0
 40
2.0
 40
2.0
 40
2.0
 40
3.0
 40
3.0
 40
3.0
 40
4.0
 40
4.0
 40
4.0
 40
4.0
 10
5.421837885296706
 20
7.440407467299258
 30
0.0
 10
5.400082228588948
 20
7.43934952389327
 30
0.0
 10
5.381663162623153
 20
7.456059604357084
 30
0.0
 10
5.380605219217165
 20
7.477774570933843
 30
0.0
 10
5.379533712434176
 20
7.499516664264601
 30
0.0
 10
5.39625735627499
 20
7.517989983738396
 30
0.0
 10
5.418013012982748
 20
7.519047927144384
 30
0.0
 10
5.439741542936507
 20
7.520105870550372
 30
0.0
 10
5.458160608902302
 20
7.503341536578558
 30
0.0
 10
5.459218552308291
 20
7.4815858798708
 30
0.0
 10
5.460262932337279
 20
7.459884476671042
 30
0.0
 10
5.443539288496464
 20
7.441465410705247
 30
0.0
 10
5.421837885296706
 20
7.440407467299258
 30
0.0
  0
SPLINE
  5
8E
330
87
100
AcDbEntity
  8
slide guides
370
     0
100
AcDbSpline
210
0.0
220
0.0
230
1.0
 70
    11
 71
     3
 72
    17
 73
    13
 74
     0
 42
0.0000000001
 43
0.0000000001
 40
0.0
 40
0.0
 40
0.0
 40
0.0
 40
1.0
 40
1.0
 40
1.0
 40
2.0
 40
2.0
 40
2.0
 40
3.0
 40
3.0
 40
3.0
 40
4.0
 40
4.0
 40
4.0
 40
4.0
 10
2.734308986284593
 20
4.386368994997221
 30
0.0
 10
2.579686488486312
 20
4.373266772815366
 30
0.0
 10
2.327977338123111
 20
4.159399444281745
 30
0.0
 10
2.332765210204058
 20
3.958064676095984
 30
0.0
 10
2.339926673259979
 20
3.662450874384271
 30
0.0
 10
2.524673431374924
 20
3.490318056879186
 30
0.0
 10
2.815214530088693
 20
3.46020735993952
 30
0.0
 10
3.37753857712544
 20
3.401966219102168
 30
0.0
 10
3.93054458416329
 20
3.788929364907865
 30
0.0
 10
3.938981004657196
 20
4.354169537999579
 30
0.0
 10
3.935373146375236
 20
4.393394824283143
 30
0.0
 10
2.760106529338306
 20
4.388566262071197
 30
0.0
 10
2.734308986284593
 20
4.386368994997221
 30
0.0
  0
SPLINE
  5
8F
330
87
100
AcDbEntity
  8
slide guides
370
     0
100
AcDbSpline
210
0.0
220
0.0
230
1.0
 70
    11
 71
     3
 72
    17
 73
    13
 74
     0
 42
0.0000000001
 43
0.0000000001
 40
0.0
 40
0.0
 40
0.0
 40
0.0
 40
1.0
 40
1.0
 40
1.0
 40
2.0
 40
2.0
 40
2.0
 40
3.0
 40
3.0
 40
3.0
 40
4.0
 40
4.0
 40
4.0
 40
4.0
 10
2.746733039616455
 20
4.205135151525236
 30
0.0
 10
2.725085889924695
 20
4.203154898483258
 30
0.0
 10
2.705975091731908
 20
4.219105429835081
 30
0.0
 10
2.70396771193593
 20
4.240725452772841
 30
0.0
 10
2.701973895516952
 20
4.2623997292186
 30
0.0
 10
2.717897300114775
 20
4.281524090788387
 30
0.0
 10
2.739558013183534
 20
4.283504343830365
 30
0.0
 10
2.761245853006293
 20
4.285511723626342
 30
0.0
 10
2.78039734133008
 20
4.26958831902852
 30
0.0
 10
2.782391157749058
 20
4.247914042582761
 30
0.0
 10
2.784412100922036
 20
4.226266892891001
 30
0.0
 10
2.768448006193213
 20
4.207115404567214
 30
0.0
 10
2.746733039616455
 20
4.205135151525236
 30
0.0
  0
SPLINE
  5
90
330
87
100
AcDbEntity
  8
slide guides
370
     0
100
AcDbSpline
210
0.0
220
0.0
230
1.0
 70
    11
 71
     3
 72
    17
 73
    13
 74
     0
 42
0.0000000001
 43
0.0000000001
 40
0.0
 40
0.0
 40
0.0
 40
0.0
 40
1.0
 40
1.0
 40
1.0
 40
2.0
 40
2.0
 40
2.0
 40
3.0
 40
3.0
 40
3.0
 40
4.0
 40
4.0
 40
4.0
 40
4.0
 10
3.137005649410115
 20
4.260744997224618
 30
0.0
 10
3.126182074564235
 20
4.25971418057263
 30
0.0
 10
3.116647020533341
 20
4.26774369975654
 30
0.0
 10
3.115656894012352
 20
4.27854014784842
 30
0.0
 10
3.114653204114363
 20
4.2893637226943
 30
0.0
 10
3.122601343036275
 20
4.298939466856194
 30
0.0
 10
3.133424917882154
 20
4.299970283508181
 30
0.0
 10
3.144248492728034
 20
4.300919719898171
 30
0.0
 10
3.153851363643927
 20
4.29297158097626
 30
0.0
 10
3.154814363410916
 20
4.282120879376381
 30
0.0
 10
3.155858743439905
 20
4.271297304530501
 30
0.0
 10
3.147856351009994
 20
4.261721560368607
 30
0.0
 10
3.137005649410115
 20
4.260744997224618
 30
0.0
  0
ENDBLK
  5
8A
330
87
100
AcDbEntity
  8
0
100
AcDbBlockEnd
  0
BLOCK
  5
94
330
92
100
AcDbEntity
  8
0
100
AcDbBlockBegin
  2
block 9
 70
     0
 71
     0
 10
0.0
 20
0.0
 30
0.0
  3
block 9
  1

  0
ENDBLK
  5
95
330
92
100
AcDbEntity
  8
0
100
AcDbBlockEnd
  0
ENDSEC
  0
SECTION
  2
ENTITIES
  0
POLYLINE
  5
3C
330
1F
100
AcDbEntity
  8
slide guides
370
     0
100
AcDb2dPolyline
 66
     1
 10
0.0
 20
0.0
 30
0.0
  0
VERTEX
  5
3D
330
3C
100
AcDbEntity
  8
slide guides
370
     0
100
AcDbVertex
100
AcDb2dVertex
 10
0.7500004945836596
 20
12.49805511677301
 30
0.0
  0
VERTEX
  5
3E
330
3C
100
AcDbEntity
  8
slide guides
370
     0
100
AcDbVertex
100
AcDb2dVertex
 10
0.7500004945836596
 20
2.261828748494847
 30
0.0
  0
VERTEX
  5
3F
330
3C
100
AcDbEntity
  8
slide guides
370
     0
100
AcDbVertex
100
AcDb2dVertex
 10
7.167322434784295
 20
2.261828748494847
 30
0.0
  0
VERTEX
  5
40
330
3C
100
AcDbEntity
  8
slide guides
370
     0
100
AcDbVertex
100
AcDb2dVertex
 10
7.167322434784295
 20
12.49805511677301
 30
0.0
  0
VERTEX
  5
41
330
3C
100
AcDbEntity
  8
slide guides
370
     0
100
AcDbVertex
100
AcDb2dVertex
 10
0.7500004945836596
 20
12.49805511677301
 30
0.0
  0
SEQEND
  5
42
330
3C
100
AcDbEntity
  8
slide guides
370
     0
  0
SPLINE
  5
43
330
1F
100
AcDbEntity
  8
slide guides
370
     0
100
AcDbSpline
210
0.0
220
0.0
230
1.0
 70
    11
 71
     3
 72
    47
 73
    43
 74
     0
 42
0.0000000001
 43
0.0000000001
 40
0.0
 40
0.0
 40
0.0
 40
0.0
 40
1.0
 40
1.0
 40
1.0
 40
2.0
 40
2.0
 40
2.0
 40
3.0
 40
3.0
 40
3.0
 40
4.0
 40
4.0
 40
4.0
 40
5.0
 40
5.0
 40
5.0
 40
6.0
 40
6.0
 40
6.0
 40
7.0
 40
7.0
 40
7.0
 40
8.0
 40
8.0
 40
8.0
 40
9.0
 40
9.0
 40
9.0
 40
10.0
 40
10.0
 40
10.0
 40
11.0
 40
11.0
 40
11.0
 40
12.0
 40
12.0
 40
12.0
 40
13.0
 40
13.0
 40
13.0
 40
14.0
 40
14.0
 40
14.0
 40
14.0
 10
5.001969986889375
 20
6.159468580056503
 30
0.0
 10
4.962236073968317
 20
6.159468580056503
 30
0.0
 10
4.922854808849255
 20
6.160974114903486
 30
0.0
 10
4.883860099974688
 20
6.163863114204454
 30
0.0
 10
4.883860099974688
 20
6.163863114204454
 30
0.0
 10
4.883860099974688
 20
4.608320096222752
 30
0.0
 10
4.883860099974688
 20
4.608320096222752
 30
0.0
 10
4.883860099974688
 20
4.608320096222752
 30
0.0
 10
4.680592550566449
 20
4.608320096222752
 30
0.0
 10
4.680592550566449
 20
4.608320096222752
 30
0.0
 10
4.684763288993903
 20
4.561607825835273
 30
0.0
 10
4.687014809575878
 20
4.514353020367798
 30
0.0
 10
4.687014809575878
 20
4.466569243197329
 30
0.0
 10
4.687014809575878
 20
3.596804129705002
 30
0.0
 10
3.981949782992718
 20
2.891752666498842
 30
0.0
 10
3.11221179625439
 20
2.891752666498842
 30
0.0
 10
2.242446682762063
 20
2.891752666498842
 30
0.0
 10
1.537395219555903
 20
3.596804129705002
 30
0.0
 10
1.537395219555903
 20
4.466569243197329
 30
0.0
 10
1.537395219555903
 20
4.514353020367798
 30
0.0
 10
1.539646740137878
 20
4.561607825835273
 30
0.0
 10
1.543817478565332
 20
4.608320096222752
 30
0.0
 10
1.543817478565332
 20
4.608320096222752
 30
0.0
 10
1.340549929157092
 20
4.608320096222752
 30
0.0
 10
1.340549929157092
 20
4.608320096222752
 30
0.0
 10
1.340549929157092
 20
4.608320096222752
 30
0.0
 10
1.340549929157092
 20
11.71066039180077
 30
0.0
 10
1.340549929157092
 20
11.71066039180077
 30
0.0
 10
1.340549929157092
 20
11.71066039180077
 30
0.0
 10
4.883860099974688
 20
11.71066039180077
 30
0.0
 10
4.883860099974688
 20
11.71066039180077
 30
0.0
 10
4.883860099974688
 20
11.71066039180077
 30
0.0
 10
4.883860099974688
 20
9.304680072551527
 30
0.0
 10
4.883860099974688
 20
9.304680072551527
 30
0.0
 10
4.922854808849255
 20
9.307569071852495
 30
0.0
 10
4.962236073968317
 20
9.309074606699477
 30
0.0
 10
5.001969986889375
 20
9.309074606699477
 30
0.0
 10
5.871707973627703
 20
9.309074606699477
 30
0.0
 10
6.576773000210863
 20
8.604023143493318
 30
0.0
 10
6.576773000210863
 20
7.73428515675499
 30
0.0
 10
6.576773000210863
 20
6.864520043262663
 30
0.0
 10
5.871707973627703
 20
6.159468580056503
 30
0.0
 10
5.001969986889375
 20
6.159468580056503
 30
0.0
  0
INSERT
  5
45
330
1F
100
AcDbEntity
  8
slide guides
100
AcDbBlockReference
  2
block 2
 10
0.0
 20
0.0
 30
0.0
  0
INSERT
  5
4D
330
1F
100
AcDbEntity
  8
slide guides
100
AcDbBlockReference
  2
block 3
 10
0.0
 20
0.0
 30
0.0
  0
INSERT
  5
53
330
1F
100
AcDbEntity
  8
slide guides
100
AcDbBlockReference
  2
block 4
 10
0.0
 20
0.0
 30
0.0
  0
INSERT
  5
5B
330
1F
100
AcDbEntity
  8
slide guides
100
AcDbBlockReference
  2
block 5
 10
0.0
 20
0.0
 30
0.0
  0
INSERT
  5
88
330
1F
100
AcDbEntity
  8
slide guides
100
AcDbBlockReference
  2
block 8
 10
0.0
 20
0.0
 30
0.0
  0
INSERT
  5
93
330
1F
100
AcDbEntity
  8
sides
100
AcDbBlockReference
  2
block 9
 10
0.0
 20
0.0
 30
0.0
  0
POLYLINE
  5
96
330
1F
100
AcDbEntity
  8
sides
370
     0
100
AcDb2dPolyline
 66
     1
 10
0.0
 20
0.0
 30
0.0
  0
VERTEX
  5
97
330
96
100
AcDbEntity
  8
sides
370
     0
100
AcDbVertex
100
AcDb2dVertex
 10
13.89121738531252
 20
11.73405721712551
 30
0.0
  0
VERTEX
  5
98
330
96
100
AcDbEntity
  8
sides
370
     0
100
AcDbVertex
100
AcDb2dVertex
 10
13.89565260959147
 20
11.78424171202495
 30
0.0
  0
VERTEX
  5
99
330
96
100
AcDbEntity
  8
sides
370
     0
100
AcDbVertex
100
AcDb2dVertex
 10
13.89101393465752
 20
11.84194031778231
 30
0.0
  0
VERTEX
  5
9A
330
96
100
AcDbEntity
  8
sides
370
     0
100
AcDbVertex
100
AcDb2dVertex
 10
13.39101360493508
 20
11.84194031778231
 30
0.0
  0
VERTEX
  5
9B
330
96
100
AcDbEntity
  8
sides
370
     0
100
AcDbVertex
100
AcDb2dVertex
 10
13.38504571905515
 20
11.78310238835697
 30
0.0
  0
VERTEX
  5
9C
330
96
100
AcDbEntity
  8
sides
370
     0
100
AcDbVertex
100
AcDb2dVertex
 10
13.39074233739509
 20
11.73405721712551
 30
0.0
  0
VERTEX
  5
9D
330
96
100
AcDbEntity
  8
sides
370
     0
100
AcDbVertex
100
AcDb2dVertex
 10
12.88657805093369
 20
11.73405721712551
 30
0.0
  0
VERTEX
  5
9E
330
96
100
AcDbEntity
  8
sides
370
     0
100
AcDbVertex
100
AcDb2dVertex
 10
12.89101327521264
 20
11.78426883877895
 30
0.0
  0
VERTEX
  5
9F
330
96
100
AcDbEntity
  8
sides
370
     0
100
AcDbVertex
100
AcDb2dVertex
 10
12.8863746002787
 20
11.84194031778231
 30
0.0
  0
VERTEX
  5
A0
330
96
100
AcDbEntity
  8
sides
370
     0
100
AcDbVertex
100
AcDb2dVertex
 10
12.38637427055626
 20
11.84194031778231
 30
0.0
  0
VERTEX
  5
A1
330
96
100
AcDbEntity
  8
sides
370
     0
100
AcDbVertex
100
AcDb2dVertex
 10
12.38040638467632
 20
11.78310238835697
 30
0.0
  0
VERTEX
  5
A2
330
96
100
AcDbEntity
  8
sides
370
     0
100
AcDbVertex
100
AcDb2dVertex
 10
12.38610300301626
 20
11.73405721712551
 30
0.0
  0
VERTEX
  5
A3
330
96
100
AcDbEntity
  8
sides
370
     0
100
AcDbVertex
100
AcDb2dVertex
 10
11.88657739148881
 20
11.73405721712551
 30
0.0
  0
VERTEX
  5
A4
330
96
100
AcDbEntity
  8
sides
370
     0
100
AcDbVertex
100
AcDb2dVertex
 10
11.89101261576777
 20
11.78426883877895
 30
0.0
  0
VERTEX
  5
A5
330
96
100
AcDbEntity
  8
sides
370
     0
100
AcDbVertex
100
AcDb2dVertex
 10
11.88637394083382
 20
11.84194031778231
 30
0.0
  0
VERTEX
  5
A6
330
96
100
AcDbEntity
  8
sides
370
     0
100
AcDbVertex
100
AcDb2dVertex
 10
11.38637361111138
 20
11.84194031778231
 30
0.0
  0
VERTEX
  5
A7
330
96
100
AcDbEntity
  8
sides
370
     0
100
AcDbVertex
100
AcDb2dVertex
 10
11.38040572523144
 20
11.78310238835697
 30
0.0
  0
VERTEX
  5
A8
330
96
100
AcDbEntity
  8
sides
370
     0
100
AcDbVertex
100
AcDb2dVertex
 10
11.38610234357138
 20
11.73405721712551
 30
0.0
  0
VERTEX
  5
A9
330
96
100
AcDbEntity
  8
sides
370
     0
100
AcDbVertex
100
AcDb2dVertex
 10
10.88657673204393
 20
11.73405721712551
 30
0.0
  0
VERTEX
  5
AA
330
96
100
AcDbEntity
  8
sides
370
     0
100
AcDbVertex
100
AcDb2dVertex
 10
10.89101195632288
 20
11.78426883877895
 30
0.0
  0
VERTEX
  5
AB
330
96
100
AcDbEntity
  8
sides
370
     0
100
AcDbVertex
100
AcDb2dVertex
 10
10.88637328138894
 20
11.84194031778231
 30
0.0
  0
VERTEX
  5
AC
330
96
100
AcDbEntity
  8
sides
370
     0
100
AcDbVertex
100
AcDb2dVertex
 10
10.3863729516665
 20
11.84194031778231
 30
0.0
  0
VERTEX
  5
AD
330
96
100
AcDbEntity
  8
sides
370
     0
100
AcDbVertex
100
AcDb2dVertex
 10
10.38040506578656
 20
11.78310238835697
 30
0.0
  0
VERTEX
  5
AE
330
96
100
AcDbEntity
  8
sides
370
     0
100
AcDbVertex
100
AcDb2dVertex
 10
10.3861016841265
 20
11.73405721712551
 30
0.0
  0
VERTEX
  5
AF
330
96
100
AcDbEntity
  8
sides
370
     0
100
AcDbVertex
100
AcDb2dVertex
 10
9.886576072599055
 20
11.73405721712551
 30
0.0
  0
VERTEX
  5
B0
330
96
100
AcDbEntity
  8
sides
370
     0
100
AcDbVertex
100
AcDb2dVertex
 10
9.891011296878006
 20
11.78426883877895
 30
0.0
  0
VERTEX
  5
B1
330
96
100
AcDbEntity
  8
sides
370
     0
100
AcDbVertex
100
AcDb2dVertex
 10
9.886372621944057
 20
11.84194031778231
 30
0.0
  0
VERTEX
  5
B2
330
96
100
AcDbEntity
  8
sides
370
     0
100
AcDbVertex
100
AcDb2dVertex
 10
9.386372292221617
 20
11.84194031778231
 30
0.0
  0
VERTEX
  5
B3
330
96
100
AcDbEntity
  8
sides
370
     0
100
AcDbVertex
100
AcDb2dVertex
 10
9.380404406341684
 20
11.78310238835697
 30
0.0
  0
VERTEX
  5
B4
330
96
100
AcDbEntity
  8
sides
370
     0
100
AcDbVertex
100
AcDb2dVertex
 10
9.38610102468162
 20
11.73405721712551
 30
0.0
  0
VERTEX
  5
B5
330
96
100
AcDbEntity
  8
sides
370
     0
100
AcDbVertex
100
AcDb2dVertex
 10
8.332687786611336
 20
11.73405721712551
 30
0.0
  0
VERTEX
  5
B6
330
96
100
AcDbEntity
  8
sides
370
     0
100
AcDbVertex
100
AcDb2dVertex
 10
8.332687786611336
 20
7.234054249623553
 30
0.0
  0
VERTEX
  5
B7
330
96
100
AcDbEntity
  8
sides
370
     0
100
AcDbVertex
100
AcDb2dVertex
 10
14.75000972681197
 20
7.234054249623553
 30
0.0
  0
VERTEX
  5
B8
330
96
100
AcDbEntity
  8
sides
370
     0
100
AcDbVertex
100
AcDb2dVertex
 10
14.75000972681197
 20
11.73405721712551
 30
0.0
  0
VERTEX
  5
B9
330
96
100
AcDbEntity
  8
sides
370
     0
100
AcDbVertex
100
AcDb2dVertex
 10
13.89121738531252
 20
11.73405721712551
 30
0.0
  0
SEQEND
  5
BA
330
96
100
AcDbEntity
  8
sides
370
     0
  0
POLYLINE
  5
BB
330
1F
100
AcDbEntity
  8
sides
370
     0
100
AcDb2dPolyline
 66
     1
 10
0.0
 20
0.0
 30
0.0
  0
VERTEX
  5
BC
330
BB
100
AcDbEntity
  8
sides
370
     0
100
AcDbVertex
100
AcDb2dVertex
 10
13.89121738531252
 20
6.761831715996804
 30
0.0
  0
VERTEX
  5
BD
330
BB
100
AcDbEntity
  8
sides
370
     0
100
AcDbVertex
100
AcDb2dVertex
 10
13.89565260959147
 20
6.812016210896246
 30
0.0
  0
VERTEX
  5
BE
330
BB
100
AcDbEntity
  8
sides
370
     0
100
AcDbVertex
100
AcDb2dVertex
 10
13.89101393465752
 20
6.869714816653604
 30
0.0
  0
VERTEX
  5
BF
330
BB
100
AcDbEntity
  8
sides
370
     0
100
AcDbVertex
100
AcDb2dVertex
 10
13.39101360493508
 20
6.869714816653604
 30
0.0
  0
VERTEX
  5
C0
330
BB
100
AcDbEntity
  8
sides
370
     0
100
AcDbVertex
100
AcDb2dVertex
 10
13.38504571905515
 20
6.810876887228259
 30
0.0
  0
VERTEX
  5
C1
330
BB
100
AcDbEntity
  8
sides
370
     0
100
AcDbVertex
100
AcDb2dVertex
 10
13.39074233739509
 20
6.761831715996804
 30
0.0
  0
VERTEX
  5
C2
330
BB
100
AcDbEntity
  8
sides
370
     0
100
AcDbVertex
100
AcDb2dVertex
 10
12.88657805093369
 20
6.761831715996804
 30
0.0
  0
VERTEX
  5
C3
330
BB
100
AcDbEntity
  8
sides
370
     0
100
AcDbVertex
100
AcDb2dVertex
 10
12.89101327521264
 20
6.812043337650246
 30
0.0
  0
VERTEX
  5
C4
330
BB
100
AcDbEntity
  8
sides
370
     0
100
AcDbVertex
100
AcDb2dVertex
 10
12.8863746002787
 20
6.869714816653604
 30
0.0
  0
VERTEX
  5
C5
330
BB
100
AcDbEntity
  8
sides
370
     0
100
AcDbVertex
100
AcDb2dVertex
 10
12.38637427055626
 20
6.869714816653604
 30
0.0
  0
VERTEX
  5
C6
330
BB
100
AcDbEntity
  8
sides
370
     0
100
AcDbVertex
100
AcDb2dVertex
 10
12.38040638467632
 20
6.810876887228259
 30
0.0
  0
VERTEX
  5
C7
330
BB
100
AcDbEntity
  8
sides
370
     0
100
AcDbVertex
100
AcDb2dVertex
 10
12.38610300301626
 20
6.761831715996804
 30
0.0
  0
VERTEX
  5
C8
330
BB
100
AcDbEntity
  8
sides
370
     0
100
AcDbVertex
100
AcDb2dVertex
 10
11.88657739148881
 20
6.761831715996804
 30
0.0
  0
VERTEX
  5
C9
330
BB
100
AcDbEntity
  8
sides
370
     0
100
AcDbVertex
100
AcDb2dVertex
 10
11.89101261576777
 20
6.812043337650246
 30
0.0
  0
VERTEX
  5
CA
330
BB
100
AcDbEntity
  8
sides
370
     0
100
AcDbVertex
100
AcDb2dVertex
 10
11.88637394083382
 20
6.869714816653604
 30
0.0
  0
VERTEX
  5
CB
330
BB
100
AcDbEntity
  8
sides
370
     0
100
AcDbVertex
100
AcDb2dVertex
 10
11.38637361111138
 20
6.869714816653604
 30
0.0
  0
VERTEX
  5
CC
330
BB
100
AcDbEntity
  8
sides
370
     0
100
AcDbVertex
100
AcDb2dVertex
 10
11.38040572523144
 20
6.810876887228259
 30
0.0
  0
VERTEX
  5
CD
330
BB
100
AcDbEntity
  8
sides
370
     0
100
AcDbVertex
100
AcDb2dVertex
 10
11.38610234357138
 20
6.761831715996804
 30
0.0
  0
VERTEX
  5
CE
330
BB
100
AcDbEntity
  8
sides
370
     0
100
AcDbVertex
100
AcDb2dVertex
 10
10.88657673204393
 20
6.761831715996804
 30
0.0
  0
VERTEX
  5
CF
330
BB
100
AcDbEntity
  8
sides
370
     0
100
AcDbVertex
100
AcDb2dVertex
 10
10.89101195632288
 20
6.812043337650246
 30
0.0
  0
VERTEX
  5
D0
330
BB
100
AcDbEntity
  8
sides
370
     0
100
AcDbVertex
100
AcDb2dVertex
 10
10.88637328138894
 20
6.869714816653604
 30
0.0
  0
VERTEX
  5
D1
330
BB
100
AcDbEntity
  8
sides
370
     0
100
AcDbVertex
100
AcDb2dVertex
 10
10.3863729516665
 20
6.869714816653604
 30
0.0
  0
VERTEX
  5
D2
330
BB
100
AcDbEntity
  8
sides
370
     0
100
AcDbVertex
100
AcDb2dVertex
 10
10.38040506578656
 20
6.810876887228259
 30
0.0
  0
VERTEX
  5
D3
330
BB
100
AcDbEntity
  8
sides
370
     0
100
AcDbVertex
100
AcDb2dVertex
 10
10.3861016841265
 20
6.761831715996804
 30
0.0
  0
VERTEX
  5
D4
330
BB
100
AcDbEntity
  8
sides
370
     0
100
AcDbVertex
100
AcDb2dVertex
 10
9.886576072599055
 20
6.761831715996804
 30
0.0
  0
VERTEX
  5
D5
330
BB
100
AcDbEntity
  8
sides
370
     0
100
AcDbVertex
100
AcDb2dVertex
 10
9.891011296878006
 20
6.812043337650246
 30
0.0
  0
VERTEX
  5
D6
330
BB
100
AcDbEntity
  8
sides
370
     0
100
AcDbVertex
100
AcDb2dVertex
 10
9.886372621944057
 20
6.869714816653604
 30
0.0
  0
VERTEX
  5
D7
330
BB
100
AcDbEntity
  8
sides
370
     0
100
AcDbVertex
100
AcDb2dVertex
 10
9.386372292221617
 20
6.869714816653604
 30
0.0
  0
VERTEX
  5
D8
330
BB
100
AcDbEntity
  8
sides
370
     0
100
AcDbVertex
100
AcDb2dVertex
 10
9.380404406341684
 20
6.810876887228259
 30
0.0
  0
VERTEX
  5
D9
330
BB
100
AcDbEntity
  8
sides
370
     0
100
AcDbVertex
100
AcDb2dVertex
 10
9.38610102468162
 20
6.761831715996804
 30
0.0
  0
VERTEX
  5
DA
330
BB
100
AcDbEntity
  8
sides
370
     0
100
AcDbVertex
100
AcDb2dVertex
 10
8.332687786611336
 20
6.761831715996804
 30
0.0
  0
VERTEX
  5
DB
330
BB
100
AcDbEntity
  8
sides
370
     0
100
AcDbVertex
100
AcDb2dVertex
 10
8.332687786611336
 20
2.261828748494847
 30
0.0
  0
VERTEX
  5
DC
330
BB
100
AcDbEntity
  8
sides
370
     0
100
AcDbVertex
100
AcDb2dVertex
 10
14.75000972681197
 20
2.261828748494847
 30
0.0
  0
VERTEX
  5
DD
330
BB
100
AcDbEntity
  8
sides
370
     0
100
AcDbVertex
100
AcDb2dVertex
 10
14.75000972681197
 20
6.761831715996804
 30
0.0
  0
VERTEX
  5
DE
330
BB
100
AcDbEntity
  8
sides
370
     0
100
AcDbVertex
100
AcDb2dVertex
 10
13.89121738531252
 20
6.761831715996804
 30
0.0
  0
SEQEND
  5
DF
330
BB
100
AcDbEntity
  8
sides
370
     0
  0
ENDSEC
  0
SECTION
  2
OBJECTS
  0
DICTIONARY
  5
C
330
0
100
AcDbDictionary
281
     1
  3
ACAD_GROUP
350
D
  3
ACAD_LAYOUT
350
1A
  3
ACAD_MLINESTYLE
350
17
  3
ACAD_PLOTSETTINGS
350
19
  3
ACAD_PLOTSTYLENAME
350
E
  3
ACAD_TABLESTYLE
350
E0
  3
ACAD_VISUALSTYLE
350
2A
  0
DICTIONARY
  5
D
102
{ACAD_REACTORS
330
C
102
}
330
C
100
AcDbDictionary
281
     1
  0
DICTIONARY
  5
1A
102
{ACAD_REACTORS
330
C
102
}
330
C
100
AcDbDictionary
281
     1
  3
Layout1
350
1E
  3
Layout2
350
26
  3
Model
350
22
  0
DICTIONARY
  5
17
102
{ACAD_REACTORS
330
C
102
}
330
C
100
AcDbDictionary
281
     1
  3
Standard
350
18
  0
DICTIONARY
  5
19
102
{ACAD_REACTORS
330
C
102
}
330
C
100
AcDbDictionary
281
     1
  0
ACDBDICTIONARYWDFLT
  5
E
102
{ACAD_REACTORS
330
C
102
}
330
C
100
AcDbDictionary
281
     1
  3
Normal
350
F
100
AcDbDictionaryWithDefault
340
F
  0
DICTIONARY
  5
E0
102
{ACAD_REACTORS
330
C
102
}
330
C
100
AcDbDictionary
281
     1
  0
DICTIONARY
  5
2A
102
{ACAD_REACTORS
330
C
102
}
330
C
100
AcDbDictionary
281
     1
  3
2dWireframe
350
2F
  3
3D Hidden
350
31
  3
3dWireframe
350
30
  3
Basic
350
32
  3
Brighten
350
36
  3
ColorChange
350
3A
  3
Conceptual
350
34
  3
Dim
350
35
  3
Facepattern
350
39
  3
Flat
350
2B
  3
FlatWithEdges
350
2C
  3
Gouraud
350
2D
  3
GouraudWithEdges
350
2E
  3
Linepattern
350
38
  3
Realistic
350
33
  3
Thicken
350
37
  0
LAYOUT
  5
1E
102
{ACAD_REACTORS
330
1A
102
}
330
1A
100
AcDbPlotSettings
  1

  2
none_device
  4

  6

 40
0.0
 41
0.0
 42
0.0
 43
0.0
 44
0.0
 45
0.0
 46
0.0
 47
0.0
 48
0.0
 49
0.0
140
0.0
141
0.0
142
1.0
143
1.0
 70
   688
 72
     0
 73
     0
 74
     5
  7

 75
    16
147
1.0
148
0.0
149
0.0
100
AcDbLayout
  1
Layout1
 70
     1
 71
     1
 10
0.0
 20
0.0
 11
12.0
 21
9.0
 12
0.0
 22
0.0
 32
0.0
 14
1.000000000000000E+20
 24
1.000000000000000E+20
 34
1.000000000000000E+20
 15
-1.000000000000000E+20
 25
-1.000000000000000E+20
 35
-1.000000000000000E+20
146
0.0
 13
0.0
 23
0.0
 33
0.0
 16
1.0
 26
0.0
 36
0.0
 17
0.0
 27
1.0
 37
0.0
 76
     0
330
1B
  0
LAYOUT
  5
26
102
{ACAD_REACTORS
330
1A
102
}
330
1A
100
AcDbPlotSettings
  1

  2
none_device
  4

  6

 40
0.0
 41
0.0
 42
0.0
 43
0.0
 44
0.0
 45
0.0
 46
0.0
 47
0.0
 48
0.0
 49
0.0
140
0.0
141
0.0
142
1.0
143
1.0
 70
   688
 72
     0
 73
     0
 74
     5
  7

 75
    16
147
1.0
148
0.0
149
0.0
100
AcDbLayout
  1
Layout2
 70
     1
 71
     2
 10
0.0
 20
0.0
 11
0.0
 21
0.0
 12
0.0
 22
0.0
 32
0.0
 14
0.0
 24
0.0
 34
0.0
 15
0.0
 25
0.0
 35
0.0
146
0.0
 13
0.0
 23
0.0
 33
0.0
 16
1.0
 26
0.0
 36
0.0
 17
0.0
 27
1.0
 37
0.0
 76
     0
330
23
  0
LAYOUT
  5
22
102
{ACAD_REACTORS
330
1A
102
}
330
1A
100
AcDbPlotSettings
  1

  2
none_device
  4

  6

 40
0.0
 41
0.0
 42
0.0
 43
0.0
 44
0.0
 45
0.0
 46
0.0
 47
0.0
 48
0.0
 49
0.0
140
0.0
141
0.0
142
1.0
143
1.0
 70
  1712
 72
     0
 73
     0
 74
     0
  7

 75
     0
147
1.0
148
0.0
149
0.0
100
AcDbLayout
  1
Model
 70
     1
 71
     0
 10
0.0
 20
0.0
 11
12.0
 21
9.0
 12
0.0
 22
0.0
 32
0.0
 14
1.000000000000000E+20
 24
1.000000000000000E+20
 34
1.000000000000000E+20
 15
-1.000000000000000E+20
 25
-1.000000000000000E+20
 35
-1.000000000000000E+20
146
0.0
 13
0.0
 23
0.0
 33
0.0
 16
1.0
 26
0.0
 36
0.0
 17
0.0
 27
1.0
 37
0.0
 76
     0
330
1F
331
29
  0
MLINESTYLE
  5
18
102
{ACAD_REACTORS
330
17
102
}
330
17
100
AcDbMlineStyle
  2
Standard
 70
     0
  3

 62
   256
 51
90.0
 52
90.0
 71
     2
 49
0.5
 62
   256
  6
BYLAYER
 49
-0.5
 62
   256
  6
BYLAYER
  0
ACDBPLACEHOLDER
  5
F
102
{ACAD_REACTORS
330
E
102
}
330
E
  0
VISUALSTYLE
  5
2F
102
{ACAD_REACTORS
330
2A
102
}
330
2A
100
AcDbVisualStyle
  2
2dWireframe
 70
     4
 71
     0
 72
     2
 73
     0
 90
        0
 40
-0.6
 41
-30.0
 62
     5
 63
     7
 74
     1
 91
        4
 64
     7
 65
   257
 75
     1
175
     1
 42
1.0
 92
        0
 66
   257
 43
1.0
 76
     1
 77
     6
 78
     2
 67
     7
 79
     5
170
     0
171
     0
290
     0
174
     0
 93
        1
 44
0.0
173
     0
291
     0
 45
0.0
1001
ACAD
1000
AcDbSavedByObjectVersion
1070
     0
  0
VISUALSTYLE
  5
31
102
{ACAD_REACTORS
330
2A
102
}
330
2A
100
AcDbVisualStyle
  2
3D Hidden
 70
     6
 71
     1
 72
     2
 73
     2
 90
        0
 40
-0.6
 41
-30.0
 62
     5
 63
     7
 74
     2
 91
        2
 64
     7
 65
   257
 75
     2
175
     1
 42
40.0
 92
        0
 66
   257
 43
1.0
 76
     1
 77
     6
 78
     2
 67
     7
 79
     3
170
     0
171
     0
290
     0
174
     0
 93
        1
 44
0.0
173
     0
291
     0
 45
0.0
1001
ACAD
1000
AcDbSavedByObjectVersion
1070
     0
  0
VISUALSTYLE
  5
30
102
{ACAD_REACTORS
330
2A
102
}
330
2A
100
AcDbVisualStyle
  2
3dWireframe
 70
     5
 71
     0
 72
     2
 73
     0
 90
        0
 40
-0.6
 41
-30.0
 62
     5
 63
     7
 74
     1
 91
        4
 64
     7
 65
   257
 75
     1
175
     1
 42
1.0
 92
        0
 66
   257
 43
1.0
 76
     1
 77
     6
 78
     2
 67
     7
 79
     5
170
     0
171
     0
290
     0
174
     0
 93
        1
 44
0.0
173
     0
291
     0
 45
0.0
1001
ACAD
1000
AcDbSavedByObjectVersion
1070
     0
  0
VISUALSTYLE
  5
32
102
{ACAD_REACTORS
330
2A
102
}
330
2A
100
AcDbVisualStyle
  2
Basic
 70
     7
 71
     1
 72
     0
 73
     1
 90
        0
 40
-0.6
 41
-30.0
 62
     5
 63
     7
 74
     0
 91
        4
 64
     7
 65
   257
 75
     1
175
     1
 42
1.0
 92
        8
 66
     7
 43
1.0
 76
     1
 77
     6
 78
     2
 67
     7
 79
     5
170
     0
171
     0
290
     0
174
     0
 93
        1
 44
0.0
173
     0
291
     1
 45
0.0
1001
ACAD
1000
AcDbSavedByObjectVersion
1070
     0
  0
VISUALSTYLE
  5
36
102
{ACAD_REACTORS
330
2A
102
}
330
2A
100
AcDbVisualStyle
  2
Brighten
 70
    12
 71
     2
 72
     2
 73
     0
 90
        0
 40
-0.6
 41
-30.0
 62
     5
 63
     7
 74
     1
 91
        4
 64
     7
 65
   257
 75
     1
175
     1
 42
1.0
 92
        8
 66
     7
 43
1.0
 76
     1
 77
     6
 78
     2
 67
     7
 79
     5
170
     0
171
     0
290
     0
174
     0
 93
        1
 44
50.0
173
     0
291
     1
 45
0.0
1001
ACAD
1000
AcDbSavedByObjectVersion
1070
     0
  0
VISUALSTYLE
  5
3A
102
{ACAD_REACTORS
330
2A
102
}
330
2A
100
AcDbVisualStyle
  2
ColorChange
 70
    16
 71
     2
 72
     2
 73
     3
 90
        0
 40
-0.6
 41
-30.0
 62
     5
 63
     8
 74
     1
 91
        4
 64
     7
 65
   257
 75
     1
175
     1
 42
1.0
 92
        8
 66
     8
 43
1.0
 76
     1
 77
     6
 78
     2
 67
     7
 79
     5
170
     0
171
     0
290
     0
174
     0
 93
        1
 44
0.0
173
     0
291
     1
 45
0.0
1001
ACAD
1000
AcDbSavedByObjectVersion
1070
     0
  0
VISUALSTYLE
  5
34
102
{ACAD_REACTORS
330
2A
102
}
330
2A
100
AcDbVisualStyle
  2
Conceptual
 70
     9
 71
     3
 72
     2
 73
     0
 90
        0
 40
-0.6
 41
-30.0
 62
     5
 63
     7
 74
     2
 91
        2
 64
     7
 65
   257
 75
     1
175
     1
 42
40.0
 92
        8
 66
     7
 43
1.0
 76
     1
 77
     6
 78
     2
 67
     7
 79
     3
170
     0
171
     0
290
     0
174
     0
 93
        1
 44
0.0
173
     0
291
     0
 45
0.0
1001
ACAD
1000
AcDbSavedByObjectVersion
1070
     0
  0
VISUALSTYLE
  5
35
102
{ACAD_REACTORS
330
2A
102
}
330
2A
100
AcDbVisualStyle
  2
Dim
 70
    11
 71
     2
 72
     2
 73
     0
 90
        0
 40
-0.6
 41
-30.0
 62
     5
 63
     7
 74
     1
 91
        4
 64
     7
 65
   257
 75
     1
175
     1
 42
1.0
 92
        8
 66
     7
 43
1.0
 76
     1
 77
     6
 78
     2
 67
     7
 79
     5
170
     0
171
     0
290
     0
174
     0
 93
        1
 44
-50.0
173
     0
291
     1
 45
0.0
1001
ACAD
1000
AcDbSavedByObjectVersion
1070
     0
  0
VISUALSTYLE
  5
39
102
{ACAD_REACTORS
330
2A
102
}
330
2A
100
AcDbVisualStyle
  2
Facepattern
 70
    15
 71
     2
 72
     2
 73
     0
 90
        0
 40
-0.6
 41
-30.0
 62
     5
 63
     7
 74
     1
 91
        4
 64
     7
 65
   257
 75
     1
175
     1
 42
1.0
 92
        8
 66
     7
 43
1.0
 76
     1
 77
     6
 78
     2
 67
     7
 79
     5
170
     0
171
     0
290
     0
174
     0
 93
        1
 44
0.0
173
     0
291
     1
 45
0.0
1001
ACAD
1000
AcDbSavedByObjectVersion
1070
     0
  0
VISUALSTYLE
  5
2B
102
{ACAD_REACTORS
330
2A
102
}
330
2A
100
AcDbVisualStyle
  2
Flat
 70
     0
 71
     2
 72
     1
 73
     1
 90
        2
 40
-0.6
 41
30.0
 62
     5
 63
     7
 74
     0
 91
        4
 64
     7
 65
   257
 75
     1
175
     1
 42
1.0
 92
        8
 66
     7
 43
1.0
 76
     1
 77
     6
 78
     2
 67
     7
 79
     5
170
     0
171
     0
290
     0
174
     0
 93
       13
 44
0.0
173
     0
291
     1
 45
0.0
1001
ACAD
1000
AcDbSavedByObjectVersion
1070
     0
  0
VISUALSTYLE
  5
2C
102
{ACAD_REACTORS
330
2A
102
}
330
2A
100
AcDbVisualStyle
  2
FlatWithEdges
 70
     1
 71
     2
 72
     1
 73
     1
 90
        2
 40
-0.6
 41
30.0
 62
     5
 63
     7
 74
     1
 91
        4
 64
     7
 65
   257
 75
     1
175
     1
 42
1.0
 92
        0
 66
   257
 43
1.0
 76
     1
 77
     6
 78
     2
 67
     7
 79
     5
170
     0
171
     0
290
     0
174
     0
 93
       13
 44
0.0
173
     0
291
     1
 45
0.0
1001
ACAD
1000
AcDbSavedByObjectVersion
1070
     0
  0
VISUALSTYLE
  5
2D
102
{ACAD_REACTORS
330
2A
102
}
330
2A
100
AcDbVisualStyle
  2
Gouraud
 70
     2
 71
     2
 72
     2
 73
     1
 90
        2
 40
-0.6
 41
30.0
 62
     5
 63
     7
 74
     0
 91
        4
 64
     7
 65
   257
 75
     1
175
     1
 42
1.0
 92
        0
 66
     7
 43
1.0
 76
     1
 77
     6
 78
     2
 67
     7
 79
     5
170
     0
171
     0
290
     0
174
     0
 93
       13
 44
0.0
173
     0
291
     1
 45
0.0
1001
ACAD
1000
AcDbSavedByObjectVersion
1070
     0
  0
VISUALSTYLE
  5
2E
102
{ACAD_REACTORS
330
2A
102
}
330
2A
100
AcDbVisualStyle
  2
GouraudWithEdges
 70
     3
 71
     2
 72
     2
 73
     1
 90
        2
 40
-0.6
 41
30.0
 62
     5
 63
     7
 74
     1
 91
        4
 64
     7
 65
   257
 75
     1
175
     1
 42
1.0
 92
        0
 66
   257
 43
1.0
 76
     1
 77
     6
 78
     2
 67
     7
 79
     5
170
     0
171
     0
290
     0
174
     0
 93
       13
 44
0.0
173
     0
291
     1
 45
0.0
1001
ACAD
1000
AcDbSavedByObjectVersion
1070
     0
  0
VISUALSTYLE
  5
38
102
{ACAD_REACTORS
330
2A
102
}
330
2A
100
AcDbVisualStyle
  2
Linepattern
 70
    14
 71
     2
 72
     2
 73
     0
 90
        0
 40
-0.6
 41
-30.0
 62
     5
 63
     7
 74
     1
 91
        4
 64
     7
 65
   257
 75
     7
175
     7
 42
1.0
 92
        8
 66
     7
 43
1.0
 76
     1
 77
     6
 78
     2
 67
     7
 79
     5
170
     0
171
     0
290
     0
174
     0
 93
        1
 44
0.0
173
     0
291
     1
 45
0.0
1001
ACAD
1000
AcDbSavedByObjectVersion
1070
     0
  0
VISUALSTYLE
  5
33
102
{ACAD_REACTORS
330
2A
102
}
330
2A
100
AcDbVisualStyle
  2
Realistic
 70
     8
 71
     2
 72
     2
 73
     0
 90
        0
 40
-0.6
 41
-30.0
 62
     5
 63
     7
 74
     1
 91
        0
 64
     7
 65
   257
 75
     1
175
     1
 42
1.0
 92
        8
 66
     8
 43
1.0
 76
     1
 77
     6
 78
     2
 67
     7
 79
     5
170
     0
171
     0
290
     0
174
     0
 93
       13
 44
0.0
173
     0
291
     0
 45
0.0
1001
ACAD
1000
AcDbSavedByObjectVersion
1070
     0
  0
VISUALSTYLE
  5
37
102
{ACAD_REACTORS
330
2A
102
}
330
2A
100
AcDbVisualStyle
  2
Thicken
 70
    13
 71
     2
 72
     2
 73
     0
 90
        0
 40
-0.6
 41
-30.0
 62
     5
 63
     7
 74
     1
 91
        4
 64
     7
 65
   257
 75
     1
175
     1
 42
1.0
 92
       12
 66
     7
 43
1.0
 76
     1
 77
     6
 78
     2
 67
     7
 79
     5
170
     0
171
     0
290
     0
174
     0
 93
        1
 44
0.0
173
     0
291
     1
 45
0.0
1001
ACAD
1000
AcDbSavedByObjectVersion
1070
     0
  0
ENDSEC
  0
EOF
