  0
SECTION
  2
HEADER
  9
$ACADVER
  1
AC1012
  9
$DWGCODEPAGE
  3
ANSI_1252
  9
$INSBASE
 10
0.0
 20
0.0
 30
0.0
  9
$EXTMIN
 10
0.0
 20
0.0
 30
0.0
  9
$EXTMAX
 10
603.0
 20
603.0
 30
0.0
  9
$LIMMIN
 10
0.0
 20
0.0
  9
$LIMMAX
 10
420.0
 20
297.0
  9
$ORTHOMODE
 70
     0
  9
$REGENMODE
 70
     1
  9
$FILLMODE
 70
     1
  9
$QTEXTMODE
 70
     0
  9
$MIRRTEXT
 70
     1
  9
$DRAGMODE
 70
     2
  9
$LTSCALE
 40
1.0
  9
$OSMODE
 70
    55
  9
$ATTMODE
 70
     1
  9
$TEXTSIZE
 40
2.5
  9
$TRACEWID
 40
1.0
  9
$TEXTSTYLE
  7
STANDARD
  9
$CLAYER
  8
0
  9
$CELTYPE
  6
BYLAYER
  9
$CECOLOR
 62
   256
  9
$CELTSCALE
 40
1.0
  9
$DELOBJ
 70
     1
  9
$DISPSILH
 70
     0
  9
$DIMSCALE
 40
1.0
  9
$DIMASZ
 40
2.5
  9
$DIMEXO
 40
0.625
  9
$DIMDLI
 40
3.75
  9
$DIMRND
 40
0.0
  9
$DIMDLE
 40
0.0
  9
$DIMEXE
 40
1.25
  9
$DIMTP
 40
0.0
  9
$DIMTM
 40
0.0
  9
$DIMTXT
 40
2.5
  9
$DIMCEN
 40
2.5
  9
$DIMTSZ
 40
0.0
  9
$DIMTOL
 70
     0
  9
$DIMLIM
 70
     0
  9
$DIMTIH
 70
     0
  9
$DIMTOH
 70
     0
  9
$DIMSE1
 70
     0
  9
$DIMSE2
 70
     0
  9
$DIMTAD
 70
     1
  9
$DIMZIN
 70
     8
  9
$DIMBLK
  1

  9
$DIMASO
 70
     1
  9
$DIMSHO
 70
     1
  9
$DIMPOST
  1

  9
$DIMAPOST
  1

  9
$DIMALT
 70
     0
  9
$DIMALTD
 70
     3
  9
$DIMALTF
 40
0.03937007874016
  9
$DIMLFAC
 40
1.0
  9
$DIMTOFL
 70
     1
  9
$DIMTVP
 40
0.0
  9
$DIMTIX
 70
     0
  9
$DIMSOXD
 70
     0
  9
$DIMSAH
 70
     0
  9
$DIMBLK1
  1

  9
$DIMBLK2
  1

  9
$DIMSTYLE
  2
ISO-25
  9
$DIMCLRD
 70
     0
  9
$DIMCLRE
 70
     0
  9
$DIMCLRT
 70
     0
  9
$DIMTFAC
 40
1.0
  9
$DIMGAP
 40
0.625
  9
$DIMJUST
 70
     0
  9
$DIMSD1
 70
     0
  9
$DIMSD2
 70
     0
  9
$DIMTOLJ
 70
     1
  9
$DIMTZIN
 70
     0
  9
$DIMALTZ
 70
     0
  9
$DIMALTTZ
 70
     0
  9
$DIMFIT
 70
     3
  9
$DIMUPT
 70
     0
  9
$DIMUNIT
 70
     2
  9
$DIMDEC
 70
     4
  9
$DIMTDEC
 70
     4
  9
$DIMALTU
 70
     2
  9
$DIMALTTD
 70
     2
  9
$DIMTXSTY
  7
STANDARD
  9
$DIMAUNIT
 70
     0
  9
$LUNITS
 70
     2
  9
$LUPREC
 70
     4
  9
$SKETCHINC
 40
1.0
  9
$FILLETRAD
 40
10.0
  9
$AUNITS
 70
     0
  9
$AUPREC
 70
     0
  9
$MENU
  1
.
  9
$ELEVATION
 40
0.0
  9
$PELEVATION
 40
0.0
  9
$THICKNESS
 40
0.0
  9
$LIMCHECK
 70
     0
  9
$BLIPMODE
 70
     0
  9
$CHAMFERA
 40
10.0
  9
$CHAMFERB
 40
10.0
  9
$CHAMFERC
 40
0.0
  9
$CHAMFERD
 40
0.0
  9
$SKPOLY
 70
     0
  9
$TDCREATE
 40
2454234.241615659
  9
$TDUPDATE
 40
2454385.820557534
  9
$TDINDWG
 40
0.0796187731
  9
$TDUSRTIMER
 40
0.0796184144
  9
$USRTIMER
 70
     1
  9
$ANGBASE
 50
0.0
  9
$ANGDIR
 70
     0
  9
$PDMODE
 70
     0
  9
$PDSIZE
 40
0.0
  9
$PLINEWID
 40
0.0
  9
$COORDS
 70
     1
  9
$SPLFRAME
 70
     0
  9
$SPLINETYPE
 70
     6
  9
$SPLINESEGS
 70
     8
  9
$ATTDIA
 70
     0
  9
$ATTREQ
 70
     1
  9
$HANDLING
 70
 22529
  9
$HANDSEED
  5
45A
  9
$SURFTAB1
 70
     6
  9
$SURFTAB2
 70
     6
  9
$SURFTYPE
 70
     6
  9
$SURFU
 70
     6
  9
$SURFV
 70
     6
  9
$UCSNAME
  2

  9
$UCSORG
 10
0.0
 20
0.0
 30
0.0
  9
$UCSXDIR
 10
1.0
 20
0.0
 30
0.0
  9
$UCSYDIR
 10
0.0
 20
1.0
 30
0.0
  9
$PUCSNAME
  2

  9
$PUCSORG
 10
0.0
 20
0.0
 30
0.0
  9
$PUCSXDIR
 10
1.0
 20
0.0
 30
0.0
  9
$PUCSYDIR
 10
0.0
 20
1.0
 30
0.0
  9
$USERI1
 70
     0
  9
$USERI2
 70
     0
  9
$USERI3
 70
     0
  9
$USERI4
 70
     0
  9
$USERI5
 70
     0
  9
$USERR1
 40
0.0
  9
$USERR2
 40
0.0
  9
$USERR3
 40
0.0
  9
$USERR4
 40
0.0
  9
$USERR5
 40
0.0
  9
$WORLDVIEW
 70
     1
  9
$SHADEDGE
 70
     3
  9
$SHADEDIF
 70
    70
  9
$TILEMODE
 70
     1
  9
$MAXACTVP
 70
    64
  9
$PINSBASE
 10
0.0
 20
0.0
 30
0.0
  9
$PLIMCHECK
 70
     0
  9
$PEXTMIN
 10
0.0
 20
0.0
 30
0.0
  9
$PEXTMAX
 10
0.0
 20
0.0
 30
0.0
  9
$PLIMMIN
 10
0.0
 20
0.0
  9
$PLIMMAX
 10
12.0
 20
9.0
  9
$UNITMODE
 70
     0
  9
$VISRETAIN
 70
     1
  9
$PLINEGEN
 70
     0
  9
$PSLTSCALE
 70
     1
  9
$TREEDEPTH
 70
  3020
  9
$PICKSTYLE
 70
     1
  9
$CMLSTYLE
  2
STANDARD
  9
$CMLJUST
 70
     0
  9
$CMLSCALE
 40
1.0
  9
$SAVEIMAGES
 70
     1
  0
ENDSEC
  0
SECTION
  2
CLASSES
  0
CLASS
  1
ACDBDICTIONARYWDFLT
  2
AcDbDictionaryWithDefault
  3
AutoCAD 2000
 90
    32768
280
     0
281
     0
  0
CLASS
  1
ACDBPLACEHOLDER
  2
AcDbPlaceHolder
  3
AutoCAD 2000
 90
    32768
280
     0
281
     0
  0
CLASS
  1
LAYOUT
  2
AcDbLayout
  3
AutoCAD 2000
 90
    32768
280
     0
281
     0
  0
CLASS
  1
DICTIONARYVAR
  2
AcDbDictionaryVar
  3
AutoCAD 2000
 90
    32768
280
     0
281
     0
  0
CLASS
  1
LONG_TRANSACTION
  2
AcDbLongTransaction
  3
AutoCAD 2000
 90
    32768
280
     0
281
     0
  0
CLASS
  1
LWPOLYLINE
  2
AcDbPolyline
  3
AutoCAD 2000
 90
    32768
280
     0
281
     1
  0
CLASS
  1
HATCH
  2
AcDbHatch
  3
AutoCAD 2000
 90
    32768
280
     0
281
     1
  0
CLASS
  1
XRECORD
  2
AcDbXrecord
  3
AutoCAD 2000
 90
    32768
280
     0
281
     0
  0
ENDSEC
  0
SECTION
  2
TABLES
  0
TABLE
  2
VPORT
  5
140
330
0
100
AcDbSymbolTable
 70
     4
  0
VPORT
  5
449
330
140
100
AcDbSymbolTableRecord
100
AcDbViewportTableRecord
  2
*ACTIVE
 70
     0
 10
0.0
 20
0.0
 11
1.0
 21
1.0
 12
95.5930397672123
 22
147.5444113861377
 13
0.0
 23
0.0
 14
10.0
 24
10.0
 15
10.0
 25
10.0
 16
0.0
 26
0.0
 36
1.0
 17
0.0
 27
0.0
 37
0.0
 40
424.2805308133986
 41
2.218472468916518
 42
50.0
 43
0.0
 44
0.0
 50
0.0
 51
0.0
 71
     0
 72
   100
 73
     1
 74
     3
 75
     0
 76
     0
 77
     0
 78
     0
  0
ENDTAB
  0
TABLE
  2
LTYPE
  5
13D
330
0
100
AcDbSymbolTable
 70
     1
  0
LTYPE
  5
14B
330
13D
100
AcDbSymbolTableRecord
100
AcDbLinetypeTableRecord
  2
BYBLOCK
 70
     0
  3

 72
    65
 73
     0
 40
0.0
  0
LTYPE
  5
14C
330
13D
100
AcDbSymbolTableRecord
100
AcDbLinetypeTableRecord
  2
BYLAYER
 70
     0
  3

 72
    65
 73
     0
 40
0.0
  0
LTYPE
  5
14D
330
13D
100
AcDbSymbolTableRecord
100
AcDbLinetypeTableRecord
  2
CONTINUOUS
 70
     0
  3
Solid line
 72
    65
 73
     0
 40
0.0
  0
ENDTAB
  0
TABLE
  2
LAYER
  5
13A
330
0
100
AcDbSymbolTable
 70
     4
  0
LAYER
  5
148
330
13A
100
AcDbSymbolTableRecord
100
AcDbLayerTableRecord
  2
0
 70
     0
 62
     7
  6
CONTINUOUS
  0
LAYER
  5
15B
330
13A
100
AcDbSymbolTableRecord
100
AcDbLayerTableRecord
  2
LASER_BED
 70
     0
 62
     8
  6
CONTINUOUS
  0
LAYER
  5
15C
330
13A
100
AcDbSymbolTableRecord
100
AcDbLayerTableRecord
  2
TEXT
 70
     0
 62
  -250
  6
CONTINUOUS
  0
LAYER
  5
1CA
330
13A
100
AcDbSymbolTableRecord
100
AcDbLayerTableRecord
  2
FINAL
 70
     0
 62
     8
  6
CONTINUOUS
  0
ENDTAB
  0
TABLE
  2
STYLE
  5
13B
330
0
100
AcDbSymbolTable
 70
     1
  0
STYLE
  5
149
330
13B
100
AcDbSymbolTableRecord
100
AcDbTextStyleTableRecord
  2
STANDARD
 70
     0
 40
0.0
 41
1.0
 50
0.0
 71
     0
 42
2.5
  3
txt
  4

  0
ENDTAB
  0
TABLE
  2
VIEW
  5
13E
330
0
100
AcDbSymbolTable
 70
     0
  0
ENDTAB
  0
TABLE
  2
UCS
  5
13F
330
0
100
AcDbSymbolTable
 70
     0
  0
ENDTAB
  0
TABLE
  2
APPID
  5
141
330
0
100
AcDbSymbolTable
 70
     1
  0
APPID
  5
14A
330
141
100
AcDbSymbolTableRecord
100
AcDbRegAppTableRecord
  2
ACAD
 70
     0
  0
ENDTAB
  0
TABLE
  2
DIMSTYLE
  5
142
330
0
100
AcDbSymbolTable
 70
     1
  0
DIMSTYLE
105
15D
330
142
100
AcDbSymbolTableRecord
100
AcDbDimStyleTableRecord
  2
ISO-25
 70
     0
  3

  4

  5

  6

  7

 40
1.0
 41
2.5
 42
0.625
 43
3.75
 44
1.25
 45
0.0
 46
0.0
 47
0.0
 48
0.0
140
2.5
141
2.5
142
0.0
143
0.03937007874016
144
1.0
145
0.0
146
1.0
147
0.625
 71
     0
 72
     0
 73
     0
 74
     0
 75
     0
 76
     0
 77
     1
 78
     8
170
     0
171
     3
172
     1
173
     0
174
     0
175
     0
176
     0
177
     0
178
     0
270
     2
271
     4
272
     4
273
     2
274
     3
340
149
275
     0
280
     0
281
     0
282
     0
283
     1
284
     8
285
     8
286
     8
287
     5
288
     0
  0
ENDTAB
  0
TABLE
  2
BLOCK_RECORD
  5
139
330
0
100
AcDbSymbolTable
 70
     5
  0
BLOCK_RECORD
  5
156
102
{ACAD_XDICTIONARY
360
44C
102
}
330
139
100
AcDbSymbolTableRecord
100
AcDbBlockTableRecord
  2
*MODEL_SPACE
  0
BLOCK_RECORD
  5
152
102
{ACAD_XDICTIONARY
360
44A
102
}
330
139
100
AcDbSymbolTableRecord
100
AcDbBlockTableRecord
  2
*PAPER_SPACE
  0
BLOCK_RECORD
  5
15F
330
139
100
AcDbSymbolTableRecord
100
AcDbBlockTableRecord
  2
$MODEL_SPACE
  0
BLOCK_RECORD
  5
162
330
139
100
AcDbSymbolTableRecord
100
AcDbBlockTableRecord
  2
$PAPER_SPACE
  0
BLOCK_RECORD
  5
165
330
139
100
AcDbSymbolTableRecord
100
AcDbBlockTableRecord
  2
*U2
  0
BLOCK_RECORD
  5
1A2
330
139
100
AcDbSymbolTableRecord
100
AcDbBlockTableRecord
  2
*U3
  0
ENDTAB
  0
ENDSEC
  0
SECTION
  2
BLOCKS
  0
BLOCK
  5
157
330
156
100
AcDbEntity
  8
0
100
AcDbBlockBegin
  2
*MODEL_SPACE
 70
     0
 10
0.0
 20
0.0
 30
0.0
  3
*MODEL_SPACE
  1

  0
ENDBLK
  5
158
330
156
100
AcDbEntity
  8
0
100
AcDbBlockEnd
  0
BLOCK
  5
153
330
152
100
AcDbEntity
 67
     1
  8
0
100
AcDbBlockBegin
  2
*PAPER_SPACE
 70
     0
 10
0.0
 20
0.0
 30
0.0
  3
*PAPER_SPACE
  1

  0
ENDBLK
  5
154
330
152
100
AcDbEntity
 67
     1
  8
0
100
AcDbBlockEnd
  0
BLOCK
  5
160
330
15F
100
AcDbEntity
  8
0
100
AcDbBlockBegin
  2
$MODEL_SPACE
 70
     0
 10
0.0
 20
0.0
 30
0.0
  3
$MODEL_SPACE
  1

  0
ENDBLK
  5
161
330
15F
100
AcDbEntity
  8
0
100
AcDbBlockEnd
  0
BLOCK
  5
163
330
162
100
AcDbEntity
  8
0
100
AcDbBlockBegin
  2
$PAPER_SPACE
 70
     0
 10
0.0
 20
0.0
 30
0.0
  3
$PAPER_SPACE
  1

  0
ENDBLK
  5
164
330
162
100
AcDbEntity
  8
0
100
AcDbBlockEnd
  0
BLOCK
  5
166
330
165
100
AcDbEntity
  8
0
100
AcDbBlockBegin
  2
*U2
 70
     1
 10
0.0
 20
0.0
 30
0.0
  3
*U2
  1

  0
LINE
  5
167
330
165
100
AcDbEntity
  8
0
100
AcDbLine
 10
13.14800855692494
 20
573.033171645369
 30
0.0
 11
104.3146752235914
 21
573.033171645369
 31
0.0
  0
TEXT
  5
168
330
165
100
AcDbEntity
  8
0
100
AcDbText
 10
13.14800855692494
 20
573.7331716453691
 30
0.0
 40
3.5
  1
Using the Epilog AutoCAD driver:
100
AcDbText
  0
TEXT
  5
169
330
165
100
AcDbEntity
  8
0
100
AcDbText
 10
12.81467522359162
 20
562.0665049787024
 30
0.0
 40
3.5
  1
1. There is a plotter conflict between the page size of the plotter and what AutoCAD thinks is appropriate plotter configuration 
100
AcDbText
  0
TEXT
  5
16A
330
165
100
AcDbEntity
  8
0
100
AcDbText
 10
13.31467522359162
 20
555.5665049787023
 30
0.0
 40
3.5
  1
(landscape/portrait). There is a documented workaround which enables the operator to use a full A2  sheet in the Epilog without incorrect 
100
AcDbText
  0
TEXT
  5
16B
330
165
100
AcDbEntity
  8
0
100
AcDbText
 10
13.31467522359162
 20
549.7331716453691
 30
0.0
 40
3.5
  1
orientation. If you have an alternative method which is untested, go play with it in your own time. In this file you will find a grey oblong within 
100
AcDbText
  0
TEXT
  5
16C
330
165
100
AcDbEntity
  8
0
100
AcDbText
 10
13.31467522359162
 20
543.8998383120356
 30
0.0
 40
3.5
  1
a square. The oblong defines the actual space of the plotter bed, its origin is the bottom left-hand corner. The larger square prevents AutoCAD 
100
AcDbText
  0
TEXT
  5
16D
330
165
100
AcDbEntity
  8
0
100
AcDbText
 10
13.31467522359162
 20
538.0665049787023
 30
0.0
 40
3.5
  1
from reorientating the drawing to the wrong format. Place your CAD drawings within the oblong. Place nothing outside.
100
AcDbText
  0
TEXT
  5
16E
330
165
100
AcDbEntity
  8
0
100
AcDbText
 10
13.48134189025827
 20
532.2331716453691
 30
0.0
 40
3.5
  1
You may find that the plotter attempts to cut this oblong and square, if this is the case, go to the LAYERS box in AutoCAD and uncheck the 
100
AcDbText
  0
TEXT
  5
16F
330
165
100
AcDbEntity
  8
0
100
AcDbText
 10
13.14800855692494
 20
525.7331716453689
 30
0.0
 40
3.5
  1
printer icon on the LASER_BED layer (or whatever the layer is called).
100
AcDbText
  0
TEXT
  5
170
330
165
100
AcDbEntity
  8
0
100
AcDbText
 10
13.31467522359162
 20
513.3998383120358
 30
0.0
 40
3.5
  1
2. The plotter driver is called "Legend Vector" or "Legend Win32 Vector", when plotting ensure that this is the driver selected, other drivers will 
100
AcDbText
  0
TEXT
  5
171
330
165
100
AcDbEntity
  8
0
100
AcDbText
 10
13.14800855692494
 20
507.5665049787025
 30
0.0
 40
3.5
  1
not work with AutoCAD. The Epilog plotter driver is not accessed through the  standard interface, you must click on CUSTOM PROPERTIES to 
100
AcDbText
  0
TEXT
  5
172
330
165
100
AcDbEntity
  8
0
100
AcDbText
 10
13.31467522359162
 20
501.7331716453691
 30
0.0
 40
3.5
  1
access its unique idiosyncracies. 
100
AcDbText
  0
TEXT
  5
173
330
165
100
AcDbEntity
  8
0
100
AcDbText
 10
13.14800855692494
 20
489.3998383120358
 30
0.0
 40
3.5
  1
File -> Plot -> Plot Device (tab) -> [Legend Win32 Vector Only.pc3] -> Properties ->
100
AcDbText
  0
TEXT
  5
174
330
165
100
AcDbEntity
  8
0
100
AcDbText
 10
13.14800855692494
 20
477.0665049787025
 30
0.0
 40
3.5
  1
Leading on to the "Plotter Configuration Editor - Legend Win32 Vector Only.pc3" window
100
AcDbText
  0
TEXT
  5
175
330
165
100
AcDbEntity
  8
0
100
AcDbText
 10
13.81467522359161
 20
465.3998383120359
 30
0.0
 40
3.5
  1
 .. -> Custom Properties... ->
100
AcDbText
  0
TEXT
  5
176
330
165
100
AcDbEntity
  8
0
100
AcDbText
 10
13.31467522359162
 20
453.0665049787025
 30
0.0
 40
3.5
  1
Opens the "Legend Win32 Vector Only Properties" window where some settings must be made.
100
AcDbText
  0
TEXT
  5
177
330
165
100
AcDbEntity
  8
0
100
AcDbText
 10
13.14800855692494
 20
440.7331716453692
 30
0.0
 40
3.5
  1
Piece Size (inches) must be set to 24" Horizontal & 24" Vertical or 60 x 60 cm
100
AcDbText
  0
TEXT
  5
178
330
165
100
AcDbEntity
  8
0
100
AcDbText
 10
13.14800855692494
 20
428.3998383120358
 30
0.0
 40
3.5
  1
If you are unsure of what Speed/Power settings cut or mark your material, you can open a saved setting from the "Configurations" box Where 
100
AcDbText
  0
TEXT
  5
179
330
165
100
AcDbEntity
  8
0
100
AcDbText
 10
13.31467522359162
 20
421.8998383120358
 30
0.0
 40
3.5
  1
it says [Custom Settings -- not saved]. If you scroll this box down you will see another  window saying [Save as..] and here is the 
100
AcDbText
  0
TEXT
  5
17A
330
165
100
AcDbEntity
  8
0
100
AcDbText
 10
13.14800855692494
 20
415.3998383120358
 30
0.0
 40
3.5
  1
non-evident bit, if you go to the right of this particular window and scroll down again you will see another option [Load..], this option will 
100
AcDbText
  0
TEXT
  5
17B
330
165
100
AcDbEntity
  8
0
100
AcDbText
 10
13.31467522359162
 20
408.8998383120358
 30
0.0
 40
3.5
  1
enable you to access settings which have been saved. Other useful things to know are the speed/power/frequency settings. The word power is 
100
AcDbText
  0
TEXT
  5
17C
330
165
100
AcDbEntity
  8
0
100
AcDbText
 10
13.14800855692494
 20
403.0665049787025
 30
0.0
 40
3.5
  1
misleading, the laser is either on or off. The slower the speed, the longer the laser beam stays on any one spot, the greater the power. The 
100
AcDbText
  0
TEXT
  5
17D
330
165
100
AcDbEntity
  8
0
100
AcDbText
 10
13.14800855692494
 20
397.2331716453691
 30
0.0
 40
3.5
  1
higher the frequency, the faster the laser is pulsed on and off. My guess is that the higher the power  setting, the longer the duration of 
100
AcDbText
  0
TEXT
  5
17E
330
165
100
AcDbEntity
  8
0
100
AcDbText
 10
13.14800855692494
 20
391.3998383120358
 30
0.0
 40
3.5
  1
laser-on time against laser-off time. 
100
AcDbText
  0
TEXT
  5
17F
330
165
100
AcDbEntity
  8
0
100
AcDbText
 10
13.31467522359162
 20
379.0665049787023
 30
0.0
 40
3.5
  1
3. It is possible to engrave a surface without cutting through, individual speed/power settings can be assigned to different colours. There are 
100
AcDbText
  0
TEXT
  5
180
330
165
100
AcDbEntity
  8
0
100
AcDbText
 10
13.48134189025827
 20
372.5665049787024
 30
0.0
 40
3.5
  1
two power/speed settings controls, one controls all vectors of an assigned colour, and  the other controls the rest. When selecting colours, it is 
100
AcDbText
  0
TEXT
  5
181
330
165
100
AcDbEntity
  8
0
100
AcDbText
 10
13.14800855692494
 20
366.0665049787025
 30
0.0
 40
3.5
  1
probably best to stick to the primary colours with easy  RGB values like (0,0,255) .. blue, (0,255,0).. green.
100
AcDbText
  0
TEXT
  5
182
330
165
100
AcDbEntity
  8
0
100
AcDbText
 10
13.31467522359162
 20
353.7331716453692
 30
0.0
 40
3.5
  1
4. There are several checkboxes, the autofocus is useful unless you a piece of material does not lie where the autofocus decides to drop it's 
100
AcDbText
  0
TEXT
  5
183
330
165
100
AcDbEntity
  8
0
100
AcDbText
 10
13.14800855692494
 20
347.8998383120358
 30
0.0
 40
3.5
  1
plunger; in that case it is best to use the manual focus accessory. Read manual.
100
AcDbText
  0
TEXT
  5
184
330
165
100
AcDbEntity
  8
0
100
AcDbText
 10
13.48134189025827
 20
342.0665049787024
 30
0.0
 40
3.5
  1
The vector sorting seems to be a happy checkbox with no code connected.
100
AcDbText
  0
TEXT
  5
185
330
165
100
AcDbEntity
  8
0
100
AcDbText
 10
13.31467522359162
 20
329.7331716453693
 30
0.0
 40
3.5
  1
5. When saving "Custom Properties" and then OK-ing the "Plotter Configuration Editor -.." window, a box appears asking to choose between a 
100
AcDbText
  0
TEXT
  5
186
330
165
100
AcDbEntity
  8
0
100
AcDbText
 10
13.48134189025827
 20
323.8998383120358
 30
0.0
 40
3.5
  1
temporary *.pc3 file and the config settings for the system plotter; choose the system plotter. The temporary file seems to give variable results.
100
AcDbText
  0
TEXT
  5
187
330
165
100
AcDbEntity
  8
0
100
AcDbText
 10
13.14800855692494
 20
311.5665049787025
 30
0.0
 40
3.5
  1
6. Now go to the other tab [Plot Settings] and check that the scale is 1:1 or suited to your own scale.
100
AcDbText
  0
TEXT
  5
188
330
165
100
AcDbEntity
  8
0
100
AcDbText
 10
13.31467522359162
 20
299.2331716453691
 30
0.0
 40
3.5
  1
7. Click on the "Window" option when setting the plot area, SELECT THE INNER LASER-BED BOX corner to corner - the box containing this text if 
100
AcDbText
  0
TEXT
  5
189
330
165
100
AcDbEntity
  8
0
100
AcDbText
 10
13.48134189025827
 20
293.3998383120358
 30
0.0
 40
3.5
  1
you are looking at a DXF file. When you preview the plot you will hopefully see your drawing. Otherwise check the following steps.
100
AcDbText
  0
TEXT
  5
18A
330
165
100
AcDbEntity
  8
0
100
AcDbText
 10
13.31467522359162
 20
281.7331716453693
 30
0.0
 40
3.5
  1
8. Ensure the line-width is the smallest real value for all vectors on your drawing, normally 0.05 mm
100
AcDbText
  0
TEXT
  5
18B
330
165
100
AcDbEntity
  8
0
100
AcDbText
 10
13.31467522359162
 20
270.0665049787025
 30
0.0
 40
3.5
  1
9. Ensure that the line-type is continious.
100
AcDbText
  0
LINE
  5
18C
330
165
100
AcDbEntity
  8
0
100
AcDbLine
 10
13.14800855692494
 20
257.699838312036
 30
0.0
 11
125.8146752235912
 21
257.699838312036
 31
0.0
  0
TEXT
  5
18D
330
165
100
AcDbEntity
  8
0
100
AcDbText
 10
13.14800855692494
 20
258.3998383120359
 30
0.0
 40
3.5
  1
Problems which have been encountered.
100
AcDbText
  0
TEXT
  5
18E
330
165
100
AcDbEntity
  8
0
100
AcDbText
 10
13.48134189025827
 20
246.0665049787026
 30
0.0
 40
3.5
  1
AutoCAD will save previous plotter/printer data within it's binary file format (DWG) which may render subsequent printing attempts on different 
100
AcDbText
  0
TEXT
  5
18F
330
165
100
AcDbEntity
  8
0
100
AcDbText
 10
13.14800855692494
 20
239.5665049787026
 30
0.0
 40
3.5
  1
printers inoperable. Resave the file as a DXF (human readable format) and prefereably  the oldest version. This may enable you to discard the 
100
AcDbText
  0
TEXT
  5
190
330
165
100
AcDbEntity
  8
0
100
AcDbText
 10
13.14800855692494
 20
233.7331716453692
 30
0.0
 40
3.5
  1
printer settings.
100
AcDbText
  0
TEXT
  5
191
330
165
100
AcDbEntity
  8
0
100
AcDbText
 10
13.48134189025827
 20
222.0665049787027
 30
0.0
 40
3.5
  1
When saving from AutoCAD 2006, use an earlier *.dwg or *.dxf format, there are backwards compatability issues amongst the different versions.
100
AcDbText
  0
TEXT
  5
192
330
165
100
AcDbEntity
  8
0
100
AcDbText
 10
13.48134189025827
 20
209.7331716453694
 30
0.0
 40
3.5
  1
When saving from SolidWorks as a *.dxf or *.dwg, ensure that in the [Preferences] dialog you select a version prior to 2004-2006 and that you 
100
AcDbText
  0
TEXT
  5
193
330
165
100
AcDbEntity
  8
0
100
AcDbText
 10
13.31467522359162
 20
203.899838312036
 30
0.0
 40
3.5
  1
scale output 1:1. Splines work better as polylines under AutoCAD.
100
AcDbText
  0
LINE
  5
194
330
165
100
AcDbEntity
  8
0
100
AcDbLine
 10
13.14800855692494
 20
190.8665049787027
 30
0.0
 11
53.81467522359161
 21
190.8665049787027
 31
0.0
  0
TEXT
  5
195
330
165
100
AcDbEntity
  8
0
100
AcDbText
 10
13.14800855692494
 20
191.5665049787027
 30
0.0
 40
3.5
  1
DO's + DONT's
100
AcDbText
  0
TEXT
  5
196
330
165
100
AcDbEntity
  8
0
100
AcDbText
 10
13.48134189025827
 20
185.7331716453694
 30
0.0
 40
3.5
  1
The next few points are reminders about Epilog laser usage.
100
AcDbText
  0
TEXT
  5
197
330
165
100
AcDbEntity
  8
0
100
AcDbText
 10
13.48134189025827
 20
174.0665049787028
 30
0.0
 40
3.5
  1
The laser cutter must be supervised while operating.
100
AcDbText
  0
TEXT
  5
198
330
165
100
AcDbEntity
  8
0
100
AcDbText
 10
13.48134189025827
 20
162.3998383120361
 30
0.0
 40
3.5
  1
The extractor must be switched on and the air compressor assist must be operating.
100
AcDbText
  0
TEXT
  5
199
330
165
100
AcDbEntity
  8
0
100
AcDbText
 10
13.14800855692494
 20
150.7331716453695
 30
0.0
 40
3.5
  1
Do not cut unknown plastics.
100
AcDbText
  0
TEXT
  5
19A
330
165
100
AcDbEntity
  8
0
100
AcDbText
 10
13.14800855692494
 20
139.0665049787029
 30
0.0
 40
3.5
  1
Do not cut PolyVinylChloride, PVC, vinyl as this releases chlorine gas which damages the optics and kills bystanders. Use the vinylcutter.
100
AcDbText
  0
TEXT
  5
19B
330
165
100
AcDbEntity
  8
0
100
AcDbText
 10
13.14800855692494
 20
126.7331716453695
 30
0.0
 40
3.5
  1
Do not cut polycarbonate (Lexan, CD's) as this seems to release phosgene gas which has unpleasant effects on people.  It also leaves a poor 
100
AcDbText
  0
TEXT
  5
19C
330
165
100
AcDbEntity
  8
0
100
AcDbText
 10
13.31467522359162
 20
120.8998383120362
 30
0.0
 40
3.5
  1
surface finish - use milling machine
100
AcDbText
  0
TEXT
  5
19D
330
165
100
AcDbEntity
  8
0
100
AcDbText
 10
13.14800855692494
 20
109.2331716453695
 30
0.0
 40
3.5
  1
If the honeycomb support grille retaining flaps are left up, this will jam the system and possibly cause motor damage. You will be billed.
100
AcDbText
  0
TEXT
  5
19E
330
165
100
AcDbEntity
  8
0
100
AcDbText
 10
13.14800855692494
 20
97.56650497870303
 30
0.0
 40
3.5
  1
Do not touch the optics.
100
AcDbText
  0
TEXT
  5
19F
330
165
100
AcDbEntity
  8
0
100
AcDbText
 10
13.14800855692494
 20
85.2331716453698
 30
0.0
 40
3.5
  1
Do not press hard on the honeycomb grille, it will break/warp.
100
AcDbText
  0
TEXT
  5
1A0
330
165
100
AcDbEntity
  8
0
100
AcDbText
 10
13.48134189025827
 20
67.7331716453698
 30
0.0
 40
3.5
  1
Toby Borland, MAGICbox, tobyborland@smartlab.uk.com
100
AcDbText
  0
ENDBLK
  5
1A1
330
165
100
AcDbEntity
  8
0
100
AcDbBlockEnd
  0
BLOCK
  5
1A3
330
1A2
100
AcDbEntity
  8
0
100
AcDbBlockBegin
  2
*U3
 70
     1
 10
0.0
 20
0.0
 30
0.0
  3
*U3
  1

  0
LINE
  5
1A4
330
1A2
100
AcDbEntity
  8
0
100
AcDbLine
 10
5.32014422617777
 20
2.800846517392709
 30
0.0
 11
80.36776327379682
 21
2.800846517392709
 31
0.0
  0
TEXT
  5
1A5
330
1A2
100
AcDbEntity
  8
0
100
AcDbText
 10
5.32014422617777
 20
3.600846517392709
 30
0.0
 40
4.0
  1
<-EPILOG LASER ORIGIN
100
AcDbText
  0
ENDBLK
  5
1A6
330
1A2
100
AcDbEntity
  8
0
100
AcDbBlockEnd
  0
ENDSEC
  0
SECTION
  2
ENTITIES
  0
POLYLINE
  5
1A7
330
156
100
AcDbEntity
  8
LASER_BED
  6
CONTINUOUS
100
AcDb2dPolyline
 66
     1
 10
0.0
 20
0.0
 30
0.0
 70
     1
  0
VERTEX
  5
44E
330
1A7
100
AcDbEntity
  8
LASER_BED
  6
CONTINUOUS
100
AcDbVertex
100
AcDb2dVertex
 10
0.0
 20
0.0
 30
0.0
  0
VERTEX
  5
44F
330
1A7
100
AcDbEntity
  8
LASER_BED
  6
CONTINUOUS
100
AcDbVertex
100
AcDb2dVertex
 10
0.0
 20
603.0
 30
0.0
  0
VERTEX
  5
450
330
1A7
100
AcDbEntity
  8
LASER_BED
  6
CONTINUOUS
100
AcDbVertex
100
AcDb2dVertex
 10
450.0
 20
603.0
 30
0.0
  0
VERTEX
  5
451
330
1A7
100
AcDbEntity
  8
LASER_BED
  6
CONTINUOUS
100
AcDbVertex
100
AcDb2dVertex
 10
450.0
 20
0.0
 30
0.0
  0
VERTEX
  5
452
330
1A7
100
AcDbEntity
  8
LASER_BED
  6
CONTINUOUS
100
AcDbVertex
100
AcDb2dVertex
 10
0.0
 20
0.0
 30
0.0
  0
SEQEND
  5
453
330
1A7
100
AcDbEntity
  8
LASER_BED
  6
CONTINUOUS
  0
POLYLINE
  5
1AE
330
156
100
AcDbEntity
  8
LASER_BED
  6
CONTINUOUS
100
AcDb2dPolyline
 66
     1
 10
0.0
 20
0.0
 30
0.0
 70
     1
  0
VERTEX
  5
454
330
1AE
100
AcDbEntity
  8
LASER_BED
  6
CONTINUOUS
100
AcDbVertex
100
AcDb2dVertex
 10
0.0
 20
0.0
 30
0.0
  0
VERTEX
  5
455
330
1AE
100
AcDbEntity
  8
LASER_BED
  6
CONTINUOUS
100
AcDbVertex
100
AcDb2dVertex
 10
0.0
 20
603.0
 30
0.0
  0
VERTEX
  5
456
330
1AE
100
AcDbEntity
  8
LASER_BED
  6
CONTINUOUS
100
AcDbVertex
100
AcDb2dVertex
 10
603.0
 20
603.0
 30
0.0
  0
VERTEX
  5
457
330
1AE
100
AcDbEntity
  8
LASER_BED
  6
CONTINUOUS
100
AcDbVertex
100
AcDb2dVertex
 10
603.0
 20
0.0
 30
0.0
  0
VERTEX
  5
458
330
1AE
100
AcDbEntity
  8
LASER_BED
  6
CONTINUOUS
100
AcDbVertex
100
AcDb2dVertex
 10
0.0
 20
0.0
 30
0.0
  0
SEQEND
  5
459
330
1AE
100
AcDbEntity
  8
LASER_BED
  6
CONTINUOUS
  0
INSERT
  5
1B5
330
156
100
AcDbEntity
  8
TEXT
100
AcDbBlockReference
  2
*U2
 10
0.0
 20
0.0
 30
0.0
  0
INSERT
  5
1B6
330
156
100
AcDbEntity
  8
TEXT
100
AcDbBlockReference
  2
*U3
 10
0.0
 20
0.0
 30
0.0
  0
LINE
  5
25F
330
156
100
AcDbEntity
  8
FINAL
  6
CONTINUOUS
100
AcDbLine
 10
59.39469423809729
 20
36.42023059633334
 30
0.0
 11
55.79473416260501
 21
36.42023059633334
 31
0.0
  0
LINE
  5
260
330
156
100
AcDbEntity
  8
FINAL
  6
CONTINUOUS
100
AcDbLine
 10
55.79473416260501
 20
49.07298706221388
 30
0.0
 11
59.39330228290183
 21
49.07298706221388
 31
0.0
  0
LINE
  5
261
330
156
100
AcDbEntity
  8
FINAL
  6
CONTINUOUS
100
AcDbLine
 10
55.79473416260501
 20
16.56747413045274
 30
0.0
 11
59.39330228290183
 21
16.56747413045274
 31
0.0
  0
LINE
  5
262
330
156
100
AcDbEntity
  8
FINAL
  6
CONTINUOUS
100
AcDbLine
 10
59.39469423809729
 20
29.22023059633329
 30
0.0
 11
55.79473416260501
 21
29.22023059633329
 31
0.0
  0
ARC
  5
263
330
156
100
AcDbEntity
  8
FINAL
  6
CONTINUOUS
100
AcDbCircle
 10
53.89330228290183
 20
7.467474130452753
 30
0.0
 40
5.5
100
AcDbArc
 50
270.0
 51
0.0
  0
ARC
  5
264
330
156
100
AcDbEntity
  8
FINAL
  6
CONTINUOUS
100
AcDbCircle
 10
53.89330228290183
 20
54.56808069712426
 30
0.0
 40
5.5
100
AcDbArc
 50
0.0
 51
90.0
  0
CIRCLE
  5
265
330
156
100
AcDbEntity
  8
FINAL
  6
CONTINUOUS
100
AcDbCircle
 10
53.89330228290183
 20
7.467474130452753
 30
0.0
 40
2.599999999999994
  0
CIRCLE
  5
266
330
156
100
AcDbEntity
  8
FINAL
  6
CONTINUOUS
100
AcDbCircle
 10
53.89330228290183
 20
54.56808069712426
 30
0.0
 40
2.599999999999994
  0
LINE
  5
267
330
156
100
AcDbEntity
  8
FINAL
  6
CONTINUOUS
100
AcDbLine
 10
98.49189158804486
 20
7.467474130452753
 30
0.0
 11
98.49189158804486
 21
52.86747284895276
 31
0.0
  0
LINE
  5
268
330
156
100
AcDbEntity
  8
FINAL
  6
CONTINUOUS
100
AcDbLine
 10
59.39330228290183
 20
52.86747284895276
 30
0.0
 11
59.39330228290183
 21
7.467474130452753
 31
0.0
  0
LINE
  5
269
330
156
100
AcDbEntity
  8
FINAL
  6
CONTINUOUS
100
AcDbLine
 10
74.869198390848
 20
7.467474130452753
 30
0.0
 11
83.06919839084802
 21
7.467474130452753
 31
0.0
  0
LINE
  5
26A
330
156
100
AcDbEntity
  8
FINAL
  6
CONTINUOUS
100
AcDbLine
 10
59.39330228290183
 20
7.467474130452753
 30
0.0
 11
62.99330228290185
 21
7.467474130452753
 31
0.0
  0
LINE
  5
26B
330
156
100
AcDbEntity
  8
FINAL
  6
CONTINUOUS
100
AcDbLine
 10
62.99330228290185
 20
3.86747413045273
 30
0.0
 11
74.869198390848
 21
3.86747413045273
 31
0.0
  0
LINE
  5
26C
330
156
100
AcDbEntity
  8
FINAL
  6
CONTINUOUS
100
AcDbLine
 10
62.99330228290185
 20
7.467474130452753
 30
0.0
 11
62.99330228290185
 21
3.86747413045273
 31
0.0
  0
LINE
  5
26D
330
156
100
AcDbEntity
  8
FINAL
  6
CONTINUOUS
100
AcDbLine
 10
74.869198390848
 20
3.86747413045273
 30
0.0
 11
74.869198390848
 21
7.467474130452753
 31
0.0
  0
CIRCLE
  5
26E
330
156
100
AcDbEntity
  8
FINAL
  6
CONTINUOUS
100
AcDbCircle
 10
65.942813805898
 20
17.8641399052166
 30
0.0
 40
2.599999999999994
  0
LINE
  5
26F
330
156
100
AcDbEntity
  8
FINAL
  6
CONTINUOUS
100
AcDbLine
 10
83.06919839084802
 20
3.867474130452745
 30
0.0
 11
94.89189158804487
 21
3.867474130452745
 31
0.0
  0
LINE
  5
270
330
156
100
AcDbEntity
  8
FINAL
  6
CONTINUOUS
100
AcDbLine
 10
83.06919839084802
 20
7.467474130452753
 30
0.0
 11
83.06919839084802
 21
3.867474130452745
 31
0.0
  0
LINE
  5
271
330
156
100
AcDbEntity
  8
FINAL
  6
CONTINUOUS
100
AcDbLine
 10
94.89189158804487
 20
7.467474130452753
 30
0.0
 11
98.49189158804486
 21
7.467474130452753
 31
0.0
  0
LINE
  5
272
330
156
100
AcDbEntity
  8
FINAL
  6
CONTINUOUS
100
AcDbLine
 10
94.89189158804487
 20
3.867474130452745
 30
0.0
 11
94.89189158804487
 21
7.467474130452753
 31
0.0
  0
CIRCLE
  5
273
330
156
100
AcDbEntity
  8
FINAL
  6
CONTINUOUS
100
AcDbCircle
 10
91.94283010965492
 20
17.8641399052166
 30
0.0
 40
4.099999999999994
  0
LINE
  5
274
330
156
100
AcDbEntity
  8
FINAL
  6
CONTINUOUS
100
AcDbLine
 10
77.14040682223362
 20
32.66010803864372
 30
0.0
 11
74.869198390848
 21
32.66010803864372
 31
0.0
  0
LINE
  5
275
330
156
100
AcDbEntity
  8
FINAL
  6
CONTINUOUS
100
AcDbLine
 10
74.869198390848
 20
29.06010803864372
 30
0.0
 11
77.14040682223362
 21
29.06010803864372
 31
0.0
  0
LINE
  5
276
330
156
100
AcDbEntity
  8
FINAL
  6
CONTINUOUS
100
AcDbLine
 10
98.49189158804486
 20
52.86747284895276
 30
0.0
 11
59.39330228290183
 21
52.86747284895276
 31
0.0
  0
CIRCLE
  5
277
330
156
100
AcDbEntity
  8
FINAL
  6
CONTINUOUS
100
AcDbCircle
 10
65.942813805898
 20
43.86602490865292
 30
0.0
 40
2.599999999999994
  0
LINE
  5
278
330
156
100
AcDbEntity
  8
FINAL
  6
CONTINUOUS
100
AcDbLine
 10
64.49330228290182
 20
32.66010803864372
 30
0.0
 11
60.89330228290183
 21
32.66010803864372
 31
0.0
  0
LINE
  5
279
330
156
100
AcDbEntity
  8
FINAL
  6
CONTINUOUS
100
AcDbLine
 10
60.89330228290183
 20
29.06010803864372
 30
0.0
 11
64.49330228290182
 21
29.06010803864372
 31
0.0
  0
LINE
  5
27A
330
156
100
AcDbEntity
  8
FINAL
  6
CONTINUOUS
100
AcDbLine
 10
60.89330228290183
 20
32.66010803864372
 30
0.0
 11
60.89330228290183
 21
29.06010803864372
 31
0.0
  0
LINE
  5
27B
330
156
100
AcDbEntity
  8
FINAL
  6
CONTINUOUS
100
AcDbLine
 10
64.49330228290182
 20
29.06010803864372
 30
0.0
 11
64.49330228290182
 21
32.66010803864372
 31
0.0
  0
LINE
  5
27C
330
156
100
AcDbEntity
  8
FINAL
  6
CONTINUOUS
100
AcDbLine
 10
74.869198390848
 20
32.66010803864372
 30
0.0
 11
74.869198390848
 21
29.06010803864372
 31
0.0
  0
CIRCLE
  5
27D
330
156
100
AcDbEntity
  8
FINAL
  6
CONTINUOUS
100
AcDbCircle
 10
91.94010561308866
 20
43.86598973230698
 30
0.0
 40
2.599999999999994
  0
LINE
  5
27E
330
156
100
AcDbEntity
  8
FINAL
  6
CONTINUOUS
100
AcDbLine
 10
77.14040682223362
 20
34.96010803864371
 30
0.0
 11
77.14040682223362
 21
32.66010803864372
 31
0.0
  0
LINE
  5
27F
330
156
100
AcDbEntity
  8
FINAL
  6
CONTINUOUS
100
AcDbLine
 10
80.7404068222336
 20
32.66010803864372
 30
0.0
 11
80.7404068222336
 21
34.96010803864371
 31
0.0
  0
LINE
  5
280
330
156
100
AcDbEntity
  8
FINAL
  6
CONTINUOUS
100
AcDbLine
 10
83.06919839084802
 20
29.06010803864372
 30
0.0
 11
83.06919839084802
 21
32.66010803864372
 31
0.0
  0
LINE
  5
281
330
156
100
AcDbEntity
  8
FINAL
  6
CONTINUOUS
100
AcDbLine
 10
77.14040682223362
 20
26.76010803864372
 30
0.0
 11
80.7404068222336
 21
26.76010803864372
 31
0.0
  0
LINE
  5
282
330
156
100
AcDbEntity
  8
FINAL
  6
CONTINUOUS
100
AcDbLine
 10
77.14040682223362
 20
29.06010803864372
 30
0.0
 11
77.14040682223362
 21
26.76010803864372
 31
0.0
  0
LINE
  5
283
330
156
100
AcDbEntity
  8
FINAL
  6
CONTINUOUS
100
AcDbLine
 10
80.7404068222336
 20
29.06010803864372
 30
0.0
 11
83.06919839084802
 21
29.06010803864372
 31
0.0
  0
LINE
  5
284
330
156
100
AcDbEntity
  8
FINAL
  6
CONTINUOUS
100
AcDbLine
 10
80.7404068222336
 20
26.76010803864372
 30
0.0
 11
80.7404068222336
 21
29.06010803864372
 31
0.0
  0
LINE
  5
285
330
156
100
AcDbEntity
  8
FINAL
  6
CONTINUOUS
100
AcDbLine
 10
83.06919839084802
 20
32.66010803864372
 30
0.0
 11
80.7404068222336
 21
32.66010803864372
 31
0.0
  0
LINE
  5
286
330
156
100
AcDbEntity
  8
FINAL
  6
CONTINUOUS
100
AcDbLine
 10
80.7404068222336
 20
34.96010803864371
 30
0.0
 11
77.14040682223362
 21
34.96010803864371
 31
0.0
  0
LINE
  5
287
330
156
100
AcDbEntity
  8
FINAL
  6
CONTINUOUS
100
AcDbLine
 10
96.99189158804486
 20
29.06010803864372
 30
0.0
 11
96.99189158804486
 21
32.66010803864372
 31
0.0
  0
LINE
  5
288
330
156
100
AcDbEntity
  8
FINAL
  6
CONTINUOUS
100
AcDbLine
 10
93.39189158804487
 20
32.66010803864372
 30
0.0
 11
93.39189158804487
 21
29.06010803864372
 31
0.0
  0
LINE
  5
289
330
156
100
AcDbEntity
  8
FINAL
  6
CONTINUOUS
100
AcDbLine
 10
93.39189158804487
 20
29.06010803864372
 30
0.0
 11
96.99189158804486
 21
29.06010803864372
 31
0.0
  0
LINE
  5
28A
330
156
100
AcDbEntity
  8
FINAL
  6
CONTINUOUS
100
AcDbLine
 10
96.99189158804486
 20
32.66010803864372
 30
0.0
 11
93.39189158804487
 21
32.66010803864372
 31
0.0
  0
LINE
  5
2AE
330
156
100
AcDbEntity
  8
FINAL
  6
CONTINUOUS
100
AcDbLine
 10
1.29471297775879
 20
54.56808069712426
 30
0.0
 11
1.298420566754968
 21
49.07298706221388
 31
0.0
  0
CIRCLE
  5
2AF
330
156
100
AcDbEntity
  8
FINAL
  6
CONTINUOUS
100
AcDbCircle
 10
6.79471297775879
 20
54.56808069712426
 30
0.0
 40
2.599999999999994
  0
LINE
  5
2C1
330
156
100
AcDbEntity
  8
FINAL
  6
CONTINUOUS
100
AcDbLine
 10
55.79473416260501
 20
29.22023059633329
 30
0.0
 11
55.79473416260501
 21
16.56747413045274
 31
0.0
  0
LINE
  5
2C2
330
156
100
AcDbEntity
  8
FINAL
  6
CONTINUOUS
100
AcDbLine
 10
4.898420566754962
 20
29.22023059633329
 30
0.0
 11
4.898420566754962
 21
16.56747413045274
 31
0.0
  0
CIRCLE
  5
2C3
330
156
100
AcDbEntity
  8
FINAL
  6
CONTINUOUS
100
AcDbCircle
 10
30.34181751709056
 20
31.01902986529475
 30
0.0
 40
19.49999999999999
  0
LINE
  5
2C4
330
156
100
AcDbEntity
  8
FINAL
  6
CONTINUOUS
100
AcDbLine
 10
53.89330228290183
 20
1.967474130452753
 30
0.0
 11
6.79471297775879
 21
1.967474130452753
 31
0.0
  0
ARC
  5
2C5
330
156
100
AcDbEntity
  8
FINAL
  6
CONTINUOUS
100
AcDbCircle
 10
6.79471297775879
 20
7.467474130452753
 30
0.0
 40
5.5
100
AcDbArc
 50
180.0
 51
270.0
  0
LINE
  5
2C6
330
156
100
AcDbEntity
  8
FINAL
  6
CONTINUOUS
100
AcDbLine
 10
1.298420566754968
 20
16.56747413045274
 30
0.0
 11
1.298420566754968
 21
7.265558968214261
 31
0.0
  0
CIRCLE
  5
2C7
330
156
100
AcDbEntity
  8
FINAL
  6
CONTINUOUS
100
AcDbCircle
 10
6.79471297775879
 20
7.467474130452753
 30
0.0
 40
2.599999999999994
  0
LINE
  5
2C8
330
156
100
AcDbEntity
  8
FINAL
  6
CONTINUOUS
100
AcDbLine
 10
4.898420566754962
 20
16.56747413045274
 30
0.0
 11
1.298420566754968
 21
16.56747413045274
 31
0.0
  0
LINE
  5
2C9
330
156
100
AcDbEntity
  8
FINAL
  6
CONTINUOUS
100
AcDbLine
 10
26.27060908570496
 20
2.821481359315523
 30
0.0
 11
14.39471297775881
 21
2.822986554163858
 31
0.0
  0
LINE
  5
2CA
330
156
100
AcDbEntity
  8
FINAL
  6
CONTINUOUS
100
AcDbLine
 10
14.39471297775881
 20
6.421481359315517
 30
0.0
 11
26.27060908570496
 21
6.421481359315517
 31
0.0
  0
LINE
  5
2CB
330
156
100
AcDbEntity
  8
FINAL
  6
CONTINUOUS
100
AcDbLine
 10
14.39471297775881
 20
2.822986554163858
 30
0.0
 11
14.39471297775881
 21
6.421481359315517
 31
0.0
  0
LINE
  5
2CC
330
156
100
AcDbEntity
  8
FINAL
  6
CONTINUOUS
100
AcDbLine
 10
26.27060908570496
 20
6.421481359315517
 30
0.0
 11
26.27060908570496
 21
2.821481359315523
 31
0.0
  0
LINE
  5
2CD
330
156
100
AcDbEntity
  8
FINAL
  6
CONTINUOUS
100
AcDbLine
 10
46.29330228290183
 20
2.822986554163858
 30
0.0
 11
34.47060908570497
 21
2.822986554163858
 31
0.0
  0
LINE
  5
2CE
330
156
100
AcDbEntity
  8
FINAL
  6
CONTINUOUS
100
AcDbLine
 10
34.47060908570497
 20
6.421481359315517
 30
0.0
 11
46.29330228290183
 21
6.421481359315517
 31
0.0
  0
LINE
  5
2CF
330
156
100
AcDbEntity
  8
FINAL
  6
CONTINUOUS
100
AcDbLine
 10
34.47060908570497
 20
2.822986554163858
 30
0.0
 11
34.47060908570497
 21
6.421481359315517
 31
0.0
  0
LINE
  5
2D0
330
156
100
AcDbEntity
  8
FINAL
  6
CONTINUOUS
100
AcDbLine
 10
46.29330228290183
 20
6.421481359315517
 30
0.0
 11
46.29330228290183
 21
2.822986554163858
 31
0.0
  0
LINE
  5
2D1
330
156
100
AcDbEntity
  8
FINAL
  6
CONTINUOUS
100
AcDbLine
 10
4.898420566754962
 20
36.42023059633334
 30
0.0
 11
4.898420566754962
 21
49.07298706221388
 31
0.0
  0
LINE
  5
2D2
330
156
100
AcDbEntity
  8
FINAL
  6
CONTINUOUS
100
AcDbLine
 10
1.298420566754968
 20
36.42023059633334
 30
0.0
 11
1.298420566754968
 21
29.22023059633329
 31
0.0
  0
LINE
  5
2D3
330
156
100
AcDbEntity
  8
FINAL
  6
CONTINUOUS
100
AcDbLine
 10
1.298420566754968
 20
29.22023059633329
 30
0.0
 11
4.898420566754962
 21
29.22023059633329
 31
0.0
  0
LINE
  5
2D4
330
156
100
AcDbEntity
  8
FINAL
  6
CONTINUOUS
100
AcDbLine
 10
1.298420566754968
 20
36.42023059633334
 30
0.0
 11
4.898420566754962
 21
36.42023059633334
 31
0.0
  0
LINE
  5
2D5
330
156
100
AcDbEntity
  8
FINAL
  6
CONTINUOUS
100
AcDbLine
 10
4.898420566754962
 20
49.07298706221388
 30
0.0
 11
1.298420566754968
 21
49.07298706221388
 31
0.0
  0
LINE
  5
2D6
330
156
100
AcDbEntity
  8
FINAL
  6
CONTINUOUS
100
AcDbLine
 10
55.79473416260501
 20
36.42023059633334
 30
0.0
 11
55.79473416260501
 21
49.07298706221388
 31
0.0
  0
LINE
  5
2D7
330
156
100
AcDbEntity
  8
FINAL
  6
CONTINUOUS
100
AcDbLine
 10
6.79471297775879
 20
60.06808069712423
 30
0.0
 11
53.89330228290183
 21
60.06808069712423
 31
0.0
  0
ARC
  5
2D8
330
156
100
AcDbEntity
  8
FINAL
  6
CONTINUOUS
100
AcDbCircle
 10
6.79471297775879
 20
54.56808069712426
 30
0.0
 40
5.5
100
AcDbArc
 50
90.0
 51
180.0
  0
LINE
  5
2D9
330
156
100
AcDbEntity
  8
FINAL
  6
CONTINUOUS
100
AcDbLine
 10
59.39330228290183
 20
54.56808069712426
 30
0.0
 11
59.39330228290183
 21
49.07298706221388
 31
0.0
  0
LINE
  5
2DA
330
156
100
AcDbEntity
  8
FINAL
  6
CONTINUOUS
100
AcDbLine
 10
26.64256307854978
 20
60.06808069712423
 30
0.0
 11
42.89531963248029
 21
81.66071460531517
 31
0.0
  0
LINE
  5
2DB
330
156
100
AcDbEntity
  8
FINAL
  6
CONTINUOUS
100
AcDbLine
 10
23.04256307854976
 20
63.66808069712419
 30
0.0
 11
23.04256307854976
 21
60.06808069712423
 31
0.0
  0
LINE
  5
2DC
330
156
100
AcDbEntity
  8
FINAL
  6
CONTINUOUS
100
AcDbLine
 10
19.44256307854973
 20
60.06808069712423
 30
0.0
 11
19.44256307854973
 21
63.66808069712419
 31
0.0
  0
LINE
  5
2DD
330
156
100
AcDbEntity
  8
FINAL
  6
CONTINUOUS
100
AcDbLine
 10
6.79471297775879
 20
63.66808069712419
 30
0.0
 11
6.79471297775879
 21
60.06808069712423
 31
0.0
  0
LINE
  5
2DE
330
156
100
AcDbEntity
  8
FINAL
  6
CONTINUOUS
100
AcDbLine
 10
59.39330228290183
 20
16.56747413045274
 30
0.0
 11
59.39330228290183
 21
7.467474130452753
 31
0.0
  0
LINE
  5
2DF
330
156
100
AcDbEntity
  8
FINAL
  6
CONTINUOUS
100
AcDbLine
 10
59.39469423809729
 20
36.42023059633334
 30
0.0
 11
59.39469423809729
 21
29.22023059633329
 31
0.0
  0
LINE
  5
2E0
330
156
100
AcDbEntity
  8
FINAL
  6
CONTINUOUS
100
AcDbLine
 10
6.79471297775879
 20
60.06808069712423
 30
0.0
 11
19.44256307854973
 21
60.06808069712423
 31
0.0
  0
LINE
  5
2E1
330
156
100
AcDbEntity
  8
FINAL
  6
CONTINUOUS
100
AcDbLine
 10
23.04256307854976
 20
60.06808069712423
 30
0.0
 11
26.64256307854978
 21
60.06808069712423
 31
0.0
  0
LINE
  5
2E2
330
156
100
AcDbEntity
  8
FINAL
  6
CONTINUOUS
100
AcDbLine
 10
39.29531954443032
 20
88.86071460531523
 30
0.0
 11
26.64256307854978
 21
88.86071460531523
 31
0.0
  0
LINE
  5
2E3
330
156
100
AcDbEntity
  8
FINAL
  6
CONTINUOUS
100
AcDbLine
 10
42.89531963248029
 20
81.66071460531517
 30
0.0
 11
42.89531963248029
 21
85.2607146053152
 31
0.0
  0
LINE
  5
2E4
330
156
100
AcDbEntity
  8
FINAL
  6
CONTINUOUS
100
AcDbLine
 10
42.89531963248029
 20
85.2607146053152
 30
0.0
 11
39.29531954443032
 21
85.2607146053152
 31
0.0
  0
LINE
  5
2E5
330
156
100
AcDbEntity
  8
FINAL
  6
CONTINUOUS
100
AcDbLine
 10
39.29531954443032
 20
85.2607146053152
 30
0.0
 11
39.29531954443032
 21
88.86071460531523
 31
0.0
  0
LINE
  5
2E6
330
156
100
AcDbEntity
  8
FINAL
  6
CONTINUOUS
100
AcDbLine
 10
19.44256307854973
 20
88.86071460531523
 30
0.0
 11
6.79471297775879
 21
88.86071460531523
 31
0.0
  0
LINE
  5
2E7
330
156
100
AcDbEntity
  8
FINAL
  6
CONTINUOUS
100
AcDbLine
 10
19.44256307854973
 20
63.66808069712419
 30
0.0
 11
23.04256307854976
 21
63.66808069712419
 31
0.0
  0
LINE
  5
2E8
330
156
100
AcDbEntity
  8
FINAL
  6
CONTINUOUS
100
AcDbLine
 10
26.64256307854978
 20
85.2607146053152
 30
0.0
 11
19.44256307854973
 21
85.2607146053152
 31
0.0
  0
LINE
  5
2E9
330
156
100
AcDbEntity
  8
FINAL
  6
CONTINUOUS
100
AcDbLine
 10
26.64256307854978
 20
88.86071460531523
 30
0.0
 11
26.64256307854978
 21
85.2607146053152
 31
0.0
  0
LINE
  5
2EA
330
156
100
AcDbEntity
  8
FINAL
  6
CONTINUOUS
100
AcDbLine
 10
19.44256307854973
 20
85.2607146053152
 30
0.0
 11
19.44256307854973
 21
88.86071460531523
 31
0.0
  0
LINE
  5
2EB
330
156
100
AcDbEntity
  8
FINAL
  6
CONTINUOUS
100
AcDbLine
 10
3.189806612669171
 20
85.2607146053152
 30
0.0
 11
3.189806612669171
 21
63.66808069712419
 31
0.0
  0
LINE
  5
2EC
330
156
100
AcDbEntity
  8
FINAL
  6
CONTINUOUS
100
AcDbLine
 10
3.189806612669171
 20
63.66808069712419
 30
0.0
 11
6.79471297775879
 21
63.66808069712419
 31
0.0
  0
LINE
  5
2ED
330
156
100
AcDbEntity
  8
FINAL
  6
CONTINUOUS
100
AcDbLine
 10
6.79471297775879
 20
85.2607146053152
 30
0.0
 11
3.189806612669171
 21
85.2607146053152
 31
0.0
  0
LINE
  5
2EE
330
156
100
AcDbEntity
  8
FINAL
  6
CONTINUOUS
100
AcDbLine
 10
6.79471297775879
 20
88.86071460531523
 30
0.0
 11
6.79471297775879
 21
85.2607146053152
 31
0.0
  0
LINE
  5
2EF
330
156
100
AcDbEntity
  8
FINAL
  6
CONTINUOUS
100
AcDbLine
 10
3.189806612669171
 20
92.46071460531513
 30
0.0
 11
3.189806612669171
 21
114.0533485135061
 31
0.0
  0
LINE
  5
2F0
330
156
100
AcDbEntity
  8
FINAL
  6
CONTINUOUS
100
AcDbLine
 10
26.64256307854978
 20
117.6533485135061
 30
0.0
 11
42.89531963248029
 21
96.06071460531516
 31
0.0
  0
LINE
  5
2F1
330
156
100
AcDbEntity
  8
FINAL
  6
CONTINUOUS
100
AcDbLine
 10
23.04256307854976
 20
117.6533485135061
 30
0.0
 11
26.64256307854978
 21
117.6533485135061
 31
0.0
  0
LINE
  5
2F2
330
156
100
AcDbEntity
  8
FINAL
  6
CONTINUOUS
100
AcDbLine
 10
6.79471297775879
 20
117.6533485135061
 30
0.0
 11
19.44256307854973
 21
117.6533485135061
 31
0.0
  0
LINE
  5
2F3
330
156
100
AcDbEntity
  8
FINAL
  6
CONTINUOUS
100
AcDbLine
 10
19.44256307854973
 20
117.6533485135061
 30
0.0
 11
19.44256307854973
 21
114.0533485135061
 31
0.0
  0
LINE
  5
2F4
330
156
100
AcDbEntity
  8
FINAL
  6
CONTINUOUS
100
AcDbLine
 10
23.04256307854976
 20
114.0533485135061
 30
0.0
 11
23.04256307854976
 21
117.6533485135061
 31
0.0
  0
LINE
  5
2F5
330
156
100
AcDbEntity
  8
FINAL
  6
CONTINUOUS
100
AcDbLine
 10
19.44256307854973
 20
114.0533485135061
 30
0.0
 11
23.04256307854976
 21
114.0533485135061
 31
0.0
  0
LINE
  5
2F6
330
156
100
AcDbEntity
  8
FINAL
  6
CONTINUOUS
100
AcDbLine
 10
6.79471297775879
 20
114.0533485135061
 30
0.0
 11
6.79471297775879
 21
117.6533485135061
 31
0.0
  0
LINE
  5
2F7
330
156
100
AcDbEntity
  8
FINAL
  6
CONTINUOUS
100
AcDbLine
 10
3.189806612669171
 20
114.0533485135061
 30
0.0
 11
6.79471297775879
 21
114.0533485135061
 31
0.0
  0
LINE
  5
2F8
330
156
100
AcDbEntity
  8
FINAL
  6
CONTINUOUS
100
AcDbLine
 10
26.64256307854978
 20
92.46071460531513
 30
0.0
 11
19.44256307854973
 21
92.46071460531513
 31
0.0
  0
LINE
  5
2F9
330
156
100
AcDbEntity
  8
FINAL
  6
CONTINUOUS
100
AcDbLine
 10
39.29531954443032
 20
88.86071460531523
 30
0.0
 11
26.64256307854978
 21
88.8607146053151
 31
0.0
  0
LINE
  5
2FA
330
156
100
AcDbEntity
  8
FINAL
  6
CONTINUOUS
100
AcDbLine
 10
39.29531954443032
 20
92.46071460531513
 30
0.0
 11
39.29531954443032
 21
88.86071460531523
 31
0.0
  0
LINE
  5
2FB
330
156
100
AcDbEntity
  8
FINAL
  6
CONTINUOUS
100
AcDbLine
 10
42.89531963248029
 20
92.46071460531513
 30
0.0
 11
39.29531954443032
 21
92.46071460531513
 31
0.0
  0
LINE
  5
2FC
330
156
100
AcDbEntity
  8
FINAL
  6
CONTINUOUS
100
AcDbLine
 10
42.89531963248029
 20
96.06071460531516
 30
0.0
 11
42.89531963248029
 21
92.46071460531513
 31
0.0
  0
LINE
  5
2FD
330
156
100
AcDbEntity
  8
FINAL
  6
CONTINUOUS
100
AcDbLine
 10
26.64256307854978
 20
88.8607146053151
 30
0.0
 11
26.64256307854978
 21
92.46071460531513
 31
0.0
  0
LINE
  5
2FE
330
156
100
AcDbEntity
  8
FINAL
  6
CONTINUOUS
100
AcDbLine
 10
19.44256307854973
 20
88.86071460531523
 30
0.0
 11
6.79471297775879
 21
88.86071460531523
 31
0.0
  0
LINE
  5
2FF
330
156
100
AcDbEntity
  8
FINAL
  6
CONTINUOUS
100
AcDbLine
 10
19.44256307854973
 20
92.46071460531513
 30
0.0
 11
19.44256307854973
 21
88.86071460531523
 31
0.0
  0
LINE
  5
300
330
156
100
AcDbEntity
  8
FINAL
  6
CONTINUOUS
100
AcDbLine
 10
6.79471297775879
 20
88.86071460531523
 30
0.0
 11
6.79471297775879
 21
92.46071460531513
 31
0.0
  0
LINE
  5
301
330
156
100
AcDbEntity
  8
FINAL
  6
CONTINUOUS
100
AcDbLine
 10
6.79471297775879
 20
92.46071460531513
 30
0.0
 11
3.189806612669171
 21
92.46071460531513
 31
0.0
  0
ARC
  5
399
330
156
100
AcDbEntity
  8
FINAL
100
AcDbCircle
 10
60.5450348779444
 20
65.56437310812808
 30
0.0
 40
5.5
100
AcDbArc
 50
90.0
 51
180.0
  0
ARC
  5
39A
330
156
100
AcDbEntity
  8
FINAL
100
AcDbCircle
 10
60.54503487794443
 20
112.662962413271
 30
0.0
 40
5.5
100
AcDbArc
 50
180.0
 51
270.0
  0
ARC
  5
39B
330
156
100
AcDbEntity
  8
FINAL
100
AcDbCircle
 10
60.54503487794443
 20
112.662962413271
 30
0.0
 40
5.5
100
AcDbArc
 50
180.0
 51
270.0
  0
LINE
  5
39C
330
156
100
AcDbEntity
  8
FINAL
100
AcDbLine
 10
52.83058153897184
 20
95.79648912360147
 30
0.0
 11
52.83058153897184
 21
84.45208977332555
 31
0.0
  0
LINE
  5
39D
330
156
100
AcDbEntity
  8
FINAL
100
AcDbLine
 10
44.63058153897182
 20
84.45208977332555
 30
0.0
 11
44.63058153897182
 21
95.79648912360147
 31
0.0
  0
LINE
  5
39E
330
156
100
AcDbEntity
  8
FINAL
100
AcDbLine
 10
52.83058153897184
 20
84.45208977332555
 30
0.0
 11
52.83058153897437
 21
89.4520015756626
 31
0.0
  0
LINE
  5
39F
330
156
100
AcDbEntity
  8
FINAL
100
AcDbLine
 10
44.63058153897435
 20
89.4520015756626
 30
0.0
 11
44.63058153897182
 21
84.45208977332555
 31
0.0
  0
LINE
  5
3A0
330
156
100
AcDbEntity
  8
FINAL
100
AcDbLine
 10
45.63060065670171
 20
83.45207065559566
 30
0.0
 11
51.83056242124195
 21
83.45207065559566
 31
0.0
  0
LINE
  5
3A1
330
156
100
AcDbEntity
  8
FINAL
100
AcDbLine
 10
44.63058153897182
 20
84.45208977332555
 30
0.0
 11
45.63060065670171
 21
83.45207065559566
 31
0.0
  0
LINE
  5
3A2
330
156
100
AcDbEntity
  8
FINAL
100
AcDbLine
 10
52.83058153897184
 20
84.45208977332555
 30
0.0
 11
51.83056242124448
 21
83.45207065559566
 31
0.0
  0
LINE
  5
3A3
330
156
100
AcDbEntity
  8
FINAL
100
AcDbLine
 10
51.83056242124195
 20
83.45207065559566
 30
0.0
 11
52.83058153897184
 21
84.45208977332555
 31
0.0
  0
LINE
  5
3A4
330
156
100
AcDbEntity
  8
FINAL
100
AcDbLine
 10
46.90178997035744
 20
88.59648912360148
 30
0.0
 11
50.50178997035743
 21
88.59648912360148
 31
0.0
  0
LINE
  5
3A5
330
156
100
AcDbEntity
  8
FINAL
100
AcDbLine
 10
46.90178997035744
 20
95.79648912360147
 30
0.0
 11
46.90178997035744
 21
88.59648912360148
 31
0.0
  0
LINE
  5
3A6
330
156
100
AcDbEntity
  8
FINAL
100
AcDbLine
 10
44.63058153897182
 20
95.79648912360147
 30
0.0
 11
46.90178997035744
 21
95.79648912360147
 31
0.0
  0
LINE
  5
3A7
330
156
100
AcDbEntity
  8
FINAL
100
AcDbLine
 10
50.50178997035743
 20
88.59648912360148
 30
0.0
 11
50.50178997035743
 21
95.79648912360147
 31
0.0
  0
LINE
  5
3A8
330
156
100
AcDbEntity
  8
FINAL
100
AcDbLine
 10
50.50178997035743
 20
95.79648912360147
 30
0.0
 11
52.83058153897184
 21
95.79648912360147
 31
0.0
  0
LINE
  5
3A9
330
156
100
AcDbEntity
  8
FINAL
100
AcDbLine
 10
70.18943425657034
 20
85.04026921607422
 30
0.0
 11
71.18945337430023
 21
86.04028833380411
 31
0.0
  0
LINE
  5
3AA
330
156
100
AcDbEntity
  8
FINAL
100
AcDbLine
 10
61.5895224542333
 20
85.04026921607675
 30
0.0
 11
70.18943425657034
 21
85.04026921607422
 31
0.0
  0
LINE
  5
3AB
330
156
100
AcDbEntity
  8
FINAL
100
AcDbLine
 10
65.1895224542333
 20
74.66437310812804
 30
0.0
 11
65.1895224542333
 21
70.96428474656974
 31
0.0
  0
LINE
  5
3AC
330
156
100
AcDbEntity
  8
FINAL
100
AcDbLine
 10
65.1895224542333
 20
70.96428474656974
 30
0.0
 11
60.5450348779444
 21
71.06437310812805
 31
0.0
  0
LINE
  5
3AD
330
156
100
AcDbEntity
  8
FINAL
100
AcDbLine
 10
61.5895224542333
 20
74.66437310812804
 30
0.0
 11
65.1895224542333
 21
74.66437310812804
 31
0.0
  0
LINE
  5
3AE
330
156
100
AcDbEntity
  8
FINAL
100
AcDbLine
 10
61.5895224542333
 20
85.04026921607675
 30
0.0
 11
61.5895224542333
 21
74.66437310812804
 31
0.0
  0
LINE
  5
3AF
330
156
100
AcDbEntity
  8
FINAL
100
AcDbLine
 10
66.0450349062944
 20
90.91147764745983
 30
0.0
 11
71.18945337430023
 21
90.91147764745983
 31
0.0
  0
LINE
  5
3B0
330
156
100
AcDbEntity
  8
FINAL
100
AcDbLine
 10
71.18945337430023
 20
87.31147764745983
 30
0.0
 11
66.0450349062944
 21
87.31147764745983
 31
0.0
  0
LINE
  5
3B1
330
156
100
AcDbEntity
  8
FINAL
100
AcDbLine
 10
70.18943425657034
 20
93.24026921607424
 30
0.0
 11
61.5895224542333
 21
93.24026921607677
 31
0.0
  0
LINE
  5
3B2
330
156
100
AcDbEntity
  8
FINAL
100
AcDbLine
 10
71.18945337430023
 20
90.91147764745983
 30
0.0
 11
71.18945337430023
 21
92.24025009834434
 31
0.0
  0
LINE
  5
3B3
330
156
100
AcDbEntity
  8
FINAL
100
AcDbLine
 10
71.18945337430023
 20
87.31147764745983
 30
0.0
 11
71.18945337430023
 21
86.04028833380411
 31
0.0
  0
LINE
  5
3B4
330
156
100
AcDbEntity
  8
FINAL
100
AcDbLine
 10
71.18945337430023
 20
92.24025009834434
 30
0.0
 11
70.18943425657034
 21
93.24026921607424
 31
0.0
  0
LINE
  5
3B5
330
156
100
AcDbEntity
  8
FINAL
100
AcDbLine
 10
61.5895224542333
 20
103.562962413271
 30
0.0
 11
61.5895224542333
 21
93.24026921607677
 31
0.0
  0
LINE
  5
3B6
330
156
100
AcDbEntity
  8
FINAL
100
AcDbLine
 10
66.0450349062944
 20
87.31147764745983
 30
0.0
 11
66.0450349062944
 21
90.91147764745983
 31
0.0
  0
LINE
  5
3B7
330
156
100
AcDbEntity
  8
FINAL
100
AcDbLine
 10
65.1895224542333
 20
103.562962413271
 30
0.0
 11
61.5895224542333
 21
103.562962413271
 31
0.0
  0
LINE
  5
3B8
330
156
100
AcDbEntity
  8
FINAL
100
AcDbLine
 10
60.5450348779444
 20
107.1629624132711
 30
0.0
 11
65.1895224542333
 21
107.1629624132711
 31
0.0
  0
LINE
  5
3B9
330
156
100
AcDbEntity
  8
FINAL
100
AcDbLine
 10
65.1895224542333
 20
107.1629624132711
 30
0.0
 11
65.1895224542333
 21
103.562962413271
 31
0.0
  0
ARC
  5
3BA
330
156
100
AcDbEntity
  8
FINAL
100
AcDbCircle
 10
36.99347914310243
 20
89.11147764745985
 30
0.0
 40
19.5
100
AcDbArc
 50
264.700075908442
 51
95.29992409155795
  0
LINE
  5
3BB
330
156
100
AcDbEntity
  8
FINAL
100
AcDbLine
 10
35.19227841206384
 20
60.06808069712423
 30
0.0
 11
38.79227841206386
 21
60.06808069712423
 31
0.0
  0
LINE
  5
3BC
330
156
100
AcDbEntity
  8
FINAL
100
AcDbLine
 10
55.0450348779444
 20
60.06808069712423
 30
0.0
 11
55.0450348779444
 21
65.56437310812805
 31
0.0
  0
LINE
  5
3BD
330
156
100
AcDbEntity
  8
FINAL
100
AcDbLine
 10
51.44503487794441
 20
63.66808069712423
 30
0.0
 11
51.44503487794441
 21
60.06808069712423
 31
0.0
  0
LINE
  5
3BE
330
156
100
AcDbEntity
  8
FINAL
100
AcDbLine
 10
38.79227841206386
 20
60.06808069712423
 30
0.0
 11
38.79227841206386
 21
63.66808069712423
 31
0.0
  0
LINE
  5
3BF
330
156
100
AcDbEntity
  8
FINAL
100
AcDbLine
 10
51.44503487794441
 20
60.06808069712423
 30
0.0
 11
55.0450348779444
 21
60.06808069712423
 31
0.0
  0
LINE
  5
3C0
330
156
100
AcDbEntity
  8
FINAL
100
AcDbLine
 10
38.79227841206386
 20
63.66808069712423
 30
0.0
 11
51.44503487794441
 21
63.66808069712423
 31
0.0
  0
LINE
  5
3C1
330
156
100
AcDbEntity
  8
FINAL
100
AcDbLine
 10
35.19227841206384
 20
69.69484364651862
 30
0.0
 11
35.19227841206384
 21
60.06808069712423
 31
0.0
  0
LINE
  5
3C2
330
156
100
AcDbEntity
  8
FINAL
100
AcDbLine
 10
35.19227841206384
 20
118.1643543684665
 30
0.0
 11
38.79227841206386
 21
118.1643543684665
 31
0.0
  0
LINE
  5
3C3
330
156
100
AcDbEntity
  8
FINAL
100
AcDbLine
 10
38.79227841206386
 20
114.5643942929742
 30
0.0
 11
51.44503487794441
 21
114.5643942929742
 31
0.0
  0
LINE
  5
3C4
330
156
100
AcDbEntity
  8
FINAL
100
AcDbLine
 10
51.44503487794441
 20
118.1643543684665
 30
0.0
 11
55.0450348779444
 21
118.1643543684665
 31
0.0
  0
LINE
  5
3C5
330
156
100
AcDbEntity
  8
FINAL
100
AcDbLine
 10
55.0450348779444
 20
118.1643543684665
 30
0.0
 11
55.0450348779444
 21
112.662962413271
 31
0.0
  0
LINE
  5
3C6
330
156
100
AcDbEntity
  8
FINAL
100
AcDbLine
 10
51.44503487794441
 20
114.5643942929742
 30
0.0
 11
51.44503487794441
 21
118.1643543684665
 31
0.0
  0
LINE
  5
3C7
330
156
100
AcDbEntity
  8
FINAL
100
AcDbLine
 10
38.79227841206386
 20
118.1643543684665
 30
0.0
 11
38.79227841206386
 21
114.5643942929742
 31
0.0
  0
LINE
  5
3C8
330
156
100
AcDbEntity
  8
FINAL
100
AcDbLine
 10
35.19227841206384
 20
108.528111648401
 30
0.0
 11
35.19227841206384
 21
118.1643543684665
 31
0.0
  0
LINE
  5
43B
330
156
100
AcDbEntity
  8
FINAL
100
AcDbLine
 10
36.21302527302757
 20
36.16344794286337
 30
0.0
 11
36.21302527302757
 21
43.36344794286335
 31
0.0
  0
LINE
  5
43C
330
156
100
AcDbEntity
  8
FINAL
100
AcDbLine
 10
32.61302527302757
 20
43.36344794286335
 30
0.0
 11
32.61302527302757
 21
36.16344794286337
 31
0.0
  0
LINE
  5
43D
330
156
100
AcDbEntity
  8
FINAL
100
AcDbLine
 10
30.34181684164195
 20
32.01904859258744
 30
0.0
 11
30.34181684164195
 21
43.36344794286335
 31
0.0
  0
LINE
  5
43E
330
156
100
AcDbEntity
  8
FINAL
100
AcDbLine
 10
38.54181684164197
 20
43.36344794286335
 30
0.0
 11
38.54181684164197
 21
32.01904859258744
 31
0.0
  0
LINE
  5
43F
330
156
100
AcDbEntity
  8
FINAL
100
AcDbLine
 10
32.61302527302757
 20
36.16344794286337
 30
0.0
 11
36.21302527302757
 21
36.16344794286337
 31
0.0
  0
LINE
  5
440
330
156
100
AcDbEntity
  8
FINAL
100
AcDbLine
 10
31.34183595937185
 20
31.01902947485754
 30
0.0
 11
37.54179772391208
 21
31.01902947485754
 31
0.0
  0
LINE
  5
441
330
156
100
AcDbEntity
  8
FINAL
100
AcDbLine
 10
30.34181684164195
 20
32.01904859258744
 30
0.0
 11
31.34183595937185
 21
31.01902947485754
 31
0.0
  0
LINE
  5
442
330
156
100
AcDbEntity
  8
FINAL
100
AcDbLine
 10
30.34181684164448
 20
37.01896039492448
 30
0.0
 11
30.34181684164195
 21
32.01904859258744
 31
0.0
  0
LINE
  5
443
330
156
100
AcDbEntity
  8
FINAL
100
AcDbLine
 10
37.54179772391208
 20
31.01902947485754
 30
0.0
 11
38.54181684164197
 21
32.01904859258744
 31
0.0
  0
LINE
  5
444
330
156
100
AcDbEntity
  8
FINAL
100
AcDbLine
 10
38.54181684164197
 20
32.01904859258744
 30
0.0
 11
37.54179772391461
 21
31.01902947485754
 31
0.0
  0
LINE
  5
445
330
156
100
AcDbEntity
  8
FINAL
100
AcDbLine
 10
38.54181684164197
 20
32.01904859258744
 30
0.0
 11
38.5418168416445
 21
37.01896039492448
 31
0.0
  0
LINE
  5
446
330
156
100
AcDbEntity
  8
FINAL
100
AcDbLine
 10
30.34181684164195
 20
43.36344794286335
 30
0.0
 11
32.61302527302757
 21
43.36344794286335
 31
0.0
  0
LINE
  5
447
330
156
100
AcDbEntity
  8
FINAL
100
AcDbLine
 10
36.21302527302757
 20
43.36344794286335
 30
0.0
 11
38.54181684164197
 21
43.36344794286335
 31
0.0
  0
ENDSEC
  0
SECTION
  2
OBJECTS
  0
DICTIONARY
  5
144
330
0
100
AcDbDictionary
  3
ACAD_GROUP
350
145
  3
ACAD_LAYOUT
350
151
  3
ACAD_MLINESTYLE
350
14E
  3
ACAD_PLOTSETTINGS
350
150
1001
ACAD
1000
TREAT_AS_HARD
1070
     0
  0
DICTIONARY
  5
44C
330
156
100
AcDbDictionary
  3
ACAD_LAYOUTSELFREF
350
44D
  0
DICTIONARY
  5
44A
330
152
100
AcDbDictionary
  3
ACAD_LAYOUTSELFREF
350
44B
  0
DICTIONARY
  5
145
102
{ACAD_REACTORS
330
144
102
}
330
144
100
AcDbDictionary
1001
ACAD
1000
TREAT_AS_HARD
1070
     0
  0
DICTIONARY
  5
151
102
{ACAD_REACTORS
330
144
102
}
330
144
100
AcDbDictionary
1001
ACAD
1000
TREAT_AS_HARD
1070
     0
  0
DICTIONARY
  5
14E
102
{ACAD_REACTORS
330
144
102
}
330
144
100
AcDbDictionary
  3
STANDARD
350
14F
1001
ACAD
1000
TREAT_AS_HARD
1070
     0
  0
DICTIONARY
  5
150
102
{ACAD_REACTORS
330
144
102
}
330
144
100
AcDbDictionary
1001
ACAD
1000
TREAT_AS_HARD
1070
     0
  0
XRECORD
  5
44D
102
{ACAD_REACTORS
330
44C
102
}
330
44C
100
AcDbXrecord
340
156
  0
XRECORD
  5
44B
102
{ACAD_REACTORS
330
44A
102
}
330
44A
100
AcDbXrecord
340
152
  0
MLINESTYLE
  5
14F
102
{ACAD_REACTORS
330
14E
102
}
330
14E
100
AcDbMlineStyle
  2
STANDARD
 70
     0
  3

 62
   256
 51
90.0
 52
90.0
 71
     2
 49
0.5
 62
   256
  6
BYLAYER
 49
-0.5
 62
   256
  6
BYLAYER
  0
ENDSEC
  0
EOF
