  0
SECTION
  2
HEADER
  9
$ACADVER
  1
AC1012
  9
$DWGCODEPAGE
  3
ANSI_1252
  9
$INSBASE
 10
0.0
 20
0.0
 30
0.0
  9
$EXTMIN
 10
0.0
 20
0.0
 30
0.0
  9
$EXTMAX
 10
603.0
 20
603.0
 30
0.0
  9
$LIMMIN
 10
0.0
 20
0.0
  9
$LIMMAX
 10
420.0
 20
297.0
  9
$ORTHOMODE
 70
     0
  9
$REGENMODE
 70
     1
  9
$FILLMODE
 70
     1
  9
$QTEXTMODE
 70
     0
  9
$MIRRTEXT
 70
     1
  9
$DRAGMODE
 70
     2
  9
$LTSCALE
 40
1.0
  9
$OSMODE
 70
    55
  9
$ATTMODE
 70
     1
  9
$TEXTSIZE
 40
2.5
  9
$TRACEWID
 40
1.0
  9
$TEXTSTYLE
  7
STANDARD
  9
$CLAYER
  8
0
  9
$CELTYPE
  6
BYLAYER
  9
$CECOLOR
 62
   256
  9
$CELTSCALE
 40
1.0
  9
$DELOBJ
 70
     1
  9
$DISPSILH
 70
     0
  9
$DIMSCALE
 40
1.0
  9
$DIMASZ
 40
2.5
  9
$DIMEXO
 40
0.625
  9
$DIMDLI
 40
3.75
  9
$DIMRND
 40
0.0
  9
$DIMDLE
 40
0.0
  9
$DIMEXE
 40
1.25
  9
$DIMTP
 40
0.0
  9
$DIMTM
 40
0.0
  9
$DIMTXT
 40
2.5
  9
$DIMCEN
 40
2.5
  9
$DIMTSZ
 40
0.0
  9
$DIMTOL
 70
     0
  9
$DIMLIM
 70
     0
  9
$DIMTIH
 70
     0
  9
$DIMTOH
 70
     0
  9
$DIMSE1
 70
     0
  9
$DIMSE2
 70
     0
  9
$DIMTAD
 70
     1
  9
$DIMZIN
 70
     8
  9
$DIMBLK
  1

  9
$DIMASO
 70
     1
  9
$DIMSHO
 70
     1
  9
$DIMPOST
  1

  9
$DIMAPOST
  1

  9
$DIMALT
 70
     0
  9
$DIMALTD
 70
     3
  9
$DIMALTF
 40
0.03937007874016
  9
$DIMLFAC
 40
1.0
  9
$DIMTOFL
 70
     1
  9
$DIMTVP
 40
0.0
  9
$DIMTIX
 70
     0
  9
$DIMSOXD
 70
     0
  9
$DIMSAH
 70
     0
  9
$DIMBLK1
  1

  9
$DIMBLK2
  1

  9
$DIMSTYLE
  2
ISO-25
  9
$DIMCLRD
 70
     0
  9
$DIMCLRE
 70
     0
  9
$DIMCLRT
 70
     0
  9
$DIMTFAC
 40
1.0
  9
$DIMGAP
 40
0.625
  9
$DIMJUST
 70
     0
  9
$DIMSD1
 70
     0
  9
$DIMSD2
 70
     0
  9
$DIMTOLJ
 70
     1
  9
$DIMTZIN
 70
     0
  9
$DIMALTZ
 70
     0
  9
$DIMALTTZ
 70
     0
  9
$DIMFIT
 70
     3
  9
$DIMUPT
 70
     0
  9
$DIMUNIT
 70
     2
  9
$DIMDEC
 70
     4
  9
$DIMTDEC
 70
     4
  9
$DIMALTU
 70
     2
  9
$DIMALTTD
 70
     2
  9
$DIMTXSTY
  7
STANDARD
  9
$DIMAUNIT
 70
     0
  9
$LUNITS
 70
     2
  9
$LUPREC
 70
     4
  9
$SKETCHINC
 40
1.0
  9
$FILLETRAD
 40
10.0
  9
$AUNITS
 70
     0
  9
$AUPREC
 70
     0
  9
$MENU
  1
.
  9
$ELEVATION
 40
0.0
  9
$PELEVATION
 40
0.0
  9
$THICKNESS
 40
0.0
  9
$LIMCHECK
 70
     0
  9
$BLIPMODE
 70
     0
  9
$CHAMFERA
 40
10.0
  9
$CHAMFERB
 40
10.0
  9
$CHAMFERC
 40
0.0
  9
$CHAMFERD
 40
0.0
  9
$SKPOLY
 70
     0
  9
$TDCREATE
 40
2454234.241615659
  9
$TDUPDATE
 40
2454385.819373009
  9
$TDINDWG
 40
0.2025144444
  9
$TDUSRTIMER
 40
0.2025140856
  9
$USRTIMER
 70
     1
  9
$ANGBASE
 50
0.0
  9
$ANGDIR
 70
     0
  9
$PDMODE
 70
     0
  9
$PDSIZE
 40
0.0
  9
$PLINEWID
 40
0.0
  9
$COORDS
 70
     1
  9
$SPLFRAME
 70
     0
  9
$SPLINETYPE
 70
     6
  9
$SPLINESEGS
 70
     8
  9
$ATTDIA
 70
     0
  9
$ATTREQ
 70
     1
  9
$HANDLING
 70
 22529
  9
$HANDSEED
  5
D74
  9
$SURFTAB1
 70
     6
  9
$SURFTAB2
 70
     6
  9
$SURFTYPE
 70
     6
  9
$SURFU
 70
     6
  9
$SURFV
 70
     6
  9
$UCSNAME
  2

  9
$UCSORG
 10
0.0
 20
0.0
 30
0.0
  9
$UCSXDIR
 10
1.0
 20
0.0
 30
0.0
  9
$UCSYDIR
 10
0.0
 20
1.0
 30
0.0
  9
$PUCSNAME
  2

  9
$PUCSORG
 10
0.0
 20
0.0
 30
0.0
  9
$PUCSXDIR
 10
1.0
 20
0.0
 30
0.0
  9
$PUCSYDIR
 10
0.0
 20
1.0
 30
0.0
  9
$USERI1
 70
     0
  9
$USERI2
 70
     0
  9
$USERI3
 70
     0
  9
$USERI4
 70
     0
  9
$USERI5
 70
     0
  9
$USERR1
 40
0.0
  9
$USERR2
 40
0.0
  9
$USERR3
 40
0.0
  9
$USERR4
 40
0.0
  9
$USERR5
 40
0.0
  9
$WORLDVIEW
 70
     1
  9
$SHADEDGE
 70
     3
  9
$SHADEDIF
 70
    70
  9
$TILEMODE
 70
     1
  9
$MAXACTVP
 70
    64
  9
$PINSBASE
 10
0.0
 20
0.0
 30
0.0
  9
$PLIMCHECK
 70
     0
  9
$PEXTMIN
 10
0.0
 20
0.0
 30
0.0
  9
$PEXTMAX
 10
0.0
 20
0.0
 30
0.0
  9
$PLIMMIN
 10
0.0
 20
0.0
  9
$PLIMMAX
 10
12.0
 20
9.0
  9
$UNITMODE
 70
     0
  9
$VISRETAIN
 70
     1
  9
$PLINEGEN
 70
     0
  9
$PSLTSCALE
 70
     1
  9
$TREEDEPTH
 70
  3020
  9
$PICKSTYLE
 70
     1
  9
$CMLSTYLE
  2
STANDARD
  9
$CMLJUST
 70
     0
  9
$CMLSCALE
 40
1.0
  9
$SAVEIMAGES
 70
     1
  0
ENDSEC
  0
SECTION
  2
CLASSES
  0
CLASS
  1
ACDBDICTIONARYWDFLT
  2
AcDbDictionaryWithDefault
  3
AutoCAD 2000
 90
    32768
280
     0
281
     0
  0
CLASS
  1
ACDBPLACEHOLDER
  2
AcDbPlaceHolder
  3
AutoCAD 2000
 90
    32768
280
     0
281
     0
  0
CLASS
  1
LAYOUT
  2
AcDbLayout
  3
AutoCAD 2000
 90
    32768
280
     0
281
     0
  0
CLASS
  1
DICTIONARYVAR
  2
AcDbDictionaryVar
  3
AutoCAD 2000
 90
    32768
280
     0
281
     0
  0
CLASS
  1
LONG_TRANSACTION
  2
AcDbLongTransaction
  3
AutoCAD 2000
 90
    32768
280
     0
281
     0
  0
CLASS
  1
LWPOLYLINE
  2
AcDbPolyline
  3
AutoCAD 2000
 90
    32768
280
     0
281
     1
  0
CLASS
  1
HATCH
  2
AcDbHatch
  3
AutoCAD 2000
 90
    32768
280
     0
281
     1
  0
CLASS
  1
XRECORD
  2
AcDbXrecord
  3
AutoCAD 2000
 90
    32768
280
     0
281
     0
  0
ENDSEC
  0
SECTION
  2
TABLES
  0
TABLE
  2
VPORT
  5
140
330
0
100
AcDbSymbolTable
 70
     2
  0
VPORT
  5
D63
330
140
100
AcDbSymbolTableRecord
100
AcDbViewportTableRecord
  2
*ACTIVE
 70
     0
 10
0.0
 20
0.0
 11
1.0
 21
1.0
 12
-46.88295933004087
 22
127.0709077814304
 13
0.0
 23
0.0
 14
10.0
 24
10.0
 15
10.0
 25
10.0
 16
0.0
 26
0.0
 36
1.0
 17
0.0
 27
0.0
 37
0.0
 40
391.6238830183426
 41
2.218472468916518
 42
50.0
 43
0.0
 44
0.0
 50
0.0
 51
0.0
 71
     0
 72
   100
 73
     1
 74
     2
 75
     0
 76
     0
 77
     0
 78
     0
  0
ENDTAB
  0
TABLE
  2
LTYPE
  5
13D
330
0
100
AcDbSymbolTable
 70
     1
  0
LTYPE
  5
14B
330
13D
100
AcDbSymbolTableRecord
100
AcDbLinetypeTableRecord
  2
BYBLOCK
 70
     0
  3

 72
    65
 73
     0
 40
0.0
  0
LTYPE
  5
14C
330
13D
100
AcDbSymbolTableRecord
100
AcDbLinetypeTableRecord
  2
BYLAYER
 70
     0
  3

 72
    65
 73
     0
 40
0.0
  0
LTYPE
  5
14D
330
13D
100
AcDbSymbolTableRecord
100
AcDbLinetypeTableRecord
  2
CONTINUOUS
 70
     0
  3
Solid line
 72
    65
 73
     0
 40
0.0
  0
ENDTAB
  0
TABLE
  2
LAYER
  5
13A
330
0
100
AcDbSymbolTable
 70
     5
  0
LAYER
  5
148
330
13A
100
AcDbSymbolTableRecord
100
AcDbLayerTableRecord
  2
0
 70
     0
 62
     7
  6
CONTINUOUS
  0
LAYER
  5
15B
330
13A
100
AcDbSymbolTableRecord
100
AcDbLayerTableRecord
  2
LASER_BED
 70
     0
 62
     8
  6
CONTINUOUS
  0
LAYER
  5
15C
330
13A
100
AcDbSymbolTableRecord
100
AcDbLayerTableRecord
  2
TEXT
 70
     0
 62
  -250
  6
CONTINUOUS
  0
LAYER
  5
1CA
330
13A
100
AcDbSymbolTableRecord
100
AcDbLayerTableRecord
  2
FINAL
 70
     0
 62
     8
  6
CONTINUOUS
  0
LAYER
  5
D44
330
13A
100
AcDbSymbolTableRecord
100
AcDbLayerTableRecord
  2
DEFPOINTS
 70
     0
 62
     7
  6
CONTINUOUS
  0
ENDTAB
  0
TABLE
  2
STYLE
  5
13B
330
0
100
AcDbSymbolTable
 70
     1
  0
STYLE
  5
149
330
13B
100
AcDbSymbolTableRecord
100
AcDbTextStyleTableRecord
  2
STANDARD
 70
     0
 40
0.0
 41
1.0
 50
0.0
 71
     0
 42
2.5
  3
txt
  4

  0
ENDTAB
  0
TABLE
  2
VIEW
  5
13E
330
0
100
AcDbSymbolTable
 70
     0
  0
ENDTAB
  0
TABLE
  2
UCS
  5
13F
330
0
100
AcDbSymbolTable
 70
     0
  0
ENDTAB
  0
TABLE
  2
APPID
  5
141
330
0
100
AcDbSymbolTable
 70
     1
  0
APPID
  5
14A
330
141
100
AcDbSymbolTableRecord
100
AcDbRegAppTableRecord
  2
ACAD
 70
     0
  0
ENDTAB
  0
TABLE
  2
DIMSTYLE
  5
142
330
0
100
AcDbSymbolTable
 70
     1
  0
DIMSTYLE
105
15D
330
142
100
AcDbSymbolTableRecord
100
AcDbDimStyleTableRecord
  2
ISO-25
 70
     0
  3

  4

  5

  6

  7

 40
1.0
 41
2.5
 42
0.625
 43
3.75
 44
1.25
 45
0.0
 46
0.0
 47
0.0
 48
0.0
140
2.5
141
2.5
142
0.0
143
0.03937007874016
144
1.0
145
0.0
146
1.0
147
0.625
 71
     0
 72
     0
 73
     0
 74
     0
 75
     0
 76
     0
 77
     1
 78
     8
170
     0
171
     3
172
     1
173
     0
174
     0
175
     0
176
     0
177
     0
178
     0
270
     2
271
     4
272
     4
273
     2
274
     3
340
149
275
     0
280
     0
281
     0
282
     0
283
     1
284
     8
285
     8
286
     8
287
     5
288
     0
  0
ENDTAB
  0
TABLE
  2
BLOCK_RECORD
  5
139
330
0
100
AcDbSymbolTable
 70
     6
  0
BLOCK_RECORD
  5
156
102
{ACAD_XDICTIONARY
360
D66
102
}
330
139
100
AcDbSymbolTableRecord
100
AcDbBlockTableRecord
  2
*MODEL_SPACE
  0
BLOCK_RECORD
  5
152
102
{ACAD_XDICTIONARY
360
D64
102
}
330
139
100
AcDbSymbolTableRecord
100
AcDbBlockTableRecord
  2
*PAPER_SPACE
  0
BLOCK_RECORD
  5
15F
330
139
100
AcDbSymbolTableRecord
100
AcDbBlockTableRecord
  2
$MODEL_SPACE
  0
BLOCK_RECORD
  5
162
330
139
100
AcDbSymbolTableRecord
100
AcDbBlockTableRecord
  2
$PAPER_SPACE
  0
BLOCK_RECORD
  5
165
330
139
100
AcDbSymbolTableRecord
100
AcDbBlockTableRecord
  2
*U2
  0
BLOCK_RECORD
  5
1A2
330
139
100
AcDbSymbolTableRecord
100
AcDbBlockTableRecord
  2
*U3
  0
ENDTAB
  0
ENDSEC
  0
SECTION
  2
BLOCKS
  0
BLOCK
  5
157
330
156
100
AcDbEntity
  8
0
100
AcDbBlockBegin
  2
*MODEL_SPACE
 70
     0
 10
0.0
 20
0.0
 30
0.0
  3
*MODEL_SPACE
  1

  0
ENDBLK
  5
158
330
156
100
AcDbEntity
  8
0
100
AcDbBlockEnd
  0
BLOCK
  5
153
330
152
100
AcDbEntity
 67
     1
  8
0
100
AcDbBlockBegin
  2
*PAPER_SPACE
 70
     0
 10
0.0
 20
0.0
 30
0.0
  3
*PAPER_SPACE
  1

  0
ENDBLK
  5
154
330
152
100
AcDbEntity
 67
     1
  8
0
100
AcDbBlockEnd
  0
BLOCK
  5
160
330
15F
100
AcDbEntity
  8
0
100
AcDbBlockBegin
  2
$MODEL_SPACE
 70
     0
 10
0.0
 20
0.0
 30
0.0
  3
$MODEL_SPACE
  1

  0
ENDBLK
  5
161
330
15F
100
AcDbEntity
  8
0
100
AcDbBlockEnd
  0
BLOCK
  5
163
330
162
100
AcDbEntity
  8
0
100
AcDbBlockBegin
  2
$PAPER_SPACE
 70
     0
 10
0.0
 20
0.0
 30
0.0
  3
$PAPER_SPACE
  1

  0
ENDBLK
  5
164
330
162
100
AcDbEntity
  8
0
100
AcDbBlockEnd
  0
BLOCK
  5
166
330
165
100
AcDbEntity
  8
0
100
AcDbBlockBegin
  2
*U2
 70
     1
 10
0.0
 20
0.0
 30
0.0
  3
*U2
  1

  0
LINE
  5
167
330
165
100
AcDbEntity
  8
0
100
AcDbLine
 10
13.14800855692494
 20
573.033171645369
 30
0.0
 11
104.3146752235914
 21
573.033171645369
 31
0.0
  0
TEXT
  5
168
330
165
100
AcDbEntity
  8
0
100
AcDbText
 10
13.14800855692494
 20
573.7331716453691
 30
0.0
 40
3.5
  1
Using the Epilog AutoCAD driver:
100
AcDbText
  0
TEXT
  5
169
330
165
100
AcDbEntity
  8
0
100
AcDbText
 10
12.81467522359162
 20
562.0665049787024
 30
0.0
 40
3.5
  1
1. There is a plotter conflict between the page size of the plotter and what AutoCAD thinks is appropriate plotter configuration 
100
AcDbText
  0
TEXT
  5
16A
330
165
100
AcDbEntity
  8
0
100
AcDbText
 10
13.31467522359162
 20
555.5665049787023
 30
0.0
 40
3.5
  1
(landscape/portrait). There is a documented workaround which enables the operator to use a full A2  sheet in the Epilog without incorrect 
100
AcDbText
  0
TEXT
  5
16B
330
165
100
AcDbEntity
  8
0
100
AcDbText
 10
13.31467522359162
 20
549.7331716453691
 30
0.0
 40
3.5
  1
orientation. If you have an alternative method which is untested, go play with it in your own time. In this file you will find a grey oblong within 
100
AcDbText
  0
TEXT
  5
16C
330
165
100
AcDbEntity
  8
0
100
AcDbText
 10
13.31467522359162
 20
543.8998383120356
 30
0.0
 40
3.5
  1
a square. The oblong defines the actual space of the plotter bed, its origin is the bottom left-hand corner. The larger square prevents AutoCAD 
100
AcDbText
  0
TEXT
  5
16D
330
165
100
AcDbEntity
  8
0
100
AcDbText
 10
13.31467522359162
 20
538.0665049787023
 30
0.0
 40
3.5
  1
from reorientating the drawing to the wrong format. Place your CAD drawings within the oblong. Place nothing outside.
100
AcDbText
  0
TEXT
  5
16E
330
165
100
AcDbEntity
  8
0
100
AcDbText
 10
13.48134189025827
 20
532.2331716453691
 30
0.0
 40
3.5
  1
You may find that the plotter attempts to cut this oblong and square, if this is the case, go to the LAYERS box in AutoCAD and uncheck the 
100
AcDbText
  0
TEXT
  5
16F
330
165
100
AcDbEntity
  8
0
100
AcDbText
 10
13.14800855692494
 20
525.7331716453689
 30
0.0
 40
3.5
  1
printer icon on the LASER_BED layer (or whatever the layer is called).
100
AcDbText
  0
TEXT
  5
170
330
165
100
AcDbEntity
  8
0
100
AcDbText
 10
13.31467522359162
 20
513.3998383120358
 30
0.0
 40
3.5
  1
2. The plotter driver is called "Legend Vector" or "Legend Win32 Vector", when plotting ensure that this is the driver selected, other drivers will 
100
AcDbText
  0
TEXT
  5
171
330
165
100
AcDbEntity
  8
0
100
AcDbText
 10
13.14800855692494
 20
507.5665049787025
 30
0.0
 40
3.5
  1
not work with AutoCAD. The Epilog plotter driver is not accessed through the  standard interface, you must click on CUSTOM PROPERTIES to 
100
AcDbText
  0
TEXT
  5
172
330
165
100
AcDbEntity
  8
0
100
AcDbText
 10
13.31467522359162
 20
501.7331716453691
 30
0.0
 40
3.5
  1
access its unique idiosyncracies. 
100
AcDbText
  0
TEXT
  5
173
330
165
100
AcDbEntity
  8
0
100
AcDbText
 10
13.14800855692494
 20
489.3998383120358
 30
0.0
 40
3.5
  1
File -> Plot -> Plot Device (tab) -> [Legend Win32 Vector Only.pc3] -> Properties ->
100
AcDbText
  0
TEXT
  5
174
330
165
100
AcDbEntity
  8
0
100
AcDbText
 10
13.14800855692494
 20
477.0665049787025
 30
0.0
 40
3.5
  1
Leading on to the "Plotter Configuration Editor - Legend Win32 Vector Only.pc3" window
100
AcDbText
  0
TEXT
  5
175
330
165
100
AcDbEntity
  8
0
100
AcDbText
 10
13.81467522359161
 20
465.3998383120359
 30
0.0
 40
3.5
  1
 .. -> Custom Properties... ->
100
AcDbText
  0
TEXT
  5
176
330
165
100
AcDbEntity
  8
0
100
AcDbText
 10
13.31467522359162
 20
453.0665049787025
 30
0.0
 40
3.5
  1
Opens the "Legend Win32 Vector Only Properties" window where some settings must be made.
100
AcDbText
  0
TEXT
  5
177
330
165
100
AcDbEntity
  8
0
100
AcDbText
 10
13.14800855692494
 20
440.7331716453692
 30
0.0
 40
3.5
  1
Piece Size (inches) must be set to 24" Horizontal & 24" Vertical or 60 x 60 cm
100
AcDbText
  0
TEXT
  5
178
330
165
100
AcDbEntity
  8
0
100
AcDbText
 10
13.14800855692494
 20
428.3998383120358
 30
0.0
 40
3.5
  1
If you are unsure of what Speed/Power settings cut or mark your material, you can open a saved setting from the "Configurations" box Where 
100
AcDbText
  0
TEXT
  5
179
330
165
100
AcDbEntity
  8
0
100
AcDbText
 10
13.31467522359162
 20
421.8998383120358
 30
0.0
 40
3.5
  1
it says [Custom Settings -- not saved]. If you scroll this box down you will see another  window saying [Save as..] and here is the 
100
AcDbText
  0
TEXT
  5
17A
330
165
100
AcDbEntity
  8
0
100
AcDbText
 10
13.14800855692494
 20
415.3998383120358
 30
0.0
 40
3.5
  1
non-evident bit, if you go to the right of this particular window and scroll down again you will see another option [Load..], this option will 
100
AcDbText
  0
TEXT
  5
17B
330
165
100
AcDbEntity
  8
0
100
AcDbText
 10
13.31467522359162
 20
408.8998383120358
 30
0.0
 40
3.5
  1
enable you to access settings which have been saved. Other useful things to know are the speed/power/frequency settings. The word power is 
100
AcDbText
  0
TEXT
  5
17C
330
165
100
AcDbEntity
  8
0
100
AcDbText
 10
13.14800855692494
 20
403.0665049787025
 30
0.0
 40
3.5
  1
misleading, the laser is either on or off. The slower the speed, the longer the laser beam stays on any one spot, the greater the power. The 
100
AcDbText
  0
TEXT
  5
17D
330
165
100
AcDbEntity
  8
0
100
AcDbText
 10
13.14800855692494
 20
397.2331716453691
 30
0.0
 40
3.5
  1
higher the frequency, the faster the laser is pulsed on and off. My guess is that the higher the power  setting, the longer the duration of 
100
AcDbText
  0
TEXT
  5
17E
330
165
100
AcDbEntity
  8
0
100
AcDbText
 10
13.14800855692494
 20
391.3998383120358
 30
0.0
 40
3.5
  1
laser-on time against laser-off time. 
100
AcDbText
  0
TEXT
  5
17F
330
165
100
AcDbEntity
  8
0
100
AcDbText
 10
13.31467522359162
 20
379.0665049787023
 30
0.0
 40
3.5
  1
3. It is possible to engrave a surface without cutting through, individual speed/power settings can be assigned to different colours. There are 
100
AcDbText
  0
TEXT
  5
180
330
165
100
AcDbEntity
  8
0
100
AcDbText
 10
13.48134189025827
 20
372.5665049787024
 30
0.0
 40
3.5
  1
two power/speed settings controls, one controls all vectors of an assigned colour, and  the other controls the rest. When selecting colours, it is 
100
AcDbText
  0
TEXT
  5
181
330
165
100
AcDbEntity
  8
0
100
AcDbText
 10
13.14800855692494
 20
366.0665049787025
 30
0.0
 40
3.5
  1
probably best to stick to the primary colours with easy  RGB values like (0,0,255) .. blue, (0,255,0).. green.
100
AcDbText
  0
TEXT
  5
182
330
165
100
AcDbEntity
  8
0
100
AcDbText
 10
13.31467522359162
 20
353.7331716453692
 30
0.0
 40
3.5
  1
4. There are several checkboxes, the autofocus is useful unless you a piece of material does not lie where the autofocus decides to drop it's 
100
AcDbText
  0
TEXT
  5
183
330
165
100
AcDbEntity
  8
0
100
AcDbText
 10
13.14800855692494
 20
347.8998383120358
 30
0.0
 40
3.5
  1
plunger; in that case it is best to use the manual focus accessory. Read manual.
100
AcDbText
  0
TEXT
  5
184
330
165
100
AcDbEntity
  8
0
100
AcDbText
 10
13.48134189025827
 20
342.0665049787024
 30
0.0
 40
3.5
  1
The vector sorting seems to be a happy checkbox with no code connected.
100
AcDbText
  0
TEXT
  5
185
330
165
100
AcDbEntity
  8
0
100
AcDbText
 10
13.31467522359162
 20
329.7331716453693
 30
0.0
 40
3.5
  1
5. When saving "Custom Properties" and then OK-ing the "Plotter Configuration Editor -.." window, a box appears asking to choose between a 
100
AcDbText
  0
TEXT
  5
186
330
165
100
AcDbEntity
  8
0
100
AcDbText
 10
13.48134189025827
 20
323.8998383120358
 30
0.0
 40
3.5
  1
temporary *.pc3 file and the config settings for the system plotter; choose the system plotter. The temporary file seems to give variable results.
100
AcDbText
  0
TEXT
  5
187
330
165
100
AcDbEntity
  8
0
100
AcDbText
 10
13.14800855692494
 20
311.5665049787025
 30
0.0
 40
3.5
  1
6. Now go to the other tab [Plot Settings] and check that the scale is 1:1 or suited to your own scale.
100
AcDbText
  0
TEXT
  5
188
330
165
100
AcDbEntity
  8
0
100
AcDbText
 10
13.31467522359162
 20
299.2331716453691
 30
0.0
 40
3.5
  1
7. Click on the "Window" option when setting the plot area, SELECT THE INNER LASER-BED BOX corner to corner - the box containing this text if 
100
AcDbText
  0
TEXT
  5
189
330
165
100
AcDbEntity
  8
0
100
AcDbText
 10
13.48134189025827
 20
293.3998383120358
 30
0.0
 40
3.5
  1
you are looking at a DXF file. When you preview the plot you will hopefully see your drawing. Otherwise check the following steps.
100
AcDbText
  0
TEXT
  5
18A
330
165
100
AcDbEntity
  8
0
100
AcDbText
 10
13.31467522359162
 20
281.7331716453693
 30
0.0
 40
3.5
  1
8. Ensure the line-width is the smallest real value for all vectors on your drawing, normally 0.05 mm
100
AcDbText
  0
TEXT
  5
18B
330
165
100
AcDbEntity
  8
0
100
AcDbText
 10
13.31467522359162
 20
270.0665049787025
 30
0.0
 40
3.5
  1
9. Ensure that the line-type is continious.
100
AcDbText
  0
LINE
  5
18C
330
165
100
AcDbEntity
  8
0
100
AcDbLine
 10
13.14800855692494
 20
257.699838312036
 30
0.0
 11
125.8146752235912
 21
257.699838312036
 31
0.0
  0
TEXT
  5
18D
330
165
100
AcDbEntity
  8
0
100
AcDbText
 10
13.14800855692494
 20
258.3998383120359
 30
0.0
 40
3.5
  1
Problems which have been encountered.
100
AcDbText
  0
TEXT
  5
18E
330
165
100
AcDbEntity
  8
0
100
AcDbText
 10
13.48134189025827
 20
246.0665049787026
 30
0.0
 40
3.5
  1
AutoCAD will save previous plotter/printer data within it's binary file format (DWG) which may render subsequent printing attempts on different 
100
AcDbText
  0
TEXT
  5
18F
330
165
100
AcDbEntity
  8
0
100
AcDbText
 10
13.14800855692494
 20
239.5665049787026
 30
0.0
 40
3.5
  1
printers inoperable. Resave the file as a DXF (human readable format) and prefereably  the oldest version. This may enable you to discard the 
100
AcDbText
  0
TEXT
  5
190
330
165
100
AcDbEntity
  8
0
100
AcDbText
 10
13.14800855692494
 20
233.7331716453692
 30
0.0
 40
3.5
  1
printer settings.
100
AcDbText
  0
TEXT
  5
191
330
165
100
AcDbEntity
  8
0
100
AcDbText
 10
13.48134189025827
 20
222.0665049787027
 30
0.0
 40
3.5
  1
When saving from AutoCAD 2006, use an earlier *.dwg or *.dxf format, there are backwards compatability issues amongst the different versions.
100
AcDbText
  0
TEXT
  5
192
330
165
100
AcDbEntity
  8
0
100
AcDbText
 10
13.48134189025827
 20
209.7331716453694
 30
0.0
 40
3.5
  1
When saving from SolidWorks as a *.dxf or *.dwg, ensure that in the [Preferences] dialog you select a version prior to 2004-2006 and that you 
100
AcDbText
  0
TEXT
  5
193
330
165
100
AcDbEntity
  8
0
100
AcDbText
 10
13.31467522359162
 20
203.899838312036
 30
0.0
 40
3.5
  1
scale output 1:1. Splines work better as polylines under AutoCAD.
100
AcDbText
  0
LINE
  5
194
330
165
100
AcDbEntity
  8
0
100
AcDbLine
 10
13.14800855692494
 20
190.8665049787027
 30
0.0
 11
53.81467522359161
 21
190.8665049787027
 31
0.0
  0
TEXT
  5
195
330
165
100
AcDbEntity
  8
0
100
AcDbText
 10
13.14800855692494
 20
191.5665049787027
 30
0.0
 40
3.5
  1
DO's + DONT's
100
AcDbText
  0
TEXT
  5
196
330
165
100
AcDbEntity
  8
0
100
AcDbText
 10
13.48134189025827
 20
185.7331716453694
 30
0.0
 40
3.5
  1
The next few points are reminders about Epilog laser usage.
100
AcDbText
  0
TEXT
  5
197
330
165
100
AcDbEntity
  8
0
100
AcDbText
 10
13.48134189025827
 20
174.0665049787028
 30
0.0
 40
3.5
  1
The laser cutter must be supervised while operating.
100
AcDbText
  0
TEXT
  5
198
330
165
100
AcDbEntity
  8
0
100
AcDbText
 10
13.48134189025827
 20
162.3998383120361
 30
0.0
 40
3.5
  1
The extractor must be switched on and the air compressor assist must be operating.
100
AcDbText
  0
TEXT
  5
199
330
165
100
AcDbEntity
  8
0
100
AcDbText
 10
13.14800855692494
 20
150.7331716453695
 30
0.0
 40
3.5
  1
Do not cut unknown plastics.
100
AcDbText
  0
TEXT
  5
19A
330
165
100
AcDbEntity
  8
0
100
AcDbText
 10
13.14800855692494
 20
139.0665049787029
 30
0.0
 40
3.5
  1
Do not cut PolyVinylChloride, PVC, vinyl as this releases chlorine gas which damages the optics and kills bystanders. Use the vinylcutter.
100
AcDbText
  0
TEXT
  5
19B
330
165
100
AcDbEntity
  8
0
100
AcDbText
 10
13.14800855692494
 20
126.7331716453695
 30
0.0
 40
3.5
  1
Do not cut polycarbonate (Lexan, CD's) as this seems to release phosgene gas which has unpleasant effects on people.  It also leaves a poor 
100
AcDbText
  0
TEXT
  5
19C
330
165
100
AcDbEntity
  8
0
100
AcDbText
 10
13.31467522359162
 20
120.8998383120362
 30
0.0
 40
3.5
  1
surface finish - use milling machine
100
AcDbText
  0
TEXT
  5
19D
330
165
100
AcDbEntity
  8
0
100
AcDbText
 10
13.14800855692494
 20
109.2331716453695
 30
0.0
 40
3.5
  1
If the honeycomb support grille retaining flaps are left up, this will jam the system and possibly cause motor damage. You will be billed.
100
AcDbText
  0
TEXT
  5
19E
330
165
100
AcDbEntity
  8
0
100
AcDbText
 10
13.14800855692494
 20
97.56650497870303
 30
0.0
 40
3.5
  1
Do not touch the optics.
100
AcDbText
  0
TEXT
  5
19F
330
165
100
AcDbEntity
  8
0
100
AcDbText
 10
13.14800855692494
 20
85.2331716453698
 30
0.0
 40
3.5
  1
Do not press hard on the honeycomb grille, it will break/warp.
100
AcDbText
  0
TEXT
  5
1A0
330
165
100
AcDbEntity
  8
0
100
AcDbText
 10
13.48134189025827
 20
67.7331716453698
 30
0.0
 40
3.5
  1
Toby Borland, MAGICbox, tobyborland@smartlab.uk.com
100
AcDbText
  0
ENDBLK
  5
1A1
330
165
100
AcDbEntity
  8
0
100
AcDbBlockEnd
  0
BLOCK
  5
1A3
330
1A2
100
AcDbEntity
  8
0
100
AcDbBlockBegin
  2
*U3
 70
     1
 10
0.0
 20
0.0
 30
0.0
  3
*U3
  1

  0
LINE
  5
1A4
330
1A2
100
AcDbEntity
  8
0
100
AcDbLine
 10
5.32014422617777
 20
2.800846517392709
 30
0.0
 11
80.36776327379682
 21
2.800846517392709
 31
0.0
  0
TEXT
  5
1A5
330
1A2
100
AcDbEntity
  8
0
100
AcDbText
 10
5.32014422617777
 20
3.600846517392709
 30
0.0
 40
4.0
  1
<-EPILOG LASER ORIGIN
100
AcDbText
  0
ENDBLK
  5
1A6
330
1A2
100
AcDbEntity
  8
0
100
AcDbBlockEnd
  0
ENDSEC
  0
SECTION
  2
ENTITIES
  0
POLYLINE
  5
1A7
330
156
100
AcDbEntity
  8
LASER_BED
  6
CONTINUOUS
100
AcDb2dPolyline
 66
     1
 10
0.0
 20
0.0
 30
0.0
 70
     1
  0
VERTEX
  5
D68
330
1A7
100
AcDbEntity
  8
LASER_BED
  6
CONTINUOUS
100
AcDbVertex
100
AcDb2dVertex
 10
0.0
 20
0.0
 30
0.0
  0
VERTEX
  5
D69
330
1A7
100
AcDbEntity
  8
LASER_BED
  6
CONTINUOUS
100
AcDbVertex
100
AcDb2dVertex
 10
0.0
 20
603.0
 30
0.0
  0
VERTEX
  5
D6A
330
1A7
100
AcDbEntity
  8
LASER_BED
  6
CONTINUOUS
100
AcDbVertex
100
AcDb2dVertex
 10
450.0
 20
603.0
 30
0.0
  0
VERTEX
  5
D6B
330
1A7
100
AcDbEntity
  8
LASER_BED
  6
CONTINUOUS
100
AcDbVertex
100
AcDb2dVertex
 10
450.0
 20
0.0
 30
0.0
  0
VERTEX
  5
D6C
330
1A7
100
AcDbEntity
  8
LASER_BED
  6
CONTINUOUS
100
AcDbVertex
100
AcDb2dVertex
 10
0.0
 20
0.0
 30
0.0
  0
SEQEND
  5
D6D
330
1A7
100
AcDbEntity
  8
LASER_BED
  6
CONTINUOUS
  0
POLYLINE
  5
1AE
330
156
100
AcDbEntity
  8
LASER_BED
  6
CONTINUOUS
100
AcDb2dPolyline
 66
     1
 10
0.0
 20
0.0
 30
0.0
 70
     1
  0
VERTEX
  5
D6E
330
1AE
100
AcDbEntity
  8
LASER_BED
  6
CONTINUOUS
100
AcDbVertex
100
AcDb2dVertex
 10
0.0
 20
0.0
 30
0.0
  0
VERTEX
  5
D6F
330
1AE
100
AcDbEntity
  8
LASER_BED
  6
CONTINUOUS
100
AcDbVertex
100
AcDb2dVertex
 10
0.0
 20
603.0
 30
0.0
  0
VERTEX
  5
D70
330
1AE
100
AcDbEntity
  8
LASER_BED
  6
CONTINUOUS
100
AcDbVertex
100
AcDb2dVertex
 10
603.0
 20
603.0
 30
0.0
  0
VERTEX
  5
D71
330
1AE
100
AcDbEntity
  8
LASER_BED
  6
CONTINUOUS
100
AcDbVertex
100
AcDb2dVertex
 10
603.0
 20
0.0
 30
0.0
  0
VERTEX
  5
D72
330
1AE
100
AcDbEntity
  8
LASER_BED
  6
CONTINUOUS
100
AcDbVertex
100
AcDb2dVertex
 10
0.0
 20
0.0
 30
0.0
  0
SEQEND
  5
D73
330
1AE
100
AcDbEntity
  8
LASER_BED
  6
CONTINUOUS
  0
INSERT
  5
1B5
330
156
100
AcDbEntity
  8
TEXT
100
AcDbBlockReference
  2
*U2
 10
0.0
 20
0.0
 30
0.0
  0
INSERT
  5
1B6
330
156
100
AcDbEntity
  8
TEXT
100
AcDbBlockReference
  2
*U3
 10
0.0
 20
0.0
 30
0.0
  0
LINE
  5
9D2
330
156
100
AcDbEntity
  8
FINAL
  6
CONTINUOUS
100
AcDbLine
 10
113.0363616873742
 20
50.54698755283459
 30
0.0
 11
120.2363616873742
 21
50.54698755283459
 31
0.0
  0
LINE
  5
9D3
330
156
100
AcDbEntity
  8
FINAL
  6
CONTINUOUS
100
AcDbLine
 10
117.7177622668386
 20
106.2669772786699
 30
0.0
 11
155.7177610449387
 21
106.2669772786699
 31
0.0
  0
CIRCLE
  5
9D4
330
156
100
AcDbEntity
  8
FINAL
  6
CONTINUOUS
100
AcDbCircle
 10
110.4358177812645
 20
79.54866303898251
 30
0.0
 40
6.0
  0
LINE
  5
9D5
330
156
100
AcDbEntity
  8
FINAL
  6
CONTINUOUS
100
AcDbLine
 10
101.0014552419242
 20
97.54698594350964
 30
0.0
 11
176.8712669407243
 21
97.54698594350964
 31
0.0
  0
LINE
  5
9D6
330
156
100
AcDbEntity
  8
FINAL
  6
CONTINUOUS
100
AcDbLine
 10
121.3177622668387
 20
102.2669772786699
 30
0.0
 11
142.9177622668386
 21
102.2669772786699
 31
0.0
  0
LINE
  5
9D7
330
156
100
AcDbEntity
  8
FINAL
  6
CONTINUOUS
100
AcDbLine
 10
117.7177622668386
 20
106.2669772786699
 30
0.0
 11
117.7177622668386
 21
98.66697727866995
 31
0.0
  0
LINE
  5
9D8
330
156
100
AcDbEntity
  8
FINAL
  6
CONTINUOUS
100
AcDbLine
 10
121.3177622668387
 20
98.66697727866995
 30
0.0
 11
121.3177622668387
 21
102.2669772786699
 31
0.0
  0
LINE
  5
9D9
330
156
100
AcDbEntity
  8
FINAL
  6
CONTINUOUS
100
AcDbLine
 10
117.7177622668386
 20
98.66697727866995
 30
0.0
 11
121.3177622668387
 21
98.66697727866995
 31
0.0
  0
LINE
  5
9DA
330
156
100
AcDbEntity
  8
FINAL
  6
CONTINUOUS
100
AcDbLine
 10
91.4363616873743
 20
80.54698501963462
 30
0.0
 11
91.4363616873743
 21
54.14698755283462
 31
0.0
  0
LINE
  5
9DB
330
156
100
AcDbEntity
  8
FINAL
  6
CONTINUOUS
100
AcDbLine
 10
102.2363616873742
 20
50.54698755283459
 30
0.0
 11
95.03636168737429
 21
50.54698755283459
 31
0.0
  0
LINE
  5
9DC
330
156
100
AcDbEntity
  8
FINAL
  6
CONTINUOUS
100
AcDbLine
 10
95.03636168737429
 20
50.54698755283459
 30
0.0
 11
95.03636168737429
 21
54.14698755283462
 31
0.0
  0
LINE
  5
9DD
330
156
100
AcDbEntity
  8
FINAL
  6
CONTINUOUS
100
AcDbLine
 10
95.03636168737429
 20
54.14698755283462
 30
0.0
 11
91.4363616873743
 21
54.14698755283462
 31
0.0
  0
LINE
  5
9DE
330
156
100
AcDbEntity
  8
FINAL
  6
CONTINUOUS
100
AcDbLine
 10
102.2363616873742
 20
54.14698755283462
 30
0.0
 11
113.0363616873742
 21
54.14698755283462
 31
0.0
  0
LINE
  5
9DF
330
156
100
AcDbEntity
  8
FINAL
  6
CONTINUOUS
100
AcDbLine
 10
102.2363616873742
 20
54.14698755283462
 30
0.0
 11
102.2363616873742
 21
50.54698755283459
 31
0.0
  0
LINE
  5
9E0
330
156
100
AcDbEntity
  8
FINAL
  6
CONTINUOUS
100
AcDbLine
 10
113.0363616873742
 20
54.14698755283462
 30
0.0
 11
113.0363616873742
 21
50.54698755283459
 31
0.0
  0
CIRCLE
  5
9E1
330
156
100
AcDbEntity
  8
FINAL
  6
CONTINUOUS
100
AcDbCircle
 10
105.4364209709119
 20
63.04311979249792
 30
0.0
 40
2.6
  0
CIRCLE
  5
9E2
330
156
100
AcDbEntity
  8
FINAL
  6
CONTINUOUS
100
AcDbCircle
 10
103.9380605628209
 20
89.54402212434672
 30
0.0
 40
2.6
  0
LINE
  5
9E3
330
156
100
AcDbEntity
  8
FINAL
  6
CONTINUOUS
100
AcDbLine
 10
91.4363616873743
 20
80.54698501963462
 30
0.0
 11
101.0014552419242
 21
97.54698594350964
 31
0.0
  0
LINE
  5
9E4
330
156
100
AcDbEntity
  8
FINAL
  6
CONTINUOUS
100
AcDbLine
 10
155.7177610449387
 20
127.4717446708448
 30
0.0
 11
155.7177610449387
 21
132.8629329932699
 31
0.0
  0
LINE
  5
9E5
330
156
100
AcDbEntity
  8
FINAL
  6
CONTINUOUS
100
AcDbLine
 10
191.7177632205137
 20
136.4629329932699
 30
0.0
 11
191.7177632205137
 21
127.4717446708448
 31
0.0
  0
LINE
  5
9E6
330
156
100
AcDbEntity
  8
FINAL
  6
CONTINUOUS
100
AcDbLine
 10
150.1177622668386
 20
102.2669772786699
 30
0.0
 11
187.0843884050655
 21
102.2669772786699
 31
0.0
  0
LINE
  5
9E7
330
156
100
AcDbEntity
  8
FINAL
  6
CONTINUOUS
100
AcDbLine
 10
180.9177632205137
 20
127.4717446708448
 30
0.0
 11
166.5177610449386
 21
127.4717446708448
 31
0.0
  0
LINE
  5
9E8
330
156
100
AcDbEntity
  8
FINAL
  6
CONTINUOUS
100
AcDbLine
 10
166.5177610449386
 20
123.8717446708447
 30
0.0
 11
180.9177632205137
 21
123.8717446708447
 31
0.0
  0
LINE
  5
9E9
330
156
100
AcDbEntity
  8
FINAL
  6
CONTINUOUS
100
AcDbLine
 10
155.7177610449387
 20
106.2669772786699
 30
0.0
 11
155.7177610449387
 21
112.6669758481699
 31
0.0
  0
LINE
  5
9EA
330
156
100
AcDbEntity
  8
FINAL
  6
CONTINUOUS
100
AcDbLine
 10
142.9177622668386
 20
98.66697727866995
 30
0.0
 11
150.1177622668386
 21
98.66697727866995
 31
0.0
  0
LINE
  5
9EB
330
156
100
AcDbEntity
  8
FINAL
  6
CONTINUOUS
100
AcDbLine
 10
142.9177622668386
 20
102.2669772786699
 30
0.0
 11
142.9177622668386
 21
98.66697727866995
 31
0.0
  0
LINE
  5
9EC
330
156
100
AcDbEntity
  8
FINAL
  6
CONTINUOUS
100
AcDbLine
 10
150.1177622668386
 20
98.66697727866995
 30
0.0
 11
150.1177622668386
 21
102.2669772786699
 31
0.0
  0
LINE
  5
9ED
330
156
100
AcDbEntity
  8
FINAL
  6
CONTINUOUS
100
AcDbLine
 10
159.3177610449386
 20
127.4717446708448
 30
0.0
 11
155.7177610449387
 21
127.4717446708448
 31
0.0
  0
LINE
  5
9EE
330
156
100
AcDbEntity
  8
FINAL
  6
CONTINUOUS
100
AcDbLine
 10
155.7177610449387
 20
112.6669758481699
 30
0.0
 11
159.3177610449386
 21
112.6669758481699
 31
0.0
  0
LINE
  5
9EF
330
156
100
AcDbEntity
  8
FINAL
  6
CONTINUOUS
100
AcDbLine
 10
159.3177610449386
 20
112.6669758481699
 30
0.0
 11
159.3177610449386
 21
127.4717446708448
 31
0.0
  0
LINE
  5
9F0
330
156
100
AcDbEntity
  8
FINAL
  6
CONTINUOUS
100
AcDbLine
 10
166.5177610449386
 20
127.4717446708448
 30
0.0
 11
166.5177610449386
 21
123.8717446708447
 31
0.0
  0
LINE
  5
9F1
330
156
100
AcDbEntity
  8
FINAL
  6
CONTINUOUS
100
AcDbLine
 10
191.7177632205137
 20
98.66697727866995
 30
0.0
 11
191.7177632205137
 21
112.6669758481699
 31
0.0
  0
LINE
  5
9F2
330
156
100
AcDbEntity
  8
FINAL
  6
CONTINUOUS
100
AcDbLine
 10
187.0843884050655
 20
98.66697727866995
 30
0.0
 11
191.7177632205137
 21
98.66697727866995
 31
0.0
  0
LINE
  5
9F3
330
156
100
AcDbEntity
  8
FINAL
  6
CONTINUOUS
100
AcDbLine
 10
187.0843884050655
 20
102.2669772786699
 30
0.0
 11
187.0843884050655
 21
98.66697727866995
 31
0.0
  0
LINE
  5
9F4
330
156
100
AcDbEntity
  8
FINAL
  6
CONTINUOUS
100
AcDbLine
 10
188.1177632205137
 20
112.6669758481699
 30
0.0
 11
188.1177632205137
 21
127.4717446708448
 31
0.0
  0
LINE
  5
9F5
330
156
100
AcDbEntity
  8
FINAL
  6
CONTINUOUS
100
AcDbLine
 10
191.7177632205137
 20
112.6669758481699
 30
0.0
 11
188.1177632205137
 21
112.6669758481699
 31
0.0
  0
LINE
  5
9F6
330
156
100
AcDbEntity
  8
FINAL
  6
CONTINUOUS
100
AcDbLine
 10
180.9177632205137
 20
123.8717446708447
 30
0.0
 11
180.9177632205137
 21
127.4717446708448
 31
0.0
  0
LINE
  5
9F7
330
156
100
AcDbEntity
  8
FINAL
  6
CONTINUOUS
100
AcDbLine
 10
188.1177632205137
 20
127.4717446708448
 30
0.0
 11
191.7177632205137
 21
127.4717446708448
 31
0.0
  0
LINE
  5
9F8
330
156
100
AcDbEntity
  8
FINAL
  6
CONTINUOUS
100
AcDbLine
 10
182.8363604952743
 20
68.53496016420013
 30
0.0
 11
182.8363604952743
 21
64.9349601642001
 31
0.0
  0
LINE
  5
9F9
330
156
100
AcDbEntity
  8
FINAL
  6
CONTINUOUS
100
AcDbLine
 10
165.4363626410493
 20
61.34748839065355
 30
0.0
 11
165.4363626410493
 21
71.55175494500946
 31
0.0
  0
LINE
  5
9FA
330
156
100
AcDbEntity
  8
FINAL
  6
CONTINUOUS
100
AcDbLine
 10
161.8363626410492
 20
71.55175494500946
 30
0.0
 11
161.8363626410492
 21
61.34748839065355
 31
0.0
  0
LINE
  5
9FB
330
156
100
AcDbEntity
  8
FINAL
  6
CONTINUOUS
100
AcDbLine
 10
133.0363604654742
 20
61.34748839065355
 30
0.0
 11
133.0363604654742
 21
71.24496541013463
 31
0.0
  0
LINE
  5
9FC
330
156
100
AcDbEntity
  8
FINAL
  6
CONTINUOUS
100
AcDbLine
 10
129.4363604654743
 20
71.24496541013463
 30
0.0
 11
129.4363604654743
 21
61.34748839065355
 31
0.0
  0
LINE
  5
9FD
330
156
100
AcDbEntity
  8
FINAL
  6
CONTINUOUS
100
AcDbLine
 10
166.5177610449386
 20
132.8629329932699
 30
0.0
 11
188.1177632205137
 21
132.8629329932699
 31
0.0
  0
LINE
  5
9FE
330
156
100
AcDbEntity
  8
FINAL
  6
CONTINUOUS
100
AcDbLine
 10
158.2363626410493
 20
50.54698755283459
 30
0.0
 11
150.1363615532618
 21
50.54698755283459
 31
0.0
  0
LINE
  5
9FF
330
156
100
AcDbEntity
  8
FINAL
  6
CONTINUOUS
100
AcDbLine
 10
155.7177610449387
 20
132.8629329932699
 30
0.0
 11
162.9177610449386
 21
132.8629329932699
 31
0.0
  0
LINE
  5
A00
330
156
100
AcDbEntity
  8
FINAL
  6
CONTINUOUS
100
AcDbLine
 10
162.9177610449387
 20
136.4629329932699
 30
0.0
 11
166.5177610449386
 21
136.4629329932699
 31
0.0
  0
LINE
  5
A01
330
156
100
AcDbEntity
  8
FINAL
  6
CONTINUOUS
100
AcDbLine
 10
162.9177610449386
 20
132.8629329932699
 30
0.0
 11
162.9177610449387
 21
136.4629329932699
 31
0.0
  0
LINE
  5
A02
330
156
100
AcDbEntity
  8
FINAL
  6
CONTINUOUS
100
AcDbLine
 10
166.5177610449386
 20
136.4629329932699
 30
0.0
 11
166.5177610449386
 21
132.8629329932699
 31
0.0
  0
LINE
  5
A03
330
156
100
AcDbEntity
  8
FINAL
  6
CONTINUOUS
100
AcDbLine
 10
129.4363604654743
 20
61.34748839065355
 30
0.0
 11
133.0363604654742
 21
61.34748839065355
 31
0.0
  0
LINE
  5
A04
330
156
100
AcDbEntity
  8
FINAL
  6
CONTINUOUS
100
AcDbLine
 10
136.6363604654742
 20
54.14698755283462
 30
0.0
 11
120.2363616873742
 21
54.14698755283462
 31
0.0
  0
LINE
  5
A05
330
156
100
AcDbEntity
  8
FINAL
  6
CONTINUOUS
100
AcDbLine
 10
120.2363616873742
 20
50.54698755283459
 30
0.0
 11
120.2363616873742
 21
54.14698755283462
 31
0.0
  0
CIRCLE
  5
A06
330
156
100
AcDbEntity
  8
FINAL
  6
CONTINUOUS
100
AcDbCircle
 10
117.9347281476095
 20
63.04311979249792
 30
0.0
 40
2.6
  0
LINE
  5
A07
330
156
100
AcDbEntity
  8
FINAL
  6
CONTINUOUS
100
AcDbLine
 10
144.7250280906903
 20
50.54698755283459
 30
0.0
 11
136.6363604654742
 21
50.54698755283459
 31
0.0
  0
LINE
  5
A08
330
156
100
AcDbEntity
  8
FINAL
  6
CONTINUOUS
100
AcDbLine
 10
136.6363604654742
 20
50.54698755283459
 30
0.0
 11
136.6363604654742
 21
54.14698755283462
 31
0.0
  0
LINE
  5
A09
330
156
100
AcDbEntity
  8
FINAL
  6
CONTINUOUS
100
AcDbLine
 10
144.7250280906903
 20
54.14698755283462
 30
0.0
 11
144.7250280906903
 21
50.54698755283459
 31
0.0
  0
LINE
  5
A0A
330
156
100
AcDbEntity
  8
FINAL
  6
CONTINUOUS
100
AcDbLine
 10
150.1363615532618
 20
50.54698755283459
 30
0.0
 11
150.1363615532618
 21
54.14698755283462
 31
0.0
  0
LINE
  5
A0B
330
156
100
AcDbEntity
  8
FINAL
  6
CONTINUOUS
100
AcDbLine
 10
150.1363615532618
 20
54.14698755283462
 30
0.0
 11
144.7250280906903
 21
54.14698755283462
 31
0.0
  0
LINE
  5
A0C
330
156
100
AcDbEntity
  8
FINAL
  6
CONTINUOUS
100
AcDbLine
 10
188.1177632205137
 20
136.4629329932699
 30
0.0
 11
191.7177632205137
 21
136.4629329932699
 31
0.0
  0
LINE
  5
A0D
330
156
100
AcDbEntity
  8
FINAL
  6
CONTINUOUS
100
AcDbLine
 10
188.1177632205137
 20
132.8629329932699
 30
0.0
 11
188.1177632205137
 21
136.4629329932699
 31
0.0
  0
LINE
  5
A0E
330
156
100
AcDbEntity
  8
FINAL
  6
CONTINUOUS
100
AcDbLine
 10
174.4363604952744
 20
54.14698755283462
 30
0.0
 11
158.2363626410493
 21
54.14698755283462
 31
0.0
  0
LINE
  5
A0F
330
156
100
AcDbEntity
  8
FINAL
  6
CONTINUOUS
100
AcDbLine
 10
158.2363626410493
 20
54.14698755283462
 30
0.0
 11
158.2363626410493
 21
50.54698755283459
 31
0.0
  0
LINE
  5
A10
330
156
100
AcDbEntity
  8
FINAL
  6
CONTINUOUS
100
AcDbLine
 10
161.8363626410492
 20
61.34748839065355
 30
0.0
 11
165.4363626410493
 21
61.34748839065355
 31
0.0
  0
LINE
  5
A11
330
156
100
AcDbEntity
  8
FINAL
  6
CONTINUOUS
100
AcDbLine
 10
186.4363604952741
 20
57.84097385851737
 30
0.0
 11
186.4363604952743
 21
54.14698755283462
 31
0.0
  0
LINE
  5
A12
330
156
100
AcDbEntity
  8
FINAL
  6
CONTINUOUS
100
AcDbLine
 10
179.4363604952742
 20
57.84097385851737
 30
0.0
 11
179.4363604952742
 21
56.54097385851736
 31
0.0
  0
LINE
  5
A13
330
156
100
AcDbEntity
  8
FINAL
  6
CONTINUOUS
100
AcDbLine
 10
182.8363604952743
 20
57.84097385851737
 30
0.0
 11
182.8363604952743
 21
56.54097385851736
 31
0.0
  0
LINE
  5
A14
330
156
100
AcDbEntity
  8
FINAL
  6
CONTINUOUS
100
AcDbLine
 10
182.8363604952743
 20
50.54698755283459
 30
0.0
 11
174.4363604952744
 21
50.54698755283459
 31
0.0
  0
LINE
  5
A15
330
156
100
AcDbEntity
  8
FINAL
  6
CONTINUOUS
100
AcDbLine
 10
174.4363604952744
 20
50.54698755283459
 30
0.0
 11
174.4363604952744
 21
54.14698755283462
 31
0.0
  0
LINE
  5
A16
330
156
100
AcDbEntity
  8
FINAL
  6
CONTINUOUS
100
AcDbLine
 10
182.8363604952743
 20
50.54698755283459
 30
0.0
 11
182.8363604952743
 21
54.14698755283462
 31
0.0
  0
LINE
  5
A17
330
156
100
AcDbEntity
  8
FINAL
  6
CONTINUOUS
100
AcDbLine
 10
182.8363604952743
 20
54.14698755283462
 30
0.0
 11
186.4363604952743
 21
54.14698755283462
 31
0.0
  0
LINE
  5
A18
330
156
100
AcDbEntity
  8
FINAL
  6
CONTINUOUS
100
AcDbLine
 10
179.4363604952742
 20
56.54097385851736
 30
0.0
 11
182.8363604952743
 21
56.54097385851736
 31
0.0
  0
LINE
  5
A19
330
156
100
AcDbEntity
  8
FINAL
  6
CONTINUOUS
100
AcDbLine
 10
174.4363604952744
 20
57.84097385851737
 30
0.0
 11
179.4363604952742
 21
57.84097385851737
 31
0.0
  0
LINE
  5
A1A
330
156
100
AcDbEntity
  8
FINAL
  6
CONTINUOUS
100
AcDbLine
 10
174.4363604952744
 20
61.24097385851735
 30
0.0
 11
179.4363604952742
 21
61.24097385851735
 31
0.0
  0
LINE
  5
A1B
330
156
100
AcDbEntity
  8
FINAL
  6
CONTINUOUS
100
AcDbLine
 10
174.4363604952744
 20
61.24097385851735
 30
0.0
 11
174.4363604952744
 21
57.84097385851737
 31
0.0
  0
LINE
  5
A1C
330
156
100
AcDbEntity
  8
FINAL
  6
CONTINUOUS
100
AcDbLine
 10
182.8363604952743
 20
61.24097385851735
 30
0.0
 11
182.8363604952743
 21
62.54097385851736
 31
0.0
  0
LINE
  5
A1D
330
156
100
AcDbEntity
  8
FINAL
  6
CONTINUOUS
100
AcDbLine
 10
186.4363604952743
 20
64.94748839065358
 30
0.0
 11
186.4363604952743
 21
61.24097385851735
 31
0.0
  0
LINE
  5
A1E
330
156
100
AcDbEntity
  8
FINAL
  6
CONTINUOUS
100
AcDbLine
 10
179.4363604952742
 20
61.24097385851735
 30
0.0
 11
179.4363604952742
 21
62.54097385851736
 31
0.0
  0
LINE
  5
A1F
330
156
100
AcDbEntity
  8
FINAL
  6
CONTINUOUS
100
AcDbLine
 10
182.8363604952743
 20
57.84097385851737
 30
0.0
 11
186.4363604952741
 21
57.84097385851737
 31
0.0
  0
LINE
  5
A20
330
156
100
AcDbEntity
  8
FINAL
  6
CONTINUOUS
100
AcDbLine
 10
182.8363604952743
 20
61.24097385851735
 30
0.0
 11
186.4363604952743
 21
61.24097385851735
 31
0.0
  0
LINE
  5
A21
330
156
100
AcDbEntity
  8
FINAL
  6
CONTINUOUS
100
AcDbLine
 10
182.8363604952743
 20
64.9349601642001
 30
0.0
 11
186.4363604952743
 21
64.94748839065358
 31
0.0
  0
LINE
  5
A22
330
156
100
AcDbEntity
  8
FINAL
  6
CONTINUOUS
100
AcDbLine
 10
179.4363604952742
 20
62.54097385851736
 30
0.0
 11
182.8363604952743
 21
62.54097385851736
 31
0.0
  0
LINE
  5
A23
330
156
100
AcDbEntity
  8
FINAL
  6
CONTINUOUS
100
AcDbLine
 10
158.2363626410493
 20
88.34294326743464
 30
0.0
 11
136.6363604654742
 21
88.34294326743464
 31
0.0
  0
LINE
  5
A24
330
156
100
AcDbEntity
  8
FINAL
  6
CONTINUOUS
100
AcDbLine
 10
136.6363604654742
 20
84.74294326743461
 30
0.0
 11
158.2363626410493
 21
84.74294326743461
 31
0.0
  0
LINE
  5
A25
330
156
100
AcDbEntity
  8
FINAL
  6
CONTINUOUS
100
AcDbLine
 10
154.6363626410492
 20
79.35091116169388
 30
0.0
 11
140.2363604654742
 21
79.35091116169388
 31
0.0
  0
LINE
  5
A26
330
156
100
AcDbEntity
  8
FINAL
  6
CONTINUOUS
100
AcDbLine
 10
140.2363604654742
 20
75.75091116169392
 30
0.0
 11
154.6363626410492
 21
75.75091116169392
 31
0.0
  0
CIRCLE
  5
A27
330
156
100
AcDbEntity
  8
FINAL
  6
CONTINUOUS
100
AcDbCircle
 10
116.939077911693
 20
89.54402212434672
 30
0.0
 40
2.6
  0
LINE
  5
A28
330
156
100
AcDbEntity
  8
FINAL
  6
CONTINUOUS
100
AcDbLine
 10
136.6363604654742
 20
88.34294326743464
 30
0.0
 11
136.6363604654742
 21
84.74294326743461
 31
0.0
  0
LINE
  5
A29
330
156
100
AcDbEntity
  8
FINAL
  6
CONTINUOUS
100
AcDbLine
 10
129.4363604654743
 20
84.74294326743461
 30
0.0
 11
133.0363604654742
 21
84.74294326743461
 31
0.0
  0
LINE
  5
A2A
330
156
100
AcDbEntity
  8
FINAL
  6
CONTINUOUS
100
AcDbLine
 10
129.4363604654743
 20
71.55175494500946
 30
0.0
 11
133.0363604654742
 21
71.55175494500946
 31
0.0
  0
LINE
  5
A2B
330
156
100
AcDbEntity
  8
FINAL
  6
CONTINUOUS
100
AcDbLine
 10
129.4363604654743
 20
79.35091116169388
 30
0.0
 11
133.0363604654742
 21
79.35091116169388
 31
0.0
  0
LINE
  5
A2C
330
156
100
AcDbEntity
  8
FINAL
  6
CONTINUOUS
100
AcDbLine
 10
129.4363604654743
 20
84.74294326743461
 30
0.0
 11
129.4363604654743
 21
79.35091116169388
 31
0.0
  0
LINE
  5
A2D
330
156
100
AcDbEntity
  8
FINAL
  6
CONTINUOUS
100
AcDbLine
 10
140.2363604654742
 20
79.35091116169388
 30
0.0
 11
140.2363604654742
 21
75.75091116169392
 31
0.0
  0
LINE
  5
A2E
330
156
100
AcDbEntity
  8
FINAL
  6
CONTINUOUS
100
AcDbLine
 10
133.0363604654742
 20
79.35091116169388
 30
0.0
 11
133.0363604654742
 21
84.74294326743461
 31
0.0
  0
LINE
  5
A2F
330
156
100
AcDbEntity
  8
FINAL
  6
CONTINUOUS
100
AcDbLine
 10
176.8712669407243
 20
97.54698594350964
 30
0.0
 11
186.4363604952743
 21
80.54698501963462
 31
0.0
  0
LINE
  5
A30
330
156
100
AcDbEntity
  8
FINAL
  6
CONTINUOUS
100
AcDbLine
 10
158.2363626410493
 20
84.74294326743461
 30
0.0
 11
158.2363626410493
 21
88.34294326743464
 31
0.0
  0
LINE
  5
A31
330
156
100
AcDbEntity
  8
FINAL
  6
CONTINUOUS
100
AcDbLine
 10
154.6363626410492
 20
75.75091116169392
 30
0.0
 11
154.6363626410492
 21
79.35091116169388
 31
0.0
  0
LINE
  5
A32
330
156
100
AcDbEntity
  8
FINAL
  6
CONTINUOUS
100
AcDbLine
 10
165.4363626410493
 20
71.55175494500946
 30
0.0
 11
161.8363626410492
 21
71.55175494500946
 31
0.0
  0
LINE
  5
A33
330
156
100
AcDbEntity
  8
FINAL
  6
CONTINUOUS
100
AcDbLine
 10
165.4363626410493
 20
79.35091116169388
 30
0.0
 11
165.4363626410493
 21
84.74294326743461
 31
0.0
  0
LINE
  5
A34
330
156
100
AcDbEntity
  8
FINAL
  6
CONTINUOUS
100
AcDbLine
 10
161.8363626410492
 20
84.74294326743461
 30
0.0
 11
161.8363626410492
 21
79.35091116169388
 31
0.0
  0
LINE
  5
A35
330
156
100
AcDbEntity
  8
FINAL
  6
CONTINUOUS
100
AcDbLine
 10
161.8363626410492
 20
79.35091116169388
 30
0.0
 11
165.4363626410493
 21
79.35091116169388
 31
0.0
  0
LINE
  5
A36
330
156
100
AcDbEntity
  8
FINAL
  6
CONTINUOUS
100
AcDbLine
 10
161.8363626410492
 20
84.74294326743461
 30
0.0
 11
165.4363626410493
 21
84.74294326743461
 31
0.0
  0
LINE
  5
A37
330
156
100
AcDbEntity
  8
FINAL
  6
CONTINUOUS
100
AcDbLine
 10
186.4363604952743
 20
80.54698501963462
 30
0.0
 11
186.4363604952743
 21
68.53496016420013
 31
0.0
  0
LINE
  5
A38
330
156
100
AcDbEntity
  8
FINAL
  6
CONTINUOUS
100
AcDbLine
 10
186.4363604952743
 20
68.53496016420013
 30
0.0
 11
182.8363604952743
 21
68.53496016420013
 31
0.0
  0
CIRCLE
  5
A39
330
156
100
AcDbEntity
  8
FINAL
  6
CONTINUOUS
100
AcDbCircle
 10
24.51523068754933
 20
24.48423255880856
 30
0.0
 40
2.6
  0
CIRCLE
  5
A3A
330
156
100
AcDbEntity
  8
FINAL
  6
CONTINUOUS
100
AcDbCircle
 10
68.09945560390332
 20
24.48423255880854
 30
0.0
 40
2.6
  0
LINE
  5
A3B
330
156
100
AcDbEntity
  8
FINAL
  6
CONTINUOUS
100
AcDbLine
 10
15.16048569608273
 20
32.79151916847036
 30
0.0
 11
15.16048569608273
 21
25.59151916847037
 31
0.0
  0
LINE
  5
A3C
330
156
100
AcDbEntity
  8
FINAL
  6
CONTINUOUS
100
AcDbLine
 10
18.7604856960827
 20
25.59151916847037
 30
0.0
 11
18.7604856960827
 21
32.79151916847036
 31
0.0
  0
LINE
  5
A3D
330
156
100
AcDbEntity
  8
FINAL
  6
CONTINUOUS
100
AcDbLine
 10
73.85420059537013
 20
32.79151916847034
 30
0.0
 11
73.85420059537011
 21
25.59151916847034
 31
0.0
  0
LINE
  5
A3E
330
156
100
AcDbEntity
  8
FINAL
  6
CONTINUOUS
100
AcDbLine
 10
77.45420059536991
 20
25.59151916847034
 30
0.0
 11
77.45420059536993
 21
32.79151916847033
 31
0.0
  0
LINE
  5
A3F
330
156
100
AcDbEntity
  8
FINAL
  6
CONTINUOUS
100
AcDbLine
 10
78.88241938077186
 20
49.19373655372737
 30
0.0
 11
78.8891658983652
 21
3.991519168470375
 31
0.0
  0
LINE
  5
A40
330
156
100
AcDbEntity
  8
FINAL
  6
CONTINUOUS
100
AcDbLine
 10
13.73916201811516
 20
3.991519168470404
 30
0.0
 11
13.73916201811518
 21
49.19151794657039
 31
0.0
  0
CIRCLE
  5
A41
330
156
100
AcDbEntity
  8
FINAL
  6
CONTINUOUS
100
AcDbCircle
 10
24.54129784218151
 20
11.47525357816888
 30
0.0
 40
2.6
  0
LINE
  5
A42
330
156
100
AcDbEntity
  8
FINAL
  6
CONTINUOUS
100
AcDbLine
 10
78.8891658983652
 20
3.991519168470375
 30
0.0
 11
13.73916201811516
 21
3.991519168470404
 31
0.0
  0
CIRCLE
  5
A47
330
156
100
AcDbEntity
  8
FINAL
  6
CONTINUOUS
100
AcDbCircle
 10
68.07338844927119
 20
11.47525357816887
 30
0.0
 40
2.6
  0
LINE
  5
A48
330
156
100
AcDbEntity
  8
FINAL
  6
CONTINUOUS
100
AcDbLine
 10
77.45420059536991
 20
14.79151916847035
 30
0.0
 11
77.45420059537003
 21
7.59151916847037
 31
0.0
  0
LINE
  5
A49
330
156
100
AcDbEntity
  8
FINAL
  6
CONTINUOUS
100
AcDbLine
 10
73.85420059536989
 20
7.591519168470384
 30
0.0
 11
73.85420059537
 21
14.79151916847037
 31
0.0
  0
LINE
  5
A4A
330
156
100
AcDbEntity
  8
FINAL
  6
CONTINUOUS
100
AcDbLine
 10
77.45420059537003
 20
7.59151916847037
 30
0.0
 11
73.85420059536989
 21
7.591519168470384
 31
0.0
  0
LINE
  5
A4B
330
156
100
AcDbEntity
  8
FINAL
  6
CONTINUOUS
100
AcDbLine
 10
73.85420059537011
 20
25.59151916847034
 30
0.0
 11
77.45420059536991
 21
25.59151916847034
 31
0.0
  0
LINE
  5
A4C
330
156
100
AcDbEntity
  8
FINAL
  6
CONTINUOUS
100
AcDbLine
 10
73.85420059537
 20
14.79151916847037
 30
0.0
 11
77.45420059536991
 21
14.79151916847035
 31
0.0
  0
CIRCLE
  5
A51
330
156
100
AcDbEntity
  8
FINAL
  6
CONTINUOUS
100
AcDbCircle
 10
46.30734314572634
 20
10.24651654028257
 30
0.0
 40
2.6
  0
LINE
  5
A52
330
156
100
AcDbEntity
  8
FINAL
  6
CONTINUOUS
100
AcDbLine
 10
60.49945560390336
 20
7.591519168470384
 30
0.0
 11
64.09945560390332
 21
7.591519168470384
 31
0.0
  0
LINE
  5
A53
330
156
100
AcDbEntity
  8
FINAL
  6
CONTINUOUS
100
AcDbLine
 10
64.09945560390332
 20
7.591519168470384
 30
0.0
 11
64.09945560390332
 21
3.991519168470389
 31
0.0
  0
LINE
  5
A54
330
156
100
AcDbEntity
  8
FINAL
  6
CONTINUOUS
100
AcDbLine
 10
60.49945560390336
 20
3.991519168470389
 30
0.0
 11
60.49945560390336
 21
7.591519168470384
 31
0.0
  0
LINE
  5
A55
330
156
100
AcDbEntity
  8
FINAL
  6
CONTINUOUS
100
AcDbLine
 10
32.11523068754935
 20
7.591519168470398
 30
0.0
 11
28.51523068754932
 21
7.591519168470398
 31
0.0
  0
LINE
  5
A56
330
156
100
AcDbEntity
  8
FINAL
  6
CONTINUOUS
100
AcDbLine
 10
32.11523068754934
 20
3.991519168470404
 30
0.0
 11
32.11523068754935
 21
7.591519168470398
 31
0.0
  0
LINE
  5
A57
330
156
100
AcDbEntity
  8
FINAL
  6
CONTINUOUS
100
AcDbLine
 10
28.51523068754932
 20
7.591519168470398
 30
0.0
 11
28.51523068754932
 21
3.991519168470404
 31
0.0
  0
LINE
  5
A61
330
156
100
AcDbEntity
  8
FINAL
  6
CONTINUOUS
100
AcDbLine
 10
15.16048569608273
 20
14.79151916847038
 30
0.0
 11
15.16048569608273
 21
7.591519168470398
 31
0.0
  0
LINE
  5
A62
330
156
100
AcDbEntity
  8
FINAL
  6
CONTINUOUS
100
AcDbLine
 10
18.7604856960827
 20
7.591519168470398
 30
0.0
 11
18.7604856960827
 21
14.79151916847038
 31
0.0
  0
LINE
  5
A63
330
156
100
AcDbEntity
  8
FINAL
  6
CONTINUOUS
100
AcDbLine
 10
15.16048569608273
 20
7.591519168470398
 30
0.0
 11
18.7604856960827
 21
7.591519168470398
 31
0.0
  0
LINE
  5
A64
330
156
100
AcDbEntity
  8
FINAL
  6
CONTINUOUS
100
AcDbLine
 10
15.16048569608273
 20
25.59151916847037
 30
0.0
 11
18.7604856960827
 21
25.59151916847037
 31
0.0
  0
LINE
  5
A65
330
156
100
AcDbEntity
  8
FINAL
  6
CONTINUOUS
100
AcDbLine
 10
18.7604856960827
 20
14.79151916847038
 30
0.0
 11
15.16048569608273
 21
14.79151916847038
 31
0.0
  0
LINE
  5
A66
330
156
100
AcDbEntity
  8
FINAL
  6
CONTINUOUS
100
AcDbLine
 10
22.76048569608272
 20
98.9915179763704
 30
0.0
 11
69.85420059537003
 21
98.9915179763704
 31
0.0
  0
LINE
  5
A67
330
156
100
AcDbEntity
  8
FINAL
  6
CONTINUOUS
100
AcDbLine
 10
28.51523068754934
 20
77.99152012214538
 30
0.0
 11
18.76048569608272
 21
77.9915201221454
 31
0.0
  0
LINE
  5
A68
330
156
100
AcDbEntity
  8
FINAL
  6
CONTINUOUS
100
AcDbLine
 10
18.76048569608272
 20
74.39152012214538
 30
0.0
 11
28.51523068754934
 21
74.39152012214538
 31
0.0
  0
LINE
  5
A69
330
156
100
AcDbEntity
  8
FINAL
  6
CONTINUOUS
100
AcDbLine
 10
18.76048569608271
 20
41.9915179465704
 30
0.0
 11
28.51523068754934
 21
41.9915179465704
 31
0.0
  0
LINE
  5
A6A
330
156
100
AcDbEntity
  8
FINAL
  6
CONTINUOUS
100
AcDbLine
 10
28.51523068754934
 20
45.59151794657039
 30
0.0
 11
18.76048569608271
 21
45.59151794657039
 31
0.0
  0
LINE
  5
A6B
330
156
100
AcDbEntity
  8
FINAL
  6
CONTINUOUS
100
AcDbLine
 10
73.8542005953699
 20
41.99151794657038
 30
0.0
 11
64.09945560390333
 21
41.99151794657038
 31
0.0
  0
LINE
  5
A6C
330
156
100
AcDbEntity
  8
FINAL
  6
CONTINUOUS
100
AcDbLine
 10
64.09945560390333
 20
45.59151794657037
 30
0.0
 11
73.8542005953699
 21
45.59151794657037
 31
0.0
  0
LINE
  5
A6D
330
156
100
AcDbEntity
  8
FINAL
  6
CONTINUOUS
100
AcDbLine
 10
64.0994556039034
 20
77.99152012214538
 30
0.0
 11
73.85420059536997
 21
77.99152012214538
 31
0.0
  0
LINE
  5
A6E
330
156
100
AcDbEntity
  8
FINAL
  6
CONTINUOUS
100
AcDbLine
 10
73.85420059536997
 20
74.39152012214538
 30
0.0
 11
64.0994556039034
 21
74.39152012214538
 31
0.0
  0
LINE
  5
A6F
330
156
100
AcDbEntity
  8
FINAL
  6
CONTINUOUS
100
AcDbLine
 10
77.45420059536994
 20
62.6915190343579
 30
0.0
 11
77.45420059536994
 21
70.79152012214539
 31
0.0
  0
LINE
  5
A70
330
156
100
AcDbEntity
  8
FINAL
  6
CONTINUOUS
100
AcDbLine
 10
73.85420059536992
 20
70.79152012214539
 30
0.0
 11
73.85420059536992
 21
62.6915190343579
 31
0.0
  0
LINE
  5
A71
330
156
100
AcDbEntity
  8
FINAL
  6
CONTINUOUS
100
AcDbLine
 10
78.87552427333744
 20
67.19152012214539
 30
0.0
 11
86.67536472234568
 21
61.87438712114374
 31
0.0
  0
ARC
  5
A72
330
156
100
AcDbEntity
  8
FINAL
  6
CONTINUOUS
100
AcDbCircle
 10
83.29575166499816
 20
56.91674498171835
 30
0.0
 40
6.000000000000001
100
AcDbArc
 50
287.8363800467926
 51
55.71783717097504
  0
LINE
  5
A73
330
156
100
AcDbEntity
  8
FINAL
  6
CONTINUOUS
100
AcDbLine
 10
73.8542005953699
 20
45.59151794657037
 30
0.0
 11
73.8542005953699
 21
41.99151794657038
 31
0.0
  0
LINE
  5
A74
330
156
100
AcDbEntity
  8
FINAL
  6
CONTINUOUS
100
AcDbLine
 10
77.45420059536993
 20
32.79151916847033
 30
0.0
 11
73.85420059537013
 21
32.79151916847034
 31
0.0
  0
CIRCLE
  5
A75
330
156
100
AcDbEntity
  8
FINAL
  6
CONTINUOUS
100
AcDbCircle
 10
69.8542005953699
 20
36.44252553845558
 30
0.0
 40
2.6
  0
LINE
  5
A76
330
156
100
AcDbEntity
  8
FINAL
  6
CONTINUOUS
100
AcDbLine
 10
73.85420059536992
 20
49.19151794657037
 30
0.0
 11
77.45420059536994
 21
49.19151794657037
 31
0.0
  0
LINE
  5
A77
330
156
100
AcDbEntity
  8
FINAL
  6
CONTINUOUS
100
AcDbLine
 10
77.45420059536994
 20
57.28018557178643
 30
0.0
 11
73.85420059536992
 21
57.2801855717864
 31
0.0
  0
LINE
  5
A78
330
156
100
AcDbEntity
  8
FINAL
  6
CONTINUOUS
100
AcDbLine
 10
73.85420059536992
 20
62.6915190343579
 30
0.0
 11
77.45420059536994
 21
62.6915190343579
 31
0.0
  0
LINE
  5
A79
330
156
100
AcDbEntity
  8
FINAL
  6
CONTINUOUS
100
AcDbLine
 10
77.45420059536994
 20
49.19151794657037
 30
0.0
 11
77.45420059536994
 21
57.28018557178643
 31
0.0
  0
LINE
  5
A7A
330
156
100
AcDbEntity
  8
FINAL
  6
CONTINUOUS
100
AcDbLine
 10
78.87552427333742
 20
49.19151794657037
 30
0.0
 11
85.13355046127728
 21
51.20513438711412
 31
0.0
  0
CIRCLE
  5
A7B
330
156
100
AcDbEntity
  8
FINAL
  6
CONTINUOUS
100
AcDbCircle
 10
83.30177117569546
 20
56.91422975762361
 30
0.0
 40
2.6
  0
LINE
  5
A7C
330
156
100
AcDbEntity
  8
FINAL
  6
CONTINUOUS
100
AcDbLine
 10
73.85420059536992
 20
57.2801855717864
 30
0.0
 11
73.85420059536992
 21
49.19151794657037
 31
0.0
  0
CIRCLE
  5
A7D
330
156
100
AcDbEntity
  8
FINAL
  6
CONTINUOUS
100
AcDbCircle
 10
69.85685982558303
 20
83.54607150663154
 30
0.0
 40
2.6
  0
LINE
  5
A7E
330
156
100
AcDbEntity
  8
FINAL
  6
CONTINUOUS
100
AcDbLine
 10
78.87552427333756
 20
95.39151797637041
 30
0.0
 11
78.87552427333744
 21
67.19152012214539
 31
0.0
  0
LINE
  5
A7F
330
156
100
AcDbEntity
  8
FINAL
  6
CONTINUOUS
100
AcDbLine
 10
77.45420059536994
 20
70.79152012214539
 30
0.0
 11
73.85420059536992
 21
70.79152012214539
 31
0.0
  0
LINE
  5
A80
330
156
100
AcDbEntity
  8
FINAL
  6
CONTINUOUS
100
AcDbLine
 10
73.85420059536997
 20
77.99152012214538
 30
0.0
 11
73.85420059536992
 21
74.39152012214538
 31
0.0
  0
LINE
  5
A81
330
156
100
AcDbEntity
  8
FINAL
  6
CONTINUOUS
100
AcDbLine
 10
77.45420059537057
 20
86.99151797637048
 30
0.0
 11
73.85420059537003
 21
86.99151797637048
 31
0.0
  0
LINE
  5
A82
330
156
100
AcDbEntity
  8
FINAL
  6
CONTINUOUS
100
AcDbLine
 10
77.45420059537057
 20
95.39151797637041
 30
0.0
 11
77.45420059537057
 21
86.99151797637048
 31
0.0
  0
LINE
  5
A83
330
156
100
AcDbEntity
  8
FINAL
  6
CONTINUOUS
100
AcDbLine
 10
78.87552427333756
 20
95.39151797637041
 30
0.0
 11
77.45420059537057
 21
95.39151797637041
 31
0.0
  0
LINE
  5
A84
330
156
100
AcDbEntity
  8
FINAL
  6
CONTINUOUS
100
AcDbLine
 10
73.85420059537003
 20
86.99151797637048
 30
0.0
 11
73.85420059537003
 21
95.39151797637041
 31
0.0
  0
LINE
  5
A85
330
156
100
AcDbEntity
  8
FINAL
  6
CONTINUOUS
100
AcDbLine
 10
73.85420059537003
 20
95.39151797637041
 30
0.0
 11
69.85420059537003
 21
95.39151797637041
 31
0.0
  0
LINE
  5
A86
330
156
100
AcDbEntity
  8
FINAL
  6
CONTINUOUS
100
AcDbLine
 10
69.85420059537003
 20
95.39151797637041
 30
0.0
 11
69.85420059537003
 21
98.9915179763704
 31
0.0
  0
CIRCLE
  5
A87
330
156
100
AcDbEntity
  8
FINAL
  6
CONTINUOUS
100
AcDbCircle
 10
46.30734314572637
 20
59.98526439140983
 30
0.0
 40
19.49999999999998
  0
LINE
  5
A88
330
156
100
AcDbEntity
  8
FINAL
  6
CONTINUOUS
100
AcDbLine
 10
64.09945560390333
 20
41.99151794657038
 30
0.0
 11
64.09945560390333
 21
45.59151794657037
 31
0.0
  0
LINE
  5
A89
330
156
100
AcDbEntity
  8
FINAL
  6
CONTINUOUS
100
AcDbLine
 10
60.49945560390337
 20
36.39151916847033
 30
0.0
 11
60.49945560390337
 21
29.19151916847035
 31
0.0
  0
LINE
  5
A8A
330
156
100
AcDbEntity
  8
FINAL
  6
CONTINUOUS
100
AcDbLine
 10
64.09945560390333
 20
29.19151916847035
 30
0.0
 11
64.09945560390333
 21
36.39151916847033
 31
0.0
  0
LINE
  5
A8B
330
156
100
AcDbEntity
  8
FINAL
  6
CONTINUOUS
100
AcDbLine
 10
60.49945560390337
 20
29.19151916847035
 30
0.0
 11
64.09945560390333
 21
29.19151916847035
 31
0.0
  0
LINE
  5
A8C
330
156
100
AcDbEntity
  8
FINAL
  6
CONTINUOUS
100
AcDbLine
 10
64.09945560390333
 20
36.39151916847033
 30
0.0
 11
60.49945560390337
 21
36.39151916847033
 31
0.0
  0
LINE
  5
A8D
330
156
100
AcDbEntity
  8
FINAL
  6
CONTINUOUS
100
AcDbLine
 10
28.51523068754934
 20
41.9915179465704
 30
0.0
 11
28.51523068754934
 21
45.59151794657039
 31
0.0
  0
LINE
  5
A8E
330
156
100
AcDbEntity
  8
FINAL
  6
CONTINUOUS
100
AcDbLine
 10
28.51523068754932
 20
29.19151916847036
 30
0.0
 11
28.51523068754932
 21
36.39151916847035
 31
0.0
  0
LINE
  5
A8F
330
156
100
AcDbEntity
  8
FINAL
  6
CONTINUOUS
100
AcDbLine
 10
32.11523068754935
 20
36.39151916847035
 30
0.0
 11
32.11523068754935
 21
29.19151916847036
 31
0.0
  0
LINE
  5
A90
330
156
100
AcDbEntity
  8
FINAL
  6
CONTINUOUS
100
AcDbLine
 10
32.11523068754935
 20
29.19151916847036
 30
0.0
 11
28.51523068754932
 21
29.19151916847036
 31
0.0
  0
LINE
  5
A91
330
156
100
AcDbEntity
  8
FINAL
  6
CONTINUOUS
100
AcDbLine
 10
28.51523068754932
 20
36.39151916847035
 30
0.0
 11
32.11523068754935
 21
36.39151916847035
 31
0.0
  0
LINE
  5
A92
330
156
100
AcDbEntity
  8
FINAL
  6
CONTINUOUS
100
AcDbLine
 10
64.0994556039034
 20
77.99152012214538
 30
0.0
 11
60.49945560390338
 21
77.99152012214538
 31
0.0
  0
LINE
  5
A93
330
156
100
AcDbEntity
  8
FINAL
  6
CONTINUOUS
100
AcDbLine
 10
60.49945560390338
 20
73.35814530669719
 30
0.0
 11
64.0994556039034
 21
73.35814530669725
 31
0.0
  0
LINE
  5
A94
330
156
100
AcDbEntity
  8
FINAL
  6
CONTINUOUS
100
AcDbLine
 10
64.0994556039034
 20
73.35814530669725
 30
0.0
 11
64.0994556039034
 21
77.99152012214538
 31
0.0
  0
LINE
  5
A95
330
156
100
AcDbEntity
  8
FINAL
  6
CONTINUOUS
100
AcDbLine
 10
64.0994556039034
 20
74.39152012214538
 30
0.0
 11
64.0994556039034
 21
77.99152012214538
 31
0.0
  0
LINE
  5
A96
330
156
100
AcDbEntity
  8
FINAL
  6
CONTINUOUS
100
AcDbLine
 10
60.49945560390338
 20
77.99152012214538
 30
0.0
 11
60.49945560390338
 21
73.35814530669719
 31
0.0
  0
LINE
  5
A97
330
156
100
AcDbEntity
  8
FINAL
  6
CONTINUOUS
100
AcDbLine
 10
32.11523068754937
 20
73.35814530669719
 30
0.0
 11
28.51523068754934
 21
73.35814530669725
 31
0.0
  0
LINE
  5
A98
330
156
100
AcDbEntity
  8
FINAL
  6
CONTINUOUS
100
AcDbLine
 10
28.51523068754934
 20
77.99152012214538
 30
0.0
 11
32.11523068754937
 21
77.99152012214538
 31
0.0
  0
LINE
  5
A99
330
156
100
AcDbEntity
  8
FINAL
  6
CONTINUOUS
100
AcDbLine
 10
32.11523068754937
 20
77.99152012214538
 30
0.0
 11
32.11523068754937
 21
73.35814530669719
 31
0.0
  0
LINE
  5
A9A
330
156
100
AcDbEntity
  8
FINAL
  6
CONTINUOUS
100
AcDbLine
 10
28.51523068754934
 20
74.39152012214538
 30
0.0
 11
28.51523068754934
 21
77.99152012214538
 31
0.0
  0
LINE
  5
A9B
330
156
100
AcDbEntity
  8
FINAL
  6
CONTINUOUS
100
AcDbLine
 10
28.51523068754934
 20
73.35814530669725
 30
0.0
 11
28.51523068754934
 21
77.99152012214538
 31
0.0
  0
LINE
  5
A9C
330
156
100
AcDbEntity
  8
FINAL
  6
CONTINUOUS
100
AcDbLine
 10
28.51523068754934
 20
74.39152012214538
 30
0.0
 11
28.51523068754934
 21
77.99152012214538
 31
0.0
  0
LINE
  5
A9D
330
156
100
AcDbEntity
  8
FINAL
  6
CONTINUOUS
100
AcDbLine
 10
13.73916201811519
 20
67.19152012214539
 30
0.0
 11
5.939321569107079
 21
61.87438712114374
 31
0.0
  0
LINE
  5
A9E
330
156
100
AcDbEntity
  8
FINAL
  6
CONTINUOUS
100
AcDbLine
 10
18.76048569608272
 20
70.79152012214541
 30
0.0
 11
18.76048569608278
 21
62.6915190343579
 31
0.0
  0
LINE
  5
A9F
330
156
100
AcDbEntity
  8
FINAL
  6
CONTINUOUS
100
AcDbLine
 10
15.16048569608275
 20
62.6915190343579
 30
0.0
 11
15.16048569608275
 21
70.79152012214541
 31
0.0
  0
ARC
  5
AA0
330
156
100
AcDbEntity
  8
FINAL
  6
CONTINUOUS
100
AcDbCircle
 10
9.31893462645452
 20
56.91674498171835
 30
0.0
 40
6.000000000000001
100
AcDbArc
 50
124.2821628290249
 51
252.1636199532073
  0
LINE
  5
AA1
330
156
100
AcDbEntity
  8
FINAL
  6
CONTINUOUS
100
AcDbLine
 10
18.76048569608271
 20
45.59151794657039
 30
0.0
 11
18.76048569608271
 21
41.9915179465704
 31
0.0
  0
LINE
  5
AA2
330
156
100
AcDbEntity
  8
FINAL
  6
CONTINUOUS
100
AcDbLine
 10
18.7604856960827
 20
32.79151916847036
 30
0.0
 11
15.16048569608273
 21
32.79151916847036
 31
0.0
  0
CIRCLE
  5
AA3
330
156
100
AcDbEntity
  8
FINAL
  6
CONTINUOUS
100
AcDbCircle
 10
22.76048569608271
 20
36.44252553845559
 30
0.0
 40
2.6
  0
LINE
  5
AA4
330
156
100
AcDbEntity
  8
FINAL
  6
CONTINUOUS
100
AcDbLine
 10
18.76048569608278
 20
62.6915190343579
 30
0.0
 11
15.16048569608275
 21
62.6915190343579
 31
0.0
  0
LINE
  5
AA5
330
156
100
AcDbEntity
  8
FINAL
  6
CONTINUOUS
100
AcDbLine
 10
18.76048569608271
 20
49.19151794657039
 30
0.0
 11
15.16048569608275
 21
49.19151794657039
 31
0.0
  0
LINE
  5
AA6
330
156
100
AcDbEntity
  8
FINAL
  6
CONTINUOUS
100
AcDbLine
 10
15.16048569608275
 20
57.28018557178643
 30
0.0
 11
18.76048569608272
 21
57.28018557178643
 31
0.0
  0
LINE
  5
AA7
330
156
100
AcDbEntity
  8
FINAL
  6
CONTINUOUS
100
AcDbLine
 10
18.76048569608272
 20
57.28018557178643
 30
0.0
 11
18.76048569608271
 21
49.19151794657039
 31
0.0
  0
LINE
  5
AA8
330
156
100
AcDbEntity
  8
FINAL
  6
CONTINUOUS
100
AcDbLine
 10
15.16048569608275
 20
49.19151794657039
 30
0.0
 11
15.16048569608275
 21
57.28018557178643
 31
0.0
  0
LINE
  5
AA9
330
156
100
AcDbEntity
  8
FINAL
  6
CONTINUOUS
100
AcDbLine
 10
13.73916201811518
 20
49.19151794657039
 30
0.0
 11
7.481135830175418
 21
51.20513438711414
 31
0.0
  0
CIRCLE
  5
AAA
330
156
100
AcDbEntity
  8
FINAL
  6
CONTINUOUS
100
AcDbCircle
 10
9.312915115757292
 20
56.91422975762361
 30
0.0
 40
2.6
  0
LINE
  5
AAB
330
156
100
AcDbEntity
  8
FINAL
  6
CONTINUOUS
100
AcDbLine
 10
13.73916201811519
 20
67.19152012214539
 30
0.0
 11
13.73916201811519
 21
95.39151797637044
 31
0.0
  0
CIRCLE
  5
AAC
330
156
100
AcDbEntity
  8
FINAL
  6
CONTINUOUS
100
AcDbCircle
 10
22.76048569608272
 20
83.54607150663156
 30
0.0
 40
2.702659230213072
  0
LINE
  5
AAD
330
156
100
AcDbEntity
  8
FINAL
  6
CONTINUOUS
100
AcDbLine
 10
15.16048569608275
 20
70.79152012214541
 30
0.0
 11
18.76048569608272
 21
70.79152012214541
 31
0.0
  0
LINE
  5
AAE
330
156
100
AcDbEntity
  8
FINAL
  6
CONTINUOUS
100
AcDbLine
 10
18.76048569608272
 20
77.9915201221454
 30
0.0
 11
18.76048569608272
 21
74.39152012214538
 31
0.0
  0
LINE
  5
AAF
330
156
100
AcDbEntity
  8
FINAL
  6
CONTINUOUS
100
AcDbLine
 10
15.16048569608275
 20
86.99151797637052
 30
0.0
 11
18.76048569608272
 21
86.99151797637052
 31
0.0
  0
LINE
  5
AB0
330
156
100
AcDbEntity
  8
FINAL
  6
CONTINUOUS
100
AcDbLine
 10
18.76048569608272
 20
86.99151797637052
 30
0.0
 11
18.76048569608272
 21
95.39151797637044
 31
0.0
  0
LINE
  5
AB1
330
156
100
AcDbEntity
  8
FINAL
  6
CONTINUOUS
100
AcDbLine
 10
18.76048569608272
 20
95.39151797637044
 30
0.0
 11
22.76048569608272
 21
95.39151797637044
 31
0.0
  0
LINE
  5
AB2
330
156
100
AcDbEntity
  8
FINAL
  6
CONTINUOUS
100
AcDbLine
 10
22.76048569608272
 20
95.39151797637044
 30
0.0
 11
22.76048569608272
 21
98.9915179763704
 31
0.0
  0
LINE
  5
AB3
330
156
100
AcDbEntity
  8
FINAL
  6
CONTINUOUS
100
AcDbLine
 10
15.16048569608275
 20
86.99151797637052
 30
0.0
 11
15.16048569608275
 21
95.39151797637044
 31
0.0
  0
LINE
  5
AB4
330
156
100
AcDbEntity
  8
FINAL
  6
CONTINUOUS
100
AcDbLine
 10
13.73916201811519
 20
95.39151797637044
 30
0.0
 11
15.16048569608275
 21
95.39151797637044
 31
0.0
  0
ARC
  5
AB7
330
156
100
AcDbEntity
  8
FINAL
  6
CONTINUOUS
100
AcDbCircle
 10
24.51563310829406
 20
117.1126473993375
 30
0.0
 40
2.6
100
AcDbArc
 50
186.3042324280194
 51
6.304232428019442
  0
ARC
  5
AB8
330
156
100
AcDbEntity
  8
FINAL
  6
CONTINUOUS
100
AcDbCircle
 10
23.68398444870408
 20
124.6405283492932
 30
0.0
 40
4.65
100
AcDbArc
 50
310.3005614224964
 51
242.3079034335428
  0
LINE
  5
ABA
330
156
100
AcDbEntity
  8
FINAL
  6
CONTINUOUS
100
AcDbLine
 10
18.76048569608274
 20
131.3915201519454
 30
0.0
 11
32.11523068754938
 21
131.3915201519454
 31
0.0
  0
LINE
  5
ABB
330
156
100
AcDbEntity
  8
FINAL
  6
CONTINUOUS
100
AcDbLine
 10
18.76048569608278
 20
102.5915179763704
 30
0.0
 11
28.51523068754934
 21
102.5915179763704
 31
0.0
  0
ARC
  5
ABC
330
156
100
AcDbEntity
  8
FINAL
  6
CONTINUOUS
100
AcDbCircle
 10
68.9919965443941
 20
124.5102828146037
 30
0.0
 40
4.65
100
AcDbArc
 50
297.3626846793761
 51
229.3700266904228
  0
ARC
  5
ABD
330
156
100
AcDbEntity
  8
FINAL
  6
CONTINUOUS
100
AcDbCircle
 10
68.11708165640611
 20
116.9873076698568
 30
0.0
 40
2.6
100
AcDbArc
 50
173.3663556848993
 51
353.366355684899
  0
LINE
  5
ABE
330
156
100
AcDbEntity
  8
FINAL
  6
CONTINUOUS
100
AcDbLine
 10
73.87652692427835
 20
102.6005208099587
 30
0.0
 11
64.12178245334487
 21
102.5973340664425
 31
0.0
  0
LINE
  5
ABF
330
156
100
AcDbEntity
  8
FINAL
  6
CONTINUOUS
100
AcDbLine
 10
73.86711835231875
 20
131.400521448707
 30
0.0
 11
60.4994556039034
 21
131.3915201519454
 31
0.0
  0
LINE
  5
AC0
330
156
100
AcDbEntity
  8
FINAL
  6
CONTINUOUS
100
AcDbLine
 10
73.86829442372487
 20
127.8005216408103
 30
0.0
 11
73.86711835231875
 21
131.400521448707
 31
0.0
  0
LINE
  5
AC1
330
156
100
AcDbEntity
  8
FINAL
  6
CONTINUOUS
100
AcDbLine
 10
77.47535066076889
 20
106.2016966892616
 30
0.0
 11
77.46829423162154
 21
127.8016977122164
 31
0.0
  0
LINE
  5
AC2
330
156
100
AcDbEntity
  8
FINAL
  6
CONTINUOUS
100
AcDbLine
 10
73.87535085287223
 20
106.2005206178554
 30
0.0
 11
77.47535066076889
 21
106.2016966892616
 31
0.0
  0
LINE
  5
AC3
330
156
100
AcDbEntity
  8
FINAL
  6
CONTINUOUS
100
AcDbLine
 10
73.87652692427835
 20
102.6005208099587
 30
0.0
 11
73.87535085287223
 21
106.2005206178554
 31
0.0
  0
LINE
  5
AC4
330
156
100
AcDbEntity
  8
FINAL
  6
CONTINUOUS
100
AcDbLine
 10
77.46829423162154
 20
127.8016977122164
 30
0.0
 11
73.86829442372487
 21
127.8005216408103
 31
0.0
  0
LINE
  5
AC5
330
156
100
AcDbEntity
  8
FINAL
  6
CONTINUOUS
100
AcDbLine
 10
70.69967492363314
 20
116.6869545175947
 30
0.0
 11
71.12923640350475
 21
120.3805484666549
 31
0.0
  0
LINE
  5
AC6
330
156
100
AcDbEntity
  8
FINAL
  6
CONTINUOUS
100
AcDbLine
 10
64.09945560390335
 20
98.9915179763704
 30
0.0
 11
28.51523068754934
 21
98.9915179763704
 31
0.0
  0
LINE
  5
AC7
330
156
100
AcDbEntity
  8
FINAL
  6
CONTINUOUS
100
AcDbLine
 10
64.12178245334487
 20
102.5973340664425
 30
0.0
 11
64.09945560390335
 21
98.9915179763704
 31
0.0
  0
LINE
  5
AC8
330
156
100
AcDbEntity
  8
FINAL
  6
CONTINUOUS
100
AcDbLine
 10
60.49945560390339
 20
106.1915179763704
 30
0.0
 11
64.09945560390335
 21
106.1915179763704
 31
0.0
  0
LINE
  5
AC9
330
156
100
AcDbEntity
  8
FINAL
  6
CONTINUOUS
100
AcDbLine
 10
64.09945560390335
 20
109.7915179763704
 30
0.0
 11
60.49945560390339
 21
109.7915179763704
 31
0.0
  0
LINE
  5
ACA
330
156
100
AcDbEntity
  8
FINAL
  6
CONTINUOUS
100
AcDbLine
 10
64.09945560390335
 20
106.1915179763704
 30
0.0
 11
64.09945560390335
 21
109.7915179763704
 31
0.0
  0
LINE
  5
ACB
330
156
100
AcDbEntity
  8
FINAL
  6
CONTINUOUS
100
AcDbLine
 10
60.49945560390339
 20
109.7915179763704
 30
0.0
 11
60.49945560390339
 21
106.1915179763704
 31
0.0
  0
LINE
  5
ACC
330
156
100
AcDbEntity
  8
FINAL
  6
CONTINUOUS
100
AcDbLine
 10
65.53448838917915
 20
117.2876608221189
 30
0.0
 11
65.96404986905081
 21
120.9812547711791
 31
0.0
  0
LINE
  5
ACD
330
156
100
AcDbEntity
  8
FINAL
  6
CONTINUOUS
100
AcDbLine
 10
28.51523068754934
 20
102.5915179763704
 30
0.0
 11
28.51523068754934
 21
98.9915179763704
 31
0.0
  0
LINE
  5
ACE
330
156
100
AcDbEntity
  8
FINAL
  6
CONTINUOUS
100
AcDbLine
 10
32.11523068754938
 20
106.1915179763704
 30
0.0
 11
28.51523068754934
 21
106.1915179763704
 31
0.0
  0
LINE
  5
ACF
330
156
100
AcDbEntity
  8
FINAL
  6
CONTINUOUS
100
AcDbLine
 10
28.51523068754934
 20
109.7915179763704
 30
0.0
 11
32.11523068754938
 21
109.7915179763704
 31
0.0
  0
LINE
  5
AD0
330
156
100
AcDbEntity
  8
FINAL
  6
CONTINUOUS
100
AcDbLine
 10
32.11523068754938
 20
109.7915179763704
 30
0.0
 11
32.11523068754938
 21
106.1915179763704
 31
0.0
  0
LINE
  5
AD1
330
156
100
AcDbEntity
  8
FINAL
  6
CONTINUOUS
100
AcDbLine
 10
28.51523068754934
 20
106.1915179763704
 30
0.0
 11
28.51523068754934
 21
109.7915179763704
 31
0.0
  0
LINE
  5
AD2
330
156
100
AcDbEntity
  8
FINAL
  6
CONTINUOUS
100
AcDbLine
 10
27.09991050969124
 20
117.3981475090189
 30
0.0
 11
26.69159167336612
 21
121.0941500865918
 31
0.0
  0
LINE
  5
AD3
330
156
100
AcDbEntity
  8
FINAL
  6
CONTINUOUS
100
AcDbLine
 10
60.4994556039034
 20
134.9915201519453
 30
0.0
 11
32.11523068754938
 21
134.9915201519453
 31
0.0
  0
LINE
  5
AD4
330
156
100
AcDbEntity
  8
FINAL
  6
CONTINUOUS
100
AcDbLine
 10
60.4994556039034
 20
131.3915201519454
 30
0.0
 11
60.4994556039034
 21
134.9915201519453
 31
0.0
  0
LINE
  5
AD5
330
156
100
AcDbEntity
  8
FINAL
  6
CONTINUOUS
100
AcDbLine
 10
32.11523068754938
 20
131.3915201519454
 30
0.0
 11
32.11523068754938
 21
134.9915201519453
 31
0.0
  0
LINE
  5
AD7
330
156
100
AcDbEntity
  8
FINAL
  6
CONTINUOUS
100
AcDbLine
 10
18.76048569608274
 20
127.7915201519454
 30
0.0
 11
18.76048569608274
 21
131.3915201519454
 31
0.0
  0
LINE
  5
AD8
330
156
100
AcDbEntity
  8
FINAL
  6
CONTINUOUS
100
AcDbLine
 10
15.16048569608275
 20
106.1915179763704
 30
0.0
 11
15.16048569608278
 21
127.7915201519454
 31
0.0
  0
LINE
  5
AD9
330
156
100
AcDbEntity
  8
FINAL
  6
CONTINUOUS
100
AcDbLine
 10
18.76048569608272
 20
106.1915179763704
 30
0.0
 11
15.16048569608275
 21
106.1915179763704
 31
0.0
  0
LINE
  5
ADA
330
156
100
AcDbEntity
  8
FINAL
  6
CONTINUOUS
100
AcDbLine
 10
18.76048569608272
 20
102.5915179763704
 30
0.0
 11
18.76048569608272
 21
106.1915179763704
 31
0.0
  0
LINE
  5
ADB
330
156
100
AcDbEntity
  8
FINAL
  6
CONTINUOUS
100
AcDbLine
 10
15.16048569608278
 20
127.7915201519454
 30
0.0
 11
18.76048569608274
 21
127.7915201519454
 31
0.0
  0
LINE
  5
ADC
330
156
100
AcDbEntity
  8
FINAL
  6
CONTINUOUS
100
AcDbLine
 10
21.93135570689695
 20
116.8271472896562
 30
0.0
 11
21.52303687057183
 21
120.5231498672291
 31
0.0
  0
LINE
  5
AE1
330
156
100
AcDbEntity
  8
FINAL
  6
CONTINUOUS
100
AcDbLine
 10
47.33790936376144
 20
68.50124572752872
 30
0.0
 11
59.91290988828646
 21
68.50124572752879
 31
0.0
  0
LINE
  5
AE2
330
156
100
AcDbEntity
  8
FINAL
  6
CONTINUOUS
100
AcDbLine
 10
56.35923304172895
 20
54.11327311616322
 30
0.0
 11
59.91290988828644
 21
54.11327311616322
 31
0.0
  0
LINE
  5
AE8
330
156
100
AcDbEntity
  8
FINAL
  6
CONTINUOUS
100
AcDbLine
 10
59.91290988828644
 20
54.11327311616322
 30
0.0
 11
59.91290988828646
 21
68.50124572752879
 31
0.0
  0
LINE
  5
AE9
330
156
100
AcDbEntity
  8
FINAL
  6
CONTINUOUS
100
AcDbLine
 10
56.35923304172895
 20
50.51327311616319
 30
0.0
 11
56.35923304172895
 21
54.11327311616322
 31
0.0
  0
LINE
  5
AEA
330
156
100
AcDbEntity
  8
FINAL
  6
CONTINUOUS
100
AcDbLine
 10
47.33790936376144
 20
68.50124572752872
 30
0.0
 11
47.33790936376142
 21
50.51327311616325
 31
0.0
  0
LINE
  5
AF1
330
156
100
AcDbEntity
  8
FINAL
  6
CONTINUOUS
100
AcDbLine
 10
48.75923304172893
 20
50.51327311616319
 30
0.0
 11
52.35923304172896
 21
50.51327311616319
 31
0.0
  0
LINE
  5
AF2
330
156
100
AcDbEntity
  8
FINAL
  6
CONTINUOUS
100
AcDbLine
 10
47.33790936376142
 20
50.51327311616325
 30
0.0
 11
56.35923304172895
 21
50.51327311616325
 31
0.0
  0
LINE
  5
AF3
330
156
100
AcDbEntity
  8
FINAL
  6
CONTINUOUS
100
AcDbLine
 10
52.35923304172896
 20
54.11327311616322
 30
0.0
 11
48.75923304172899
 21
54.11327311616322
 31
0.0
  0
LINE
  5
AF4
330
156
100
AcDbEntity
  8
FINAL
  6
CONTINUOUS
100
AcDbLine
 10
52.35923304172897
 20
64.90124572752876
 30
0.0
 11
48.75923304172895
 21
64.90124572752876
 31
0.0
  0
LINE
  5
AF5
330
156
100
AcDbEntity
  8
FINAL
  6
CONTINUOUS
100
AcDbLine
 10
52.35923304172896
 20
54.11327311616322
 30
0.0
 11
52.35923304172897
 21
64.90124572752876
 31
0.0
  0
LINE
  5
AF6
330
156
100
AcDbEntity
  8
FINAL
  6
CONTINUOUS
100
AcDbLine
 10
48.759233041729
 20
64.90124572752876
 30
0.0
 11
48.75923304172899
 21
54.11327311616322
 31
0.0
  0
LINE
  5
B2E
330
156
100
AcDbEntity
  8
FINAL
  6
CONTINUOUS
100
AcDbLine
 10
153.7177644424136
 20
136.4629329932699
 30
0.0
 11
153.7177644424136
 21
130.0629344237699
 31
0.0
  0
LINE
  5
B2F
330
156
100
AcDbEntity
  8
FINAL
  6
CONTINUOUS
100
AcDbLine
 10
117.7177622668386
 20
144.0629329932699
 30
0.0
 11
117.7177622668386
 21
130.0629344237699
 31
0.0
  0
LINE
  5
B30
330
156
100
AcDbEntity
  8
FINAL
  6
CONTINUOUS
100
AcDbLine
 10
150.1177644424136
 20
115.258165601095
 30
0.0
 11
153.7177644424136
 21
115.258165601095
 31
0.0
  0
LINE
  5
B31
330
156
100
AcDbEntity
  8
FINAL
  6
CONTINUOUS
100
AcDbLine
 10
153.7177644424136
 20
109.8669772786698
 30
0.0
 11
146.5177644424136
 21
109.8669772786698
 31
0.0
  0
LINE
  5
B32
330
156
100
AcDbEntity
  8
FINAL
  6
CONTINUOUS
100
AcDbLine
 10
153.7177644424136
 20
130.0629344237699
 30
0.0
 11
150.1177644424136
 21
130.0629344237699
 31
0.0
  0
LINE
  5
B33
330
156
100
AcDbEntity
  8
FINAL
  6
CONTINUOUS
100
AcDbLine
 10
153.7177644424136
 20
115.258165601095
 30
0.0
 11
153.7177644424136
 21
109.8669772786698
 31
0.0
  0
LINE
  5
B34
330
156
100
AcDbEntity
  8
FINAL
  6
CONTINUOUS
100
AcDbLine
 10
121.3177622668386
 20
109.8669772786699
 30
0.0
 11
121.3177622668386
 21
106.2669772786699
 31
0.0
  0
LINE
  5
B35
330
156
100
AcDbEntity
  8
FINAL
  6
CONTINUOUS
100
AcDbLine
 10
117.7177622668386
 20
106.26697727867
 30
0.0
 11
117.7177622668386
 21
115.258165601095
 31
0.0
  0
LINE
  5
B36
330
156
100
AcDbEntity
  8
FINAL
  6
CONTINUOUS
100
AcDbLine
 10
142.9177644424136
 20
106.2669772786698
 30
0.0
 11
142.9177644424136
 21
109.8669772786698
 31
0.0
  0
LINE
  5
B37
330
156
100
AcDbEntity
  8
FINAL
  6
CONTINUOUS
100
AcDbLine
 10
146.5177644424136
 20
109.8669772786698
 30
0.0
 11
146.5177644424136
 21
106.2669772786698
 31
0.0
  0
LINE
  5
B38
330
156
100
AcDbEntity
  8
FINAL
  6
CONTINUOUS
100
AcDbLine
 10
146.5177644424136
 20
106.2669772786698
 30
0.0
 11
142.9177644424136
 21
106.2669772786698
 31
0.0
  0
LINE
  5
B39
330
156
100
AcDbEntity
  8
FINAL
  6
CONTINUOUS
100
AcDbLine
 10
121.3177622668386
 20
106.2669772786699
 30
0.0
 11
117.7177622668386
 21
106.26697727867
 31
0.0
  0
LINE
  5
B3A
330
156
100
AcDbEntity
  8
FINAL
  6
CONTINUOUS
100
AcDbLine
 10
142.9177644424136
 20
109.8669772786698
 30
0.0
 11
121.3177622668386
 21
109.8669772786699
 31
0.0
  0
LINE
  5
B3B
330
156
100
AcDbEntity
  8
FINAL
  6
CONTINUOUS
100
AcDbLine
 10
142.9177644424136
 20
118.858165601095
 30
0.0
 11
128.5177622668386
 21
118.858165601095
 31
0.0
  0
LINE
  5
B3C
330
156
100
AcDbEntity
  8
FINAL
  6
CONTINUOUS
100
AcDbLine
 10
128.5177622668386
 20
115.258165601095
 30
0.0
 11
142.9177644424136
 21
115.258165601095
 31
0.0
  0
LINE
  5
B3D
330
156
100
AcDbEntity
  8
FINAL
  6
CONTINUOUS
100
AcDbLine
 10
150.1177644424136
 20
130.0629344237699
 30
0.0
 11
150.1177644424136
 21
115.258165601095
 31
0.0
  0
LINE
  5
B3E
330
156
100
AcDbEntity
  8
FINAL
  6
CONTINUOUS
100
AcDbLine
 10
142.9177644424136
 20
115.258165601095
 30
0.0
 11
142.9177644424136
 21
118.858165601095
 31
0.0
  0
LINE
  5
B3F
330
156
100
AcDbEntity
  8
FINAL
  6
CONTINUOUS
100
AcDbLine
 10
121.3177622668387
 20
130.0629344237699
 30
0.0
 11
121.3177622668386
 21
115.258165601095
 31
0.0
  0
LINE
  5
B40
330
156
100
AcDbEntity
  8
FINAL
  6
CONTINUOUS
100
AcDbLine
 10
128.5177622668386
 20
118.858165601095
 30
0.0
 11
128.5177622668386
 21
115.258165601095
 31
0.0
  0
LINE
  5
B41
330
156
100
AcDbEntity
  8
FINAL
  6
CONTINUOUS
100
AcDbLine
 10
121.3177622668386
 20
115.258165601095
 30
0.0
 11
117.7177622668386
 21
115.258165601095
 31
0.0
  0
LINE
  5
B42
330
156
100
AcDbEntity
  8
FINAL
  6
CONTINUOUS
100
AcDbLine
 10
117.7177622668386
 20
130.0629344237699
 30
0.0
 11
121.3177622668387
 21
130.0629344237699
 31
0.0
  0
LINE
  5
B43
330
156
100
AcDbEntity
  8
FINAL
  6
CONTINUOUS
100
AcDbLine
 10
159.3177632205137
 20
140.4629329932699
 30
0.0
 11
122.3511370822868
 21
140.46293299327
 31
0.0
  0
LINE
  5
B44
330
156
100
AcDbEntity
  8
FINAL
  6
CONTINUOUS
100
AcDbLine
 10
191.7177632205137
 20
136.4629329932699
 30
0.0
 11
153.7177644424136
 21
136.4629329932699
 31
0.0
  0
LINE
  5
B45
330
156
100
AcDbEntity
  8
FINAL
  6
CONTINUOUS
100
AcDbLine
 10
188.1177632205137
 20
140.4629329932699
 30
0.0
 11
166.5177632205136
 21
140.4629329932699
 31
0.0
  0
LINE
  5
B46
330
156
100
AcDbEntity
  8
FINAL
  6
CONTINUOUS
100
AcDbLine
 10
188.1177632205137
 20
144.0629329932699
 30
0.0
 11
188.1177632205137
 21
140.4629329932699
 31
0.0
  0
LINE
  5
B47
330
156
100
AcDbEntity
  8
FINAL
  6
CONTINUOUS
100
AcDbLine
 10
191.7177632205137
 20
136.4629329932699
 30
0.0
 11
191.7177632205137
 21
144.0629329932699
 31
0.0
  0
LINE
  5
B48
330
156
100
AcDbEntity
  8
FINAL
  6
CONTINUOUS
100
AcDbLine
 10
191.7177632205137
 20
144.0629329932699
 30
0.0
 11
188.1177632205137
 21
144.0629329932699
 31
0.0
  0
LINE
  5
B49
330
156
100
AcDbEntity
  8
FINAL
  6
CONTINUOUS
100
AcDbLine
 10
159.3177632205137
 20
144.0629329932699
 30
0.0
 11
159.3177632205137
 21
140.4629329932699
 31
0.0
  0
LINE
  5
B4A
330
156
100
AcDbEntity
  8
FINAL
  6
CONTINUOUS
100
AcDbLine
 10
166.5177632205136
 20
140.4629329932699
 30
0.0
 11
166.5177632205136
 21
144.0629329932699
 31
0.0
  0
LINE
  5
B4B
330
156
100
AcDbEntity
  8
FINAL
  6
CONTINUOUS
100
AcDbLine
 10
166.5177632205136
 20
144.0629329932699
 30
0.0
 11
159.3177632205137
 21
144.0629329932699
 31
0.0
  0
LINE
  5
B4C
330
156
100
AcDbEntity
  8
FINAL
  6
CONTINUOUS
100
AcDbLine
 10
122.3511370822868
 20
140.46293299327
 30
0.0
 11
122.3511370822868
 21
144.0629329932699
 31
0.0
  0
LINE
  5
B4D
330
156
100
AcDbEntity
  8
FINAL
  6
CONTINUOUS
100
AcDbLine
 10
122.3511370822868
 20
144.0629329932699
 30
0.0
 11
117.7177622668386
 21
144.0629329932699
 31
0.0
  0
LINE
  5
B4E
330
156
100
AcDbEntity
  8
FINAL
  6
CONTINUOUS
100
AcDbLine
 10
182.8363604952743
 20
50.54698755283459
 30
0.0
 11
182.8363604952743
 21
46.94698755283456
 31
0.0
  0
LINE
  5
B4F
330
156
100
AcDbEntity
  8
FINAL
  6
CONTINUOUS
100
AcDbLine
 10
174.4363604952744
 20
50.54698755283459
 30
0.0
 11
174.4363604952744
 21
46.94698755283456
 31
0.0
  0
LINE
  5
B50
330
156
100
AcDbEntity
  8
FINAL
  6
CONTINUOUS
100
AcDbLine
 10
158.2363626410493
 20
46.94698755283456
 30
0.0
 11
158.2363626410493
 21
50.54698755283459
 31
0.0
  0
LINE
  5
B51
330
156
100
AcDbEntity
  8
FINAL
  6
CONTINUOUS
100
AcDbLine
 10
150.1363615532618
 20
50.54698755283459
 30
0.0
 11
150.1363615532618
 21
46.94698755283456
 31
0.0
  0
LINE
  5
B52
330
156
100
AcDbEntity
  8
FINAL
  6
CONTINUOUS
100
AcDbLine
 10
144.7250280906903
 20
46.94698755283456
 30
0.0
 11
144.7250280906903
 21
50.54698755283459
 31
0.0
  0
LINE
  5
B53
330
156
100
AcDbEntity
  8
FINAL
  6
CONTINUOUS
100
AcDbLine
 10
136.6363604654742
 20
50.54698755283459
 30
0.0
 11
136.6363604654742
 21
46.94698755283456
 31
0.0
  0
LINE
  5
B54
330
156
100
AcDbEntity
  8
FINAL
  6
CONTINUOUS
100
AcDbLine
 10
120.2363616873742
 20
50.54698755283459
 30
0.0
 11
120.2363616873742
 21
46.94698755283456
 31
0.0
  0
LINE
  5
B55
330
156
100
AcDbEntity
  8
FINAL
  6
CONTINUOUS
100
AcDbLine
 10
113.0363616873742
 20
46.94698755283456
 30
0.0
 11
113.0363616873742
 21
50.54698755283459
 31
0.0
  0
LINE
  5
B56
330
156
100
AcDbEntity
  8
FINAL
  6
CONTINUOUS
100
AcDbLine
 10
102.2363616873742
 20
46.94698755283456
 30
0.0
 11
102.2363616873742
 21
50.54698755283459
 31
0.0
  0
LINE
  5
B57
330
156
100
AcDbEntity
  8
FINAL
  6
CONTINUOUS
100
AcDbLine
 10
95.03636168737429
 20
50.54698755283459
 30
0.0
 11
95.03636168737429
 21
46.94698755283456
 31
0.0
  0
LINE
  5
B58
330
156
100
AcDbEntity
  8
FINAL
  6
CONTINUOUS
100
AcDbLine
 10
113.0363616873742
 20
50.54698755283459
 30
0.0
 11
120.2363616873742
 21
50.54698755283459
 31
0.0
  0
LINE
  5
B59
330
156
100
AcDbEntity
  8
FINAL
  6
CONTINUOUS
100
AcDbLine
 10
102.2363616873742
 20
50.54698755283459
 30
0.0
 11
95.03636168737429
 21
50.54698755283459
 31
0.0
  0
LINE
  5
B5A
330
156
100
AcDbEntity
  8
FINAL
  6
CONTINUOUS
100
AcDbLine
 10
144.7250280906903
 20
50.54698755283459
 30
0.0
 11
136.6363604654742
 21
50.54698755283459
 31
0.0
  0
LINE
  5
B5B
330
156
100
AcDbEntity
  8
FINAL
  6
CONTINUOUS
100
AcDbLine
 10
158.2363626410493
 20
50.54698755283459
 30
0.0
 11
150.1363615532618
 21
50.54698755283459
 31
0.0
  0
LINE
  5
B5C
330
156
100
AcDbEntity
  8
FINAL
  6
CONTINUOUS
100
AcDbLine
 10
182.8363604952743
 20
50.54698755283459
 30
0.0
 11
174.4363604952744
 21
50.54698755283459
 31
0.0
  0
CIRCLE
  5
B5D
330
156
100
AcDbEntity
  8
FINAL
  6
CONTINUOUS
100
AcDbCircle
 10
116.939077911693
 20
11.54995298132246
 30
0.0
 40
2.6
  0
CIRCLE
  5
B5E
330
156
100
AcDbEntity
  8
FINAL
  6
CONTINUOUS
100
AcDbCircle
 10
117.9347281476095
 20
38.05085531317127
 30
0.0
 40
2.6
  0
LINE
  5
B5F
330
156
100
AcDbEntity
  8
FINAL
  6
CONTINUOUS
100
AcDbLine
 10
101.0014552419242
 20
3.546989162159547
 30
0.0
 11
176.8712669407243
 21
3.546989162159547
 31
0.0
  0
LINE
  5
B60
330
156
100
AcDbEntity
  8
FINAL
  6
CONTINUOUS
100
AcDbLine
 10
91.4363616873743
 20
20.54699008603455
 30
0.0
 11
101.0014552419242
 21
3.546989162159547
 31
0.0
  0
LINE
  5
B61
330
156
100
AcDbEntity
  8
FINAL
  6
CONTINUOUS
100
AcDbLine
 10
95.03636168737429
 20
46.94698755283456
 30
0.0
 11
91.4363616873743
 21
46.94698755283456
 31
0.0
  0
LINE
  5
B62
330
156
100
AcDbEntity
  8
FINAL
  6
CONTINUOUS
100
AcDbLine
 10
91.4363616873743
 20
20.54699008603455
 30
0.0
 11
91.4363616873743
 21
46.94698755283456
 31
0.0
  0
CIRCLE
  5
B63
330
156
100
AcDbEntity
  8
FINAL
  6
CONTINUOUS
100
AcDbCircle
 10
110.4358177812645
 20
21.54531206668667
 30
0.0
 40
6.0
  0
CIRCLE
  5
B64
330
156
100
AcDbEntity
  8
FINAL
  6
CONTINUOUS
100
AcDbCircle
 10
105.4364209709119
 20
38.05085531317127
 30
0.0
 40
2.6
  0
LINE
  5
B65
330
156
100
AcDbEntity
  8
FINAL
  6
CONTINUOUS
100
AcDbLine
 10
102.2363616873742
 20
46.94698755283456
 30
0.0
 11
113.0363616873742
 21
46.94698755283456
 31
0.0
  0
CIRCLE
  5
B66
330
156
100
AcDbEntity
  8
FINAL
  6
CONTINUOUS
100
AcDbCircle
 10
103.9380605628209
 20
11.54995298132246
 30
0.0
 40
2.6
  0
LINE
  5
B67
330
156
100
AcDbEntity
  8
FINAL
  6
CONTINUOUS
100
AcDbLine
 10
161.8363626410492
 20
16.35103183823457
 30
0.0
 11
165.4363626410493
 21
16.35103183823457
 31
0.0
  0
LINE
  5
B68
330
156
100
AcDbEntity
  8
FINAL
  6
CONTINUOUS
100
AcDbLine
 10
161.8363626410492
 20
21.7430639439753
 30
0.0
 11
165.4363626410493
 21
21.7430639439753
 31
0.0
  0
LINE
  5
B69
330
156
100
AcDbEntity
  8
FINAL
  6
CONTINUOUS
100
AcDbLine
 10
165.4363626410493
 20
29.54222016065972
 30
0.0
 11
161.8363626410492
 21
29.54222016065972
 31
0.0
  0
LINE
  5
B6A
330
156
100
AcDbEntity
  8
FINAL
  6
CONTINUOUS
100
AcDbLine
 10
161.8363626410492
 20
39.74648671501563
 30
0.0
 11
165.4363626410493
 21
39.74648671501563
 31
0.0
  0
LINE
  5
B6B
330
156
100
AcDbEntity
  8
FINAL
  6
CONTINUOUS
100
AcDbLine
 10
174.4363604952744
 20
46.94698755283456
 30
0.0
 11
158.2363626410493
 21
46.94698755283456
 31
0.0
  0
LINE
  5
B6C
330
156
100
AcDbEntity
  8
FINAL
  6
CONTINUOUS
100
AcDbLine
 10
140.2363604654742
 20
25.34306394397527
 30
0.0
 11
154.6363626410492
 21
25.34306394397527
 31
0.0
  0
LINE
  5
B6D
330
156
100
AcDbEntity
  8
FINAL
  6
CONTINUOUS
100
AcDbLine
 10
154.6363626410492
 20
21.7430639439753
 30
0.0
 11
140.2363604654742
 21
21.7430639439753
 31
0.0
  0
LINE
  5
B6E
330
156
100
AcDbEntity
  8
FINAL
  6
CONTINUOUS
100
AcDbLine
 10
136.6363604654742
 20
16.35103183823457
 30
0.0
 11
158.2363626410493
 21
16.35103183823457
 31
0.0
  0
LINE
  5
B6F
330
156
100
AcDbEntity
  8
FINAL
  6
CONTINUOUS
100
AcDbLine
 10
158.2363626410493
 20
12.75103183823455
 30
0.0
 11
136.6363604654742
 21
12.75103183823455
 31
0.0
  0
LINE
  5
B70
330
156
100
AcDbEntity
  8
FINAL
  6
CONTINUOUS
100
AcDbLine
 10
129.4363604654743
 20
29.54222016065972
 30
0.0
 11
133.0363604654742
 21
29.54222016065972
 31
0.0
  0
LINE
  5
B71
330
156
100
AcDbEntity
  8
FINAL
  6
CONTINUOUS
100
AcDbLine
 10
136.6363604654742
 20
46.94698755283456
 30
0.0
 11
120.2363616873742
 21
46.94698755283456
 31
0.0
  0
LINE
  5
B72
330
156
100
AcDbEntity
  8
FINAL
  6
CONTINUOUS
100
AcDbLine
 10
129.4363604654743
 20
39.74648671501563
 30
0.0
 11
133.0363604654742
 21
39.74648671501563
 31
0.0
  0
LINE
  5
B73
330
156
100
AcDbEntity
  8
FINAL
  6
CONTINUOUS
100
AcDbLine
 10
129.4363604654743
 20
29.84900969553456
 30
0.0
 11
129.4363604654743
 21
39.74648671501563
 31
0.0
  0
LINE
  5
B74
330
156
100
AcDbEntity
  8
FINAL
  6
CONTINUOUS
100
AcDbLine
 10
133.0363604654742
 20
39.74648671501563
 30
0.0
 11
133.0363604654742
 21
29.84900969553456
 31
0.0
  0
LINE
  5
B75
330
156
100
AcDbEntity
  8
FINAL
  6
CONTINUOUS
100
AcDbLine
 10
129.4363604654743
 20
21.7430639439753
 30
0.0
 11
133.0363604654742
 21
21.7430639439753
 31
0.0
  0
LINE
  5
B76
330
156
100
AcDbEntity
  8
FINAL
  6
CONTINUOUS
100
AcDbLine
 10
129.4363604654743
 20
16.35103183823457
 30
0.0
 11
133.0363604654742
 21
16.35103183823457
 31
0.0
  0
LINE
  5
B77
330
156
100
AcDbEntity
  8
FINAL
  6
CONTINUOUS
100
AcDbLine
 10
129.4363604654743
 20
16.35103183823457
 30
0.0
 11
129.4363604654743
 21
21.7430639439753
 31
0.0
  0
LINE
  5
B78
330
156
100
AcDbEntity
  8
FINAL
  6
CONTINUOUS
100
AcDbLine
 10
136.6363604654742
 20
12.75103183823455
 30
0.0
 11
136.6363604654742
 21
16.35103183823457
 31
0.0
  0
LINE
  5
B79
330
156
100
AcDbEntity
  8
FINAL
  6
CONTINUOUS
100
AcDbLine
 10
133.0363604654742
 20
21.7430639439753
 30
0.0
 11
133.0363604654742
 21
16.35103183823457
 31
0.0
  0
LINE
  5
B7A
330
156
100
AcDbEntity
  8
FINAL
  6
CONTINUOUS
100
AcDbLine
 10
140.2363604654742
 20
21.7430639439753
 30
0.0
 11
140.2363604654742
 21
25.34306394397527
 31
0.0
  0
LINE
  5
B7B
330
156
100
AcDbEntity
  8
FINAL
  6
CONTINUOUS
100
AcDbLine
 10
150.1363615532618
 20
46.94698755283456
 30
0.0
 11
144.7250280906903
 21
46.94698755283456
 31
0.0
  0
LINE
  5
B7C
330
156
100
AcDbEntity
  8
FINAL
  6
CONTINUOUS
100
AcDbLine
 10
161.8363626410492
 20
29.54222016065972
 30
0.0
 11
161.8363626410492
 21
39.74648671501563
 31
0.0
  0
LINE
  5
B7D
330
156
100
AcDbEntity
  8
FINAL
  6
CONTINUOUS
100
AcDbLine
 10
158.2363626410493
 20
16.35103183823457
 30
0.0
 11
158.2363626410493
 21
12.75103183823455
 31
0.0
  0
LINE
  5
B7E
330
156
100
AcDbEntity
  8
FINAL
  6
CONTINUOUS
100
AcDbLine
 10
154.6363626410492
 20
25.34306394397527
 30
0.0
 11
154.6363626410492
 21
21.7430639439753
 31
0.0
  0
LINE
  5
B7F
330
156
100
AcDbEntity
  8
FINAL
  6
CONTINUOUS
100
AcDbLine
 10
161.8363626410492
 20
16.35103183823457
 30
0.0
 11
161.8363626410492
 21
21.7430639439753
 31
0.0
  0
LINE
  5
B80
330
156
100
AcDbEntity
  8
FINAL
  6
CONTINUOUS
100
AcDbLine
 10
186.4363604952743
 20
20.54699008603455
 30
0.0
 11
186.4363604952743
 21
32.55901494146906
 31
0.0
  0
LINE
  5
B81
330
156
100
AcDbEntity
  8
FINAL
  6
CONTINUOUS
100
AcDbLine
 10
174.4363604952744
 20
39.85300124715184
 30
0.0
 11
179.4363604952742
 21
39.85300124715184
 31
0.0
  0
LINE
  5
B82
330
156
100
AcDbEntity
  8
FINAL
  6
CONTINUOUS
100
AcDbLine
 10
174.4363604952744
 20
43.25300124715181
 30
0.0
 11
179.4363604952742
 21
43.25300124715181
 31
0.0
  0
LINE
  5
B83
330
156
100
AcDbEntity
  8
FINAL
  6
CONTINUOUS
100
AcDbLine
 10
165.4363626410493
 20
39.74648671501563
 30
0.0
 11
165.4363626410493
 21
29.54222016065972
 31
0.0
  0
LINE
  5
B84
330
156
100
AcDbEntity
  8
FINAL
  6
CONTINUOUS
100
AcDbLine
 10
174.4363604952744
 20
39.85300124715184
 30
0.0
 11
174.4363604952744
 21
43.25300124715181
 31
0.0
  0
LINE
  5
B85
330
156
100
AcDbEntity
  8
FINAL
  6
CONTINUOUS
100
AcDbLine
 10
186.4363604952743
 20
36.14648671501561
 30
0.0
 11
186.4363604952743
 21
39.85300124715184
 31
0.0
  0
LINE
  5
B86
330
156
100
AcDbEntity
  8
FINAL
  6
CONTINUOUS
100
AcDbLine
 10
182.8363604952743
 20
39.85300124715184
 30
0.0
 11
186.4363604952743
 21
39.85300124715184
 31
0.0
  0
LINE
  5
B87
330
156
100
AcDbEntity
  8
FINAL
  6
CONTINUOUS
100
AcDbLine
 10
182.8363604952743
 20
43.25300124715181
 30
0.0
 11
186.4363604952741
 21
43.25300124715181
 31
0.0
  0
LINE
  5
B88
330
156
100
AcDbEntity
  8
FINAL
  6
CONTINUOUS
100
AcDbLine
 10
182.8363604952743
 20
46.94698755283456
 30
0.0
 11
186.4363604952743
 21
46.94698755283456
 31
0.0
  0
LINE
  5
B89
330
156
100
AcDbEntity
  8
FINAL
  6
CONTINUOUS
100
AcDbLine
 10
179.4363604952742
 20
38.55300124715182
 30
0.0
 11
182.8363604952743
 21
38.55300124715182
 31
0.0
  0
LINE
  5
B8A
330
156
100
AcDbEntity
  8
FINAL
  6
CONTINUOUS
100
AcDbLine
 10
179.4363604952742
 20
39.85300124715184
 30
0.0
 11
179.4363604952742
 21
38.55300124715182
 31
0.0
  0
LINE
  5
B8B
330
156
100
AcDbEntity
  8
FINAL
  6
CONTINUOUS
100
AcDbLine
 10
182.8363604952743
 20
39.85300124715184
 30
0.0
 11
182.8363604952743
 21
38.55300124715182
 31
0.0
  0
LINE
  5
B8C
330
156
100
AcDbEntity
  8
FINAL
  6
CONTINUOUS
100
AcDbLine
 10
179.4363604952742
 20
44.55300124715182
 30
0.0
 11
182.8363604952743
 21
44.55300124715182
 31
0.0
  0
LINE
  5
B8D
330
156
100
AcDbEntity
  8
FINAL
  6
CONTINUOUS
100
AcDbLine
 10
182.8363604952743
 20
43.25300124715181
 30
0.0
 11
182.8363604952743
 21
44.55300124715182
 31
0.0
  0
LINE
  5
B8E
330
156
100
AcDbEntity
  8
FINAL
  6
CONTINUOUS
100
AcDbLine
 10
179.4363604952742
 20
43.25300124715181
 30
0.0
 11
179.4363604952742
 21
44.55300124715182
 31
0.0
  0
LINE
  5
B8F
330
156
100
AcDbEntity
  8
FINAL
  6
CONTINUOUS
100
AcDbLine
 10
186.4363604952741
 20
43.25300124715181
 30
0.0
 11
186.4363604952743
 21
46.94698755283456
 31
0.0
  0
LINE
  5
B90
330
156
100
AcDbEntity
  8
FINAL
  6
CONTINUOUS
100
AcDbLine
 10
186.4363604952743
 20
32.55901494146906
 30
0.0
 11
182.8363604952743
 21
32.55901494146906
 31
0.0
  0
LINE
  5
B91
330
156
100
AcDbEntity
  8
FINAL
  6
CONTINUOUS
100
AcDbLine
 10
182.8363604952743
 20
36.15901494146908
 30
0.0
 11
186.4363604952743
 21
36.14648671501561
 31
0.0
  0
LINE
  5
B92
330
156
100
AcDbEntity
  8
FINAL
  6
CONTINUOUS
100
AcDbLine
 10
182.8363604952743
 20
32.55901494146906
 30
0.0
 11
182.8363604952743
 21
36.15901494146908
 31
0.0
  0
LINE
  5
B93
330
156
100
AcDbEntity
  8
FINAL
  6
CONTINUOUS
100
AcDbLine
 10
176.8712669407243
 20
3.546989162159547
 30
0.0
 11
186.4363604952743
 21
20.54699008603455
 31
0.0
  0
LINE
  5
B94
330
156
100
AcDbEntity
  8
FINAL
  6
CONTINUOUS
100
AcDbLine
 10
165.4363626410493
 20
21.7430639439753
 30
0.0
 11
165.4363626410493
 21
16.35103183823457
 31
0.0
  0
LINE
  5
B95
330
156
100
AcDbEntity
  8
FINAL
  6
CONTINUOUS
100
AcDbLine
 10
47.33790936376144
 20
68.50124572752872
 30
0.0
 11
47.33790936376142
 21
50.51327311616325
 31
0.0
  0
LINE
  5
B96
330
156
100
AcDbEntity
  8
FINAL
  6
CONTINUOUS
100
AcDbLine
 10
34.7629088392364
 20
54.11327311616322
 30
0.0
 11
34.76290883923641
 21
68.50124572752879
 31
0.0
  0
LINE
  5
B97
330
156
100
AcDbEntity
  8
FINAL
  6
CONTINUOUS
100
AcDbLine
 10
47.33790936376142
 20
50.51327311616325
 30
0.0
 11
38.31658568579389
 21
50.51327311616325
 31
0.0
  0
LINE
  5
B98
330
156
100
AcDbEntity
  8
FINAL
  6
CONTINUOUS
100
AcDbLine
 10
38.31658568579389
 20
50.51327311616319
 30
0.0
 11
38.31658568579389
 21
54.11327311616322
 31
0.0
  0
LINE
  5
B99
330
156
100
AcDbEntity
  8
FINAL
  6
CONTINUOUS
100
AcDbLine
 10
38.31658568579389
 20
54.11327311616322
 30
0.0
 11
34.7629088392364
 21
54.11327311616322
 31
0.0
  0
LINE
  5
B9A
330
156
100
AcDbEntity
  8
FINAL
  6
CONTINUOUS
100
AcDbLine
 10
45.91658568579387
 20
64.90124572752876
 30
0.0
 11
45.91658568579386
 21
54.11327311616322
 31
0.0
  0
LINE
  5
B9B
330
156
100
AcDbEntity
  8
FINAL
  6
CONTINUOUS
100
AcDbLine
 10
42.3165856857939
 20
54.11327311616322
 30
0.0
 11
42.31658568579391
 21
64.90124572752876
 31
0.0
  0
LINE
  5
B9C
330
156
100
AcDbEntity
  8
FINAL
  6
CONTINUOUS
100
AcDbLine
 10
42.3165856857939
 20
54.11327311616322
 30
0.0
 11
45.91658568579386
 21
54.11327311616322
 31
0.0
  0
LINE
  5
B9D
330
156
100
AcDbEntity
  8
FINAL
  6
CONTINUOUS
100
AcDbLine
 10
45.91658568579392
 20
50.51327311616319
 30
0.0
 11
42.3165856857939
 21
50.51327311616319
 31
0.0
  0
LINE
  5
B9E
330
156
100
AcDbEntity
  8
FINAL
  6
CONTINUOUS
100
AcDbLine
 10
42.31658568579391
 20
64.90124572752876
 30
0.0
 11
45.91658568579393
 21
64.90124572752876
 31
0.0
  0
LINE
  5
B9F
330
156
100
AcDbEntity
  8
FINAL
  6
CONTINUOUS
100
AcDbLine
 10
47.33790936376144
 20
68.50124572752872
 30
0.0
 11
34.76290883923641
 21
68.50124572752879
 31
0.0
  0
LINE
  5
C64
330
156
100
AcDbEntity
  8
FINAL
  6
CONTINUOUS
100
AcDbLine
 10
78.24834026424463
 20
114.1933659954132
 30
0.0
 11
89.0483402642447
 21
114.1933659954131
 31
0.0
  0
LINE
  5
C65
330
156
100
AcDbEntity
  8
FINAL
  6
CONTINUOUS
100
AcDbLine
 10
89.0483402642447
 20
104.4386210039466
 30
0.0
 11
81.84834026424466
 21
104.4386210039466
 31
0.0
  0
LINE
  5
C66
330
156
100
AcDbEntity
  8
FINAL
  6
CONTINUOUS
100
AcDbLine
 10
81.84834026424466
 20
108.6386210039466
 30
0.0
 11
81.84834026424466
 21
104.4386210039466
 31
0.0
  0
LINE
  5
C67
330
156
100
AcDbEntity
  8
FINAL
  6
CONTINUOUS
100
AcDbLine
 10
81.84834026424466
 20
104.4386210039466
 30
0.0
 11
81.84834026424466
 21
104.4386210039466
 31
0.0
  0
LINE
  5
C68
330
156
100
AcDbEntity
  8
FINAL
  6
CONTINUOUS
100
AcDbLine
 10
81.84834026424466
 20
108.6386210039466
 30
0.0
 11
78.24834026424463
 21
108.6386210039466
 31
0.0
  0
LINE
  5
C69
330
156
100
AcDbEntity
  8
FINAL
  6
CONTINUOUS
100
AcDbLine
 10
78.24834026424463
 20
108.6386210039466
 30
0.0
 11
78.24834026424463
 21
114.1933659954132
 31
0.0
  0
LINE
  5
C6A
330
156
100
AcDbEntity
  8
FINAL
  6
CONTINUOUS
100
AcDbLine
 10
110.6483424398196
 20
108.6386210039466
 30
0.0
 11
110.6483424398196
 21
104.4386210039466
 31
0.0
  0
CIRCLE
  5
C6B
330
156
100
AcDbEntity
  8
FINAL
  6
CONTINUOUS
100
AcDbCircle
 10
96.2370078894607
 20
108.4386210039466
 30
0.0
 40
2.6
  0
LINE
  5
C6C
330
156
100
AcDbEntity
  8
FINAL
  6
CONTINUOUS
100
AcDbLine
 10
110.6483424398196
 20
104.4386210039466
 30
0.0
 11
103.4483424398196
 21
104.4386210039466
 31
0.0
  0
LINE
  5
C6D
330
156
100
AcDbEntity
  8
FINAL
  6
CONTINUOUS
100
AcDbLine
 10
103.4483424398196
 20
100.8386210039466
 30
0.0
 11
89.0483402642447
 21
100.8386210039466
 31
0.0
  0
LINE
  5
C6E
330
156
100
AcDbEntity
  8
FINAL
  6
CONTINUOUS
100
AcDbLine
 10
89.0483402642447
 20
100.8386210039466
 30
0.0
 11
89.0483402642447
 21
104.4386210039466
 31
0.0
  0
LINE
  5
C6F
330
156
100
AcDbEntity
  8
FINAL
  6
CONTINUOUS
100
AcDbLine
 10
103.4483424398196
 20
104.4386210039466
 30
0.0
 11
103.4483424398196
 21
100.8386210039466
 31
0.0
  0
LINE
  5
C70
330
156
100
AcDbEntity
  8
FINAL
  6
CONTINUOUS
100
AcDbLine
 10
110.6483424398196
 20
104.4386210039466
 30
0.0
 11
110.6483424398196
 21
104.4386210039466
 31
0.0
  0
LINE
  5
C71
330
156
100
AcDbEntity
  8
FINAL
  6
CONTINUOUS
100
AcDbLine
 10
103.4483424398196
 20
114.1933659954132
 30
0.0
 11
114.2483424398196
 21
114.1933659954132
 31
0.0
  0
LINE
  5
C72
330
156
100
AcDbEntity
  8
FINAL
  6
CONTINUOUS
100
AcDbLine
 10
103.4483424398196
 20
117.7933659954132
 30
0.0
 11
103.4483424398196
 21
114.1933659954132
 31
0.0
  0
LINE
  5
C73
330
156
100
AcDbEntity
  8
FINAL
  6
CONTINUOUS
100
AcDbLine
 10
89.0483402642447
 20
114.1933659954131
 30
0.0
 11
89.0483402642447
 21
117.7933659954132
 31
0.0
  0
LINE
  5
C74
330
156
100
AcDbEntity
  8
FINAL
  6
CONTINUOUS
100
AcDbLine
 10
89.0483402642447
 20
117.7933659954132
 30
0.0
 11
103.4483424398196
 21
117.7933659954132
 31
0.0
  0
LINE
  5
C75
330
156
100
AcDbEntity
  8
FINAL
  6
CONTINUOUS
100
AcDbLine
 10
114.2483424398196
 20
108.6386210039466
 30
0.0
 11
114.2483424398196
 21
114.1933659954132
 31
0.0
  0
LINE
  5
C76
330
156
100
AcDbEntity
  8
FINAL
  6
CONTINUOUS
100
AcDbLine
 10
110.6483424398196
 20
108.6386210039466
 30
0.0
 11
114.2483424398196
 21
108.6386210039466
 31
0.0
  0
LINE
  5
C77
330
156
100
AcDbEntity
  8
FINAL
  6
CONTINUOUS
100
AcDbLine
 10
103.4483424398196
 20
121.3933659954132
 30
0.0
 11
114.2483424398196
 21
121.3933659954132
 31
0.0
  0
LINE
  5
C78
330
156
100
AcDbEntity
  8
FINAL
  6
CONTINUOUS
100
AcDbLine
 10
110.6483424398196
 20
131.1481109868797
 30
0.0
 11
103.4483424398196
 21
131.1481109868797
 31
0.0
  0
LINE
  5
C79
330
156
100
AcDbEntity
  8
FINAL
  6
CONTINUOUS
100
AcDbLine
 10
89.0483402642447
 20
131.1481109868797
 30
0.0
 11
81.84834026424466
 21
131.1481109868797
 31
0.0
  0
LINE
  5
C7A
330
156
100
AcDbEntity
  8
FINAL
  6
CONTINUOUS
100
AcDbLine
 10
78.24834026424463
 20
121.3933659954132
 30
0.0
 11
89.0483402642447
 21
121.3933659954132
 31
0.0
  0
LINE
  5
C7B
330
156
100
AcDbEntity
  8
FINAL
  6
CONTINUOUS
100
AcDbLine
 10
81.84834026424466
 20
126.9481109868798
 30
0.0
 11
81.84834026424466
 21
131.1481109868797
 31
0.0
  0
LINE
  5
C7C
330
156
100
AcDbEntity
  8
FINAL
  6
CONTINUOUS
100
AcDbLine
 10
81.84834026424466
 20
131.1481109868797
 30
0.0
 11
81.84834026424466
 21
131.1481109868797
 31
0.0
  0
LINE
  5
C7D
330
156
100
AcDbEntity
  8
FINAL
  6
CONTINUOUS
100
AcDbLine
 10
81.84834026424466
 20
126.9481109868798
 30
0.0
 11
78.24834026424463
 21
126.9481109868798
 31
0.0
  0
LINE
  5
C7E
330
156
100
AcDbEntity
  8
FINAL
  6
CONTINUOUS
100
AcDbLine
 10
78.24834026424463
 20
126.9481109868798
 30
0.0
 11
78.24834026424463
 21
121.3933659954132
 31
0.0
  0
LINE
  5
C7F
330
156
100
AcDbEntity
  8
FINAL
  6
CONTINUOUS
100
AcDbLine
 10
89.0483402642447
 20
121.3933659954132
 30
0.0
 11
89.0483402642447
 21
117.7933659954132
 31
0.0
  0
LINE
  5
C80
330
156
100
AcDbEntity
  8
FINAL
  6
CONTINUOUS
100
AcDbLine
 10
103.4483424398196
 20
117.7933659954132
 30
0.0
 11
103.4483424398196
 21
121.3933659954132
 31
0.0
  0
LINE
  5
C81
330
156
100
AcDbEntity
  8
FINAL
  6
CONTINUOUS
100
AcDbLine
 10
103.4483424398196
 20
134.7481109868797
 30
0.0
 11
89.0483402642447
 21
134.7481109868797
 31
0.0
  0
CIRCLE
  5
C82
330
156
100
AcDbEntity
  8
FINAL
  6
CONTINUOUS
100
AcDbCircle
 10
96.2370078894607
 20
127.1481109868797
 30
0.0
 40
2.6
  0
LINE
  5
C83
330
156
100
AcDbEntity
  8
FINAL
  6
CONTINUOUS
100
AcDbLine
 10
89.0483402642447
 20
134.7481109868797
 30
0.0
 11
89.0483402642447
 21
131.1481109868797
 31
0.0
  0
LINE
  5
C84
330
156
100
AcDbEntity
  8
FINAL
  6
CONTINUOUS
100
AcDbLine
 10
103.4483424398196
 20
131.1481109868797
 30
0.0
 11
103.4483424398196
 21
134.7481109868797
 31
0.0
  0
LINE
  5
C85
330
156
100
AcDbEntity
  8
FINAL
  6
CONTINUOUS
100
AcDbLine
 10
89.0483402642447
 20
117.7933659954132
 30
0.0
 11
103.4483424398196
 21
117.7933659954132
 31
0.0
  0
LINE
  5
C86
330
156
100
AcDbEntity
  8
FINAL
  6
CONTINUOUS
100
AcDbLine
 10
110.6483424398196
 20
126.9481109868798
 30
0.0
 11
110.6483424398196
 21
131.1481109868797
 31
0.0
  0
LINE
  5
C87
330
156
100
AcDbEntity
  8
FINAL
  6
CONTINUOUS
100
AcDbLine
 10
110.6483424398196
 20
131.1481109868797
 30
0.0
 11
110.6483424398196
 21
131.1481109868797
 31
0.0
  0
LINE
  5
C88
330
156
100
AcDbEntity
  8
FINAL
  6
CONTINUOUS
100
AcDbLine
 10
110.6483424398196
 20
126.9481109868798
 30
0.0
 11
114.2483424398196
 21
126.9481109868798
 31
0.0
  0
LINE
  5
C89
330
156
100
AcDbEntity
  8
FINAL
  6
CONTINUOUS
100
AcDbLine
 10
114.2483424398196
 20
126.9481109868798
 30
0.0
 11
114.2483424398196
 21
121.3933659954132
 31
0.0
  0
ARC
  5
CA3
330
156
100
AcDbEntity
  8
FINAL
  6
CONTINUOUS
100
AcDbCircle
 10
35.61574806117103
 20
161.7962140753761
 30
0.0
 40
4.0
100
AcDbArc
 50
270.0
 51
180.0
  0
LINE
  5
CA4
330
156
100
AcDbEntity
  8
FINAL
  6
CONTINUOUS
100
AcDbLine
 10
18.82455973874584
 20
156.2414690839095
 30
0.0
 11
18.82455973874584
 21
165.9962140753761
 31
0.0
  0
LINE
  5
CA5
330
156
100
AcDbEntity
  8
FINAL
  6
CONTINUOUS
100
AcDbLine
 10
56.61833598250123
 20
165.9962140753761
 30
0.0
 11
56.61833598250121
 21
156.2414690839095
 31
0.0
  0
LINE
  5
CA6
330
156
100
AcDbEntity
  8
FINAL
  6
CONTINUOUS
100
AcDbLine
 10
42.61833741302621
 20
165.9962140753761
 30
0.0
 11
56.61833598250123
 21
165.9962140753761
 31
0.0
  0
LINE
  5
CA8
330
156
100
AcDbEntity
  8
FINAL
  6
CONTINUOUS
100
AcDbLine
 10
42.61833741302621
 20
169.5962140753761
 30
0.0
 11
42.61833741302621
 21
165.9962140753761
 31
0.0
  0
LINE
  5
CA9
330
156
100
AcDbEntity
  8
FINAL
  6
CONTINUOUS
100
AcDbLine
 10
18.82455973874584
 20
165.9962140753761
 30
0.0
 11
27.81574806117101
 21
165.9962140753761
 31
0.0
  0
LINE
  5
CAA
330
156
100
AcDbEntity
  8
FINAL
  6
CONTINUOUS
100
AcDbLine
 10
27.81574806117101
 20
165.9962140753761
 30
0.0
 11
27.81574806117101
 21
169.5962140753761
 31
0.0
  0
LINE
  5
CAB
330
156
100
AcDbEntity
  8
FINAL
  6
CONTINUOUS
100
AcDbLine
 10
56.61833598250121
 20
156.2414690839095
 30
0.0
 11
45.81833598250122
 21
156.2414690839095
 31
0.0
  0
LINE
  5
CAC
330
156
100
AcDbEntity
  8
FINAL
  6
CONTINUOUS
100
AcDbLine
 10
35.61574806117102
 20
152.6414690839096
 30
0.0
 11
35.61574806117102
 21
157.7962140753762
 31
0.0
  0
LINE
  5
CAD
330
156
100
AcDbEntity
  8
FINAL
  6
CONTINUOUS
100
AcDbLine
 10
45.81833598250122
 20
156.2414690839095
 30
0.0
 11
45.81833598250122
 21
152.6414690839095
 31
0.0
  0
LINE
  5
CAE
330
156
100
AcDbEntity
  8
FINAL
  6
CONTINUOUS
100
AcDbLine
 10
45.81833598250122
 20
152.6414690839095
 30
0.0
 11
35.61574806117102
 21
152.6414690839096
 31
0.0
  0
LINE
  5
CAF
330
156
100
AcDbEntity
  8
FINAL
  6
CONTINUOUS
100
AcDbLine
 10
22.42455973874587
 20
152.6414690839096
 30
0.0
 11
22.42455973874587
 21
156.2414690839095
 31
0.0
  0
LINE
  5
CB0
330
156
100
AcDbEntity
  8
FINAL
  6
CONTINUOUS
100
AcDbLine
 10
27.81574806117101
 20
161.7962140753762
 30
0.0
 11
27.81574806117101
 21
152.6414690839096
 31
0.0
  0
LINE
  5
CB1
330
156
100
AcDbEntity
  8
FINAL
  6
CONTINUOUS
100
AcDbLine
 10
31.61574806117101
 20
161.7962140753762
 30
0.0
 11
27.81574806117101
 21
161.7962140753762
 31
0.0
  0
LINE
  5
CB2
330
156
100
AcDbEntity
  8
FINAL
  6
CONTINUOUS
100
AcDbLine
 10
22.42455973874587
 20
156.2414690839095
 30
0.0
 11
18.82455973874584
 21
156.2414690839095
 31
0.0
  0
LINE
  5
CB3
330
156
100
AcDbEntity
  8
FINAL
  6
CONTINUOUS
100
AcDbLine
 10
27.81574806117101
 20
152.6414690839096
 30
0.0
 11
22.42455973874587
 21
152.6414690839096
 31
0.0
  0
LINE
  5
CBC
330
156
100
AcDbEntity
  8
FINAL
  6
CONTINUOUS
100
AcDbLine
 10
27.81574806117101
 20
169.5962140753761
 30
0.0
 11
42.61833741302621
 21
169.5962140753761
 31
0.0
  0
LINE
  5
CE7
330
156
100
AcDbEntity
  8
FINAL
  6
CONTINUOUS
100
AcDbLine
 10
70.61833455197628
 20
165.996214075376
 30
0.0
 11
56.61833598250126
 21
165.9962140753761
 31
0.0
  0
LINE
  5
CE8
330
156
100
AcDbEntity
  8
FINAL
  6
CONTINUOUS
100
AcDbLine
 10
56.61833598250123
 20
156.2414690839095
 30
0.0
 11
67.41833598250122
 21
156.2414690839094
 31
0.0
  0
LINE
  5
CE9
330
156
100
AcDbEntity
  8
FINAL
  6
CONTINUOUS
100
AcDbLine
 10
56.61833598250126
 20
165.9962140753761
 30
0.0
 11
56.61833598250123
 21
156.2414690839095
 31
0.0
  0
LINE
  5
CEA
330
156
100
AcDbEntity
  8
FINAL
  6
CONTINUOUS
100
AcDbLine
 10
94.41211222625666
 20
165.9962140753759
 30
0.0
 11
85.4209239038315
 21
165.9962140753759
 31
0.0
  0
LINE
  5
CEB
330
156
100
AcDbEntity
  8
FINAL
  6
CONTINUOUS
100
AcDbLine
 10
85.42092390383141
 20
152.6414690839094
 30
0.0
 11
90.81211222625654
 21
152.6414690839093
 31
0.0
  0
ARC
  5
CEC
330
156
100
AcDbEntity
  8
FINAL
  6
CONTINUOUS
100
AcDbCircle
 10
77.62092390383147
 20
161.796214075376
 30
0.0
 40
4.0
100
AcDbArc
 50
359.9999999999996
 51
269.9999999999997
  0
LINE
  5
CED
330
156
100
AcDbEntity
  8
FINAL
  6
CONTINUOUS
100
AcDbLine
 10
77.6209239038314
 20
152.6414690839094
 30
0.0
 11
77.62092390383142
 21
157.796214075376
 31
0.0
  0
LINE
  5
CEE
330
156
100
AcDbEntity
  8
FINAL
  6
CONTINUOUS
100
AcDbLine
 10
67.41833598250119
 20
152.6414690839094
 30
0.0
 11
77.6209239038314
 21
152.6414690839094
 31
0.0
  0
LINE
  5
CEF
330
156
100
AcDbEntity
  8
FINAL
  6
CONTINUOUS
100
AcDbLine
 10
67.41833598250122
 20
156.2414690839094
 30
0.0
 11
67.41833598250119
 21
152.6414690839094
 31
0.0
  0
LINE
  5
CF0
330
156
100
AcDbEntity
  8
FINAL
  6
CONTINUOUS
100
AcDbLine
 10
85.42092390383146
 20
161.796214075376
 30
0.0
 11
85.42092390383141
 21
152.6414690839094
 31
0.0
  0
LINE
  5
CF1
330
156
100
AcDbEntity
  8
FINAL
  6
CONTINUOUS
100
AcDbLine
 10
81.62092390383145
 20
161.796214075376
 30
0.0
 11
85.42092390383146
 21
161.796214075376
 31
0.0
  0
LINE
  5
CF2
330
156
100
AcDbEntity
  8
FINAL
  6
CONTINUOUS
100
AcDbLine
 10
85.42092390383151
 20
169.5962140753759
 30
0.0
 11
70.61833455197632
 21
169.596214075376
 31
0.0
  0
LINE
  5
CF3
330
156
100
AcDbEntity
  8
FINAL
  6
CONTINUOUS
100
AcDbLine
 10
70.61833455197632
 20
169.596214075376
 30
0.0
 11
70.61833455197628
 21
165.996214075376
 31
0.0
  0
LINE
  5
CF4
330
156
100
AcDbEntity
  8
FINAL
  6
CONTINUOUS
100
AcDbLine
 10
85.4209239038315
 20
165.9962140753759
 30
0.0
 11
85.42092390383151
 21
169.5962140753759
 31
0.0
  0
LINE
  5
CF5
330
156
100
AcDbEntity
  8
FINAL
  6
CONTINUOUS
100
AcDbLine
 10
94.41211222625659
 20
156.2414690839093
 30
0.0
 11
94.41211222625666
 21
165.9962140753759
 31
0.0
  0
LINE
  5
CF6
330
156
100
AcDbEntity
  8
FINAL
  6
CONTINUOUS
100
AcDbLine
 10
90.81211222625658
 20
156.2414690839093
 30
0.0
 11
94.41211222625659
 21
156.2414690839093
 31
0.0
  0
LINE
  5
CF7
330
156
100
AcDbEntity
  8
FINAL
  6
CONTINUOUS
100
AcDbLine
 10
90.81211222625654
 20
152.6414690839093
 30
0.0
 11
90.81211222625658
 21
156.2414690839093
 31
0.0
  0
LINE
  5
D1F
330
156
100
AcDbEntity
  8
FINAL
  6
CONTINUOUS
100
AcDbLine
 10
37.85214909060107
 20
149.0414690839095
 30
0.0
 11
51.8521476600761
 21
149.0414690839095
 31
0.0
  0
LINE
  5
D20
330
156
100
AcDbEntity
  8
FINAL
  6
CONTINUOUS
100
AcDbLine
 10
51.85214766007607
 20
139.2867240924429
 30
0.0
 11
41.05214766007608
 21
139.2867240924429
 31
0.0
  0
LINE
  5
D21
330
156
100
AcDbEntity
  8
FINAL
  6
CONTINUOUS
100
AcDbLine
 10
86.04592390383144
 20
139.2867240924428
 30
0.0
 11
89.64592390383145
 21
139.2867240924428
 31
0.0
  0
LINE
  5
D22
330
156
100
AcDbEntity
  8
FINAL
  6
CONTINUOUS
100
AcDbLine
 10
89.64592390383151
 20
149.0414690839093
 30
0.0
 11
80.65473558140636
 21
149.0414690839094
 31
0.0
  0
LINE
  5
D23
330
156
100
AcDbEntity
  8
FINAL
  6
CONTINUOUS
100
AcDbLine
 10
89.64592390383145
 20
139.2867240924428
 30
0.0
 11
89.64592390383151
 21
149.0414690839093
 31
0.0
  0
LINE
  5
D24
330
156
100
AcDbEntity
  8
FINAL
  6
CONTINUOUS
100
AcDbLine
 10
62.65214766007606
 20
135.6867240924428
 30
0.0
 11
72.85473558140626
 21
135.6867240924428
 31
0.0
  0
LINE
  5
D25
330
156
100
AcDbEntity
  8
FINAL
  6
CONTINUOUS
100
AcDbLine
 10
65.85214622955115
 20
149.0414690839094
 30
0.0
 11
51.85214766007613
 21
149.0414690839095
 31
0.0
  0
ARC
  5
D26
330
156
100
AcDbEntity
  8
FINAL
  6
CONTINUOUS
100
AcDbCircle
 10
72.85473558140634
 20
144.8414690839094
 30
0.0
 40
4.0
100
AcDbArc
 50
0.0
 51
270.0
  0
LINE
  5
D27
330
156
100
AcDbEntity
  8
FINAL
  6
CONTINUOUS
100
AcDbLine
 10
80.65473558140633
 20
144.8414690839094
 30
0.0
 11
80.65473558140627
 21
135.6867240924428
 31
0.0
  0
LINE
  5
D28
330
156
100
AcDbEntity
  8
FINAL
  6
CONTINUOUS
100
AcDbLine
 10
86.04592390383141
 20
135.6867240924428
 30
0.0
 11
86.04592390383144
 21
139.2867240924428
 31
0.0
  0
LINE
  5
D29
330
156
100
AcDbEntity
  8
FINAL
  6
CONTINUOUS
100
AcDbLine
 10
80.65473558140627
 20
135.6867240924428
 30
0.0
 11
86.04592390383141
 21
135.6867240924428
 31
0.0
  0
LINE
  5
D2A
330
156
100
AcDbEntity
  8
FINAL
  6
CONTINUOUS
100
AcDbLine
 10
76.85473558140632
 20
144.8414690839094
 30
0.0
 11
80.65473558140633
 21
144.8414690839094
 31
0.0
  0
LINE
  5
D2B
330
156
100
AcDbEntity
  8
FINAL
  6
CONTINUOUS
100
AcDbLine
 10
72.85473558140626
 20
135.6867240924428
 30
0.0
 11
72.85473558140629
 21
140.8414690839095
 31
0.0
  0
LINE
  5
D2C
330
156
100
AcDbEntity
  8
FINAL
  6
CONTINUOUS
100
AcDbLine
 10
80.65473558140638
 20
152.6414690839094
 30
0.0
 11
65.85214622955118
 21
152.6414690839094
 31
0.0
  0
LINE
  5
D2D
330
156
100
AcDbEntity
  8
FINAL
  6
CONTINUOUS
100
AcDbLine
 10
80.65473558140636
 20
149.0414690839094
 30
0.0
 11
80.65473558140638
 21
152.6414690839094
 31
0.0
  0
LINE
  5
D2E
330
156
100
AcDbEntity
  8
FINAL
  6
CONTINUOUS
100
AcDbLine
 10
65.85214622955118
 20
152.6414690839094
 30
0.0
 11
65.85214622955115
 21
149.0414690839094
 31
0.0
  0
LINE
  5
D2F
330
156
100
AcDbEntity
  8
FINAL
  6
CONTINUOUS
100
AcDbLine
 10
51.85214766007613
 20
149.0414690839095
 30
0.0
 11
51.8521476600761
 21
139.2867240924429
 31
0.0
  0
LINE
  5
D30
330
156
100
AcDbEntity
  8
FINAL
  6
CONTINUOUS
100
AcDbLine
 10
51.8521476600761
 20
149.0414690839095
 30
0.0
 11
51.85214766007607
 21
139.2867240924429
 31
0.0
  0
LINE
  5
D31
330
156
100
AcDbEntity
  8
FINAL
  6
CONTINUOUS
100
AcDbLine
 10
51.8521476600761
 20
139.2867240924429
 30
0.0
 11
62.65214766007608
 21
139.2867240924429
 31
0.0
  0
LINE
  5
D32
330
156
100
AcDbEntity
  8
FINAL
  6
CONTINUOUS
100
AcDbLine
 10
62.65214766007608
 20
139.2867240924429
 30
0.0
 11
62.65214766007606
 21
135.6867240924428
 31
0.0
  0
LINE
  5
D33
330
156
100
AcDbEntity
  8
FINAL
  6
CONTINUOUS
100
AcDbLine
 10
14.05837141632071
 20
149.0414690839095
 30
0.0
 11
23.04955973874587
 21
149.0414690839095
 31
0.0
  0
LINE
  5
D34
330
156
100
AcDbEntity
  8
FINAL
  6
CONTINUOUS
100
AcDbLine
 10
23.04955973874587
 20
135.686724092443
 30
0.0
 11
17.65837141632073
 21
135.686724092443
 31
0.0
  0
ARC
  5
D35
330
156
100
AcDbEntity
  8
FINAL
  6
CONTINUOUS
100
AcDbCircle
 10
30.84955973874591
 20
144.8414690839095
 30
0.0
 40
4.0
100
AcDbArc
 50
270.0
 51
180.0
  0
LINE
  5
D36
330
156
100
AcDbEntity
  8
FINAL
  6
CONTINUOUS
100
AcDbLine
 10
30.84955973874588
 20
135.686724092443
 30
0.0
 11
30.84955973874588
 21
140.8414690839096
 31
0.0
  0
LINE
  5
D37
330
156
100
AcDbEntity
  8
FINAL
  6
CONTINUOUS
100
AcDbLine
 10
41.05214766007608
 20
135.686724092443
 30
0.0
 11
30.84955973874588
 21
135.686724092443
 31
0.0
  0
LINE
  5
D38
330
156
100
AcDbEntity
  8
FINAL
  6
CONTINUOUS
100
AcDbLine
 10
41.05214766007608
 20
139.2867240924429
 30
0.0
 11
41.05214766007608
 21
135.686724092443
 31
0.0
  0
LINE
  5
D39
330
156
100
AcDbEntity
  8
FINAL
  6
CONTINUOUS
100
AcDbLine
 10
23.04955973874587
 20
144.8414690839096
 30
0.0
 11
23.04955973874587
 21
135.686724092443
 31
0.0
  0
LINE
  5
D3A
330
156
100
AcDbEntity
  8
FINAL
  6
CONTINUOUS
100
AcDbLine
 10
26.84955973874588
 20
144.8414690839096
 30
0.0
 11
23.04955973874587
 21
144.8414690839096
 31
0.0
  0
LINE
  5
D3B
330
156
100
AcDbEntity
  8
FINAL
  6
CONTINUOUS
100
AcDbLine
 10
23.04955973874587
 20
152.6414690839096
 30
0.0
 11
37.85214909060107
 21
152.6414690839096
 31
0.0
  0
LINE
  5
D3C
330
156
100
AcDbEntity
  8
FINAL
  6
CONTINUOUS
100
AcDbLine
 10
37.85214909060107
 20
152.6414690839096
 30
0.0
 11
37.85214909060107
 21
149.0414690839095
 31
0.0
  0
LINE
  5
D3D
330
156
100
AcDbEntity
  8
FINAL
  6
CONTINUOUS
100
AcDbLine
 10
23.04955973874587
 20
149.0414690839095
 30
0.0
 11
23.04955973874587
 21
152.6414690839096
 31
0.0
  0
LINE
  5
D3E
330
156
100
AcDbEntity
  8
FINAL
  6
CONTINUOUS
100
AcDbLine
 10
14.05837141632071
 20
139.286724092443
 30
0.0
 11
14.05837141632071
 21
149.0414690839095
 31
0.0
  0
LINE
  5
D3F
330
156
100
AcDbEntity
  8
FINAL
  6
CONTINUOUS
100
AcDbLine
 10
17.65837141632073
 20
139.286724092443
 30
0.0
 11
14.05837141632071
 21
139.286724092443
 31
0.0
  0
LINE
  5
D40
330
156
100
AcDbEntity
  8
FINAL
  6
CONTINUOUS
100
AcDbLine
 10
17.65837141632073
 20
135.686724092443
 30
0.0
 11
17.65837141632073
 21
139.286724092443
 31
0.0
  0
ENDSEC
  0
SECTION
  2
OBJECTS
  0
DICTIONARY
  5
144
330
0
100
AcDbDictionary
  3
ACAD_GROUP
350
145
  3
ACAD_LAYOUT
350
151
  3
ACAD_MLINESTYLE
350
14E
  3
ACAD_PLOTSETTINGS
350
150
1001
ACAD
1000
TREAT_AS_HARD
1070
     0
  0
DICTIONARY
  5
D66
330
156
100
AcDbDictionary
  3
ACAD_LAYOUTSELFREF
350
D67
  0
DICTIONARY
  5
D64
330
152
100
AcDbDictionary
  3
ACAD_LAYOUTSELFREF
350
D65
  0
DICTIONARY
  5
145
102
{ACAD_REACTORS
330
144
102
}
330
144
100
AcDbDictionary
1001
ACAD
1000
TREAT_AS_HARD
1070
     0
  0
DICTIONARY
  5
151
102
{ACAD_REACTORS
330
144
102
}
330
144
100
AcDbDictionary
1001
ACAD
1000
TREAT_AS_HARD
1070
     0
  0
DICTIONARY
  5
14E
102
{ACAD_REACTORS
330
144
102
}
330
144
100
AcDbDictionary
  3
STANDARD
350
14F
1001
ACAD
1000
TREAT_AS_HARD
1070
     0
  0
DICTIONARY
  5
150
102
{ACAD_REACTORS
330
144
102
}
330
144
100
AcDbDictionary
1001
ACAD
1000
TREAT_AS_HARD
1070
     0
  0
XRECORD
  5
D67
102
{ACAD_REACTORS
330
D66
102
}
330
D66
100
AcDbXrecord
340
156
  0
XRECORD
  5
D65
102
{ACAD_REACTORS
330
D64
102
}
330
D64
100
AcDbXrecord
340
152
  0
MLINESTYLE
  5
14F
102
{ACAD_REACTORS
330
14E
102
}
330
14E
100
AcDbMlineStyle
  2
STANDARD
 70
     0
  3

 62
   256
 51
90.0
 52
90.0
 71
     2
 49
0.5
 62
   256
  6
BYLAYER
 49
-0.5
 62
   256
  6
BYLAYER
  0
ENDSEC
  0
EOF
