999
dxflib 2.2.0.0
  0
SECTION
  2
HEADER
  9
$ACADVER
  1
AC1015
  9
$HANDSEED
  5
FFFF
  9
$DIMASZ
 40
2.5
  9
$PLIMMIN
 10
0.0
 20
0.0
  9
$DIMEXE
 40
1.25
  9
$DIMGAP
 40
0.625
  9
$PLIMMAX
 10
210.0
 20
297.0
  9
$INSUNITS
 70
4
  9
$DIMSTYLE
  2
Standard
  9
$CLAYER
  8
0
  9
$DIMEXO
 40
0.625
  9
$DIMTXT
 40
2.5
  9
$CLAYER
  8
0
  0
ENDSEC
  0
SECTION
  2
TABLES
  0
TABLE
  2
VPORT
  5
8
100
AcDbSymbolTable
 70
1
  0
VPORT
  5
30
100
AcDbSymbolTableRecord
100
AcDbViewportTableRecord
  2
*Active
 70
0
 10
0.0
 20
0.0
 11
1.0
 21
1.0
 12
286.3055555555554861
 22
148.5
 13
0.0
 23
0.0
 14
10.0
 24
10.0
 15
10.0
 25
10.0
 16
0.0
 26
0.0
 36
1.0
 17
0.0
 27
0.0
 37
0.0
 40
297.0
 41
1.92798353909465
 42
50.0
 43
0.0
 44
0.0
 50
0.0
 51
0.0
 71
0
 72
100
 73
1
 74
3
 75
1
 76
1
 77
0
 78
0
281
0
 65
1
110
0.0
120
0.0
130
0.0
111
1.0
121
0.0
131
0.0
112
0.0
122
1.0
132
0.0
 79
0
146
0.0
  0
ENDTAB
  0
TABLE
  2
LTYPE
  5
5
100
AcDbSymbolTable
 70
21
  0
LTYPE
  5
14
100
AcDbSymbolTableRecord
100
AcDbLinetypeTableRecord
  2
ByBlock
 70
0
  3

 72
65
 73
0
 40
0.0
  0
LTYPE
  5
15
100
AcDbSymbolTableRecord
100
AcDbLinetypeTableRecord
  2
ByLayer
 70
0
  3

 72
65
 73
0
 40
0.0
  0
LTYPE
  5
16
100
AcDbSymbolTableRecord
100
AcDbLinetypeTableRecord
  2
CONTINUOUS
 70
0
  3
Solid line
 72
65
 73
0
 40
0.0
  0
LTYPE
  5
31
100
AcDbSymbolTableRecord
100
AcDbLinetypeTableRecord
  2
DOT
 70
0
  3
Dot . . . . . . . . . . . . . . . . . . . . . .
 72
65
 73
2
 40
6.3499999999999996
 49
0.0
 74
0
 49
-6.3499999999999996
 74
0
  0
LTYPE
  5
32
100
AcDbSymbolTableRecord
100
AcDbLinetypeTableRecord
  2
DOT2
 70
0
  3
Dot (.5x) .....................................
 72
65
 73
2
 40
3.1749999999999998
 49
0.0
 74
0
 49
-3.1749999999999998
 74
0
  0
LTYPE
  5
33
100
AcDbSymbolTableRecord
100
AcDbLinetypeTableRecord
  2
DOTX2
 70
0
  3
Dot (2x) .  .  .  .  .  .  .  .  .  .  .  .  .
 72
65
 73
2
 40
12.6999999999999993
 49
0.0
 74
0
 49
-12.6999999999999993
 74
0
  0
LTYPE
  5
34
100
AcDbSymbolTableRecord
100
AcDbLinetypeTableRecord
  2
DASHED
 70
0
  3
Dashed __ __ __ __ __ __ __ __ __ __ __ __ __ _
 72
65
 73
2
 40
19.0500000000000007
 49
12.6999999999999993
 74
0
 49
-6.3499999999999996
 74
0
  0
LTYPE
  5
35
100
AcDbSymbolTableRecord
100
AcDbLinetypeTableRecord
  2
DASHED2
 70
0
  3
Dashed (.5x) _ _ _ _ _ _ _ _ _ _ _ _ _ _ _ _ _
 72
65
 73
2
 40
9.5250000000000004
 49
6.3499999999999996
 74
0
 49
-3.1749999999999998
 74
0
  0
LTYPE
  5
36
100
AcDbSymbolTableRecord
100
AcDbLinetypeTableRecord
  2
DASHEDX2
 70
0
  3
Dashed (2x) ____  ____  ____  ____  ____  ___
 72
65
 73
2
 40
38.1000000000000014
 49
25.3999999999999986
 74
0
 49
-12.6999999999999993
 74
0
  0
LTYPE
  5
37
100
AcDbSymbolTableRecord
100
AcDbLinetypeTableRecord
  2
DASHDOT
 70
0
  3
Dash dot __ . __ . __ . __ . __ . __ . __ . __
 72
65
 73
4
 40
25.3999999999999986
 49
12.6999999999999993
 74
0
 49
-6.3499999999999996
 74
0
 49
0.0
 74
0
 49
-6.3499999999999996
 74
0
  0
LTYPE
  5
38
100
AcDbSymbolTableRecord
100
AcDbLinetypeTableRecord
  2
DASHDOT2
 70
0
  3
Dash dot (.5x) _._._._._._._._._._._._._._._.
 72
65
 73
4
 40
12.6999999999999993
 49
6.3499999999999996
 74
0
 49
-3.1749999999999998
 74
0
 49
0.0
 74
0
 49
-3.1749999999999998
 74
0
  0
LTYPE
  5
39
100
AcDbSymbolTableRecord
100
AcDbLinetypeTableRecord
  2
DASHDOTX2
 70
0
  3
Dash dot (2x) ____  .  ____  .  ____  .  ___
 72
65
 73
4
 40
50.7999999999999972
 49
25.3999999999999986
 74
0
 49
-12.6999999999999993
 74
0
 49
0.0
 74
0
 49
-12.6999999999999993
 74
0
  0
LTYPE
  5
3A
100
AcDbSymbolTableRecord
100
AcDbLinetypeTableRecord
  2
DIVIDE
 70
0
  3
Divide ____ . . ____ . . ____ . . ____ . . ____
 72
65
 73
6
 40
31.75
 49
12.6999999999999993
 74
0
 49
-6.3499999999999996
 74
0
 49
0.0
 74
0
 49
-6.3499999999999996
 74
0
 49
0.0
 74
0
 49
-6.3499999999999996
 74
0
  0
LTYPE
  5
3B
100
AcDbSymbolTableRecord
100
AcDbLinetypeTableRecord
  2
DIVIDE2
 70
0
  3
Divide (.5x) __..__..__..__..__..__..__..__.._
 72
65
 73
6
 40
15.875
 49
6.3499999999999996
 74
0
 49
-3.1749999999999998
 74
0
 49
0.0
 74
0
 49
-3.1749999999999998
 74
0
 49
0.0
 74
0
 49
-3.1749999999999998
 74
0
  0
LTYPE
  5
3C
100
AcDbSymbolTableRecord
100
AcDbLinetypeTableRecord
  2
DIVIDEX2
 70
0
  3
Divide (2x) ________  .  .  ________  .  .  _
 72
65
 73
6
 40
63.5
 49
25.3999999999999986
 74
0
 49
-12.6999999999999993
 74
0
 49
0.0
 74
0
 49
-12.6999999999999993
 74
0
 49
0.0
 74
0
 49
-12.6999999999999993
 74
0
  0
LTYPE
  5
3D
100
AcDbSymbolTableRecord
100
AcDbLinetypeTableRecord
  2
CENTER
 70
0
  3
Center ____ _ ____ _ ____ _ ____ _ ____ _ ____
 72
65
 73
4
 40
50.7999999999999972
 49
31.75
 74
0
 49
-6.3499999999999996
 74
0
 49
6.3499999999999996
 74
0
 49
-6.3499999999999996
 74
0
  0
LTYPE
  5
3E
100
AcDbSymbolTableRecord
100
AcDbLinetypeTableRecord
  2
CENTER2
 70
0
  3
Center (.5x) ___ _ ___ _ ___ _ ___ _ ___ _ ___
 72
65
 73
4
 40
28.5749999999999993
 49
19.0500000000000007
 74
0
 49
-3.1749999999999998
 74
0
 49
3.1749999999999998
 74
0
 49
-3.1749999999999998
 74
0
  0
LTYPE
  5
3F
100
AcDbSymbolTableRecord
100
AcDbLinetypeTableRecord
  2
CENTERX2
 70
0
  3
Center (2x) ________  __  ________  __  _____
 72
65
 73
4
 40
101.5999999999999943
 49
63.5
 74
0
 49
-12.6999999999999993
 74
0
 49
12.6999999999999993
 74
0
 49
-12.6999999999999993
 74
0
  0
LTYPE
  5
40
100
AcDbSymbolTableRecord
100
AcDbLinetypeTableRecord
  2
BORDER
 70
0
  3
Border __ __ . __ __ . __ __ . __ __ . __ __ .
 72
65
 73
6
 40
44.4500000000000028
 49
12.6999999999999993
 74
0
 49
-6.3499999999999996
 74
0
 49
12.6999999999999993
 74
0
 49
-6.3499999999999996
 74
0
 49
0.0
 74
0
 49
-6.3499999999999996
 74
0
  0
LTYPE
  5
41
100
AcDbSymbolTableRecord
100
AcDbLinetypeTableRecord
  2
BORDER2
 70
0
  3
Border (.5x) __.__.__.__.__.__.__.__.__.__.__.
 72
65
 73
6
 40
22.2250000000000014
 49
6.3499999999999996
 74
0
 49
-3.1749999999999998
 74
0
 49
6.3499999999999996
 74
0
 49
-3.1749999999999998
 74
0
 49
0.0
 74
0
 49
-3.1749999999999998
 74
0
  0
LTYPE
  5
42
100
AcDbSymbolTableRecord
100
AcDbLinetypeTableRecord
  2
BORDERX2
 70
0
  3
Border (2x) ____  ____  .  ____  ____  .  ___
 72
65
 73
6
 40
88.9000000000000057
 49
25.3999999999999986
 74
0
 49
-12.6999999999999993
 74
0
 49
25.3999999999999986
 74
0
 49
-12.6999999999999993
 74
0
 49
0.0
 74
0
 49
-12.6999999999999993
 74
0
  0
ENDTAB
  0
TABLE
  2
LAYER
  5
2
100
AcDbSymbolTable
 70
6
  0
LAYER
  5
10
100
AcDbSymbolTableRecord
100
AcDbLayerTableRecord
  2
0
 70
0
 62
7
420
16777215
  6
CONTINUOUS
370
0
390
F
  0
LAYER
  5
43
100
AcDbSymbolTableRecord
100
AcDbLayerTableRecord
  2
Text
 70
0
 62
4
420
65535
  6
CONTINUOUS
370
0
390
F
  0
LAYER
  5
44
100
AcDbSymbolTableRecord
100
AcDbLayerTableRecord
  2
Drawings
 70
0
 62
5
420
255
  6
CONTINUOUS
370
0
390
F
  0
LAYER
  5
45
100
AcDbSymbolTableRecord
100
AcDbLayerTableRecord
  2
Notes
 70
0
 62
7
420
16777215
  6
CONTINUOUS
370
0
390
F
  0
LAYER
  5
46
100
AcDbSymbolTableRecord
100
AcDbLayerTableRecord
  2
gear1
 70
0
 62
7
420
0
  6
CONTINUOUS
370
0
390
F
  0
LAYER
  5
47
100
AcDbSymbolTableRecord
100
AcDbLayerTableRecord
  2
drawings
 70
0
 62
7
420
0
  6
CONTINUOUS
370
0
390
F
  0
ENDTAB
  0
TABLE
  2
STYLE
  5
3
100
AcDbSymbolTable
 70
1
  0
STYLE
  5
11
100
AcDbSymbolTableRecord
100
AcDbTextStyleTableRecord
  2
Standard
 70
0
 40
0.0
 41
0.75
 50
0.0
 71
0
 42
2.5
  3
txt
  4

  0
ENDTAB
  0
TABLE
  2
VIEW
  5
6
100
AcDbSymbolTable
 70
0
  0
ENDTAB
  0
TABLE
  2
UCS
  5
7
100
AcDbSymbolTable
 70
0
  0
ENDTAB
  0
TABLE
  2
APPID
  5
9
100
AcDbSymbolTable
 70
1
  0
APPID
  5
12
100
AcDbSymbolTableRecord
100
AcDbRegAppTableRecord
  2
ACAD
 70
0
  0
ENDTAB
  0
TABLE
  2
DIMSTYLE
  5
A
100
AcDbSymbolTable
 70
1
100
AcDbDimStyleTable
 71
0
  0
DIMSTYLE
105
27
100
AcDbSymbolTableRecord
100
AcDbDimStyleTableRecord
  2
Standard
 41
2.5
 42
0.625
 43
3.75
 44
1.25
 70
0
 73
0
 74
0
 77
1
 78
8
140
2.5
141
2.5
143
0.03937007874016
147
0.625
171
3
172
1
271
2
272
2
274
3
278
44
283
0
284
8
340
11
  0
ENDTAB
  0
TABLE
  2
BLOCK_RECORD
  5
1
100
AcDbSymbolTable
 70
1
  0
BLOCK_RECORD
  5
1F
100
AcDbSymbolTableRecord
100
AcDbBlockTableRecord
  2
*Model_Space
340
22
  0
BLOCK_RECORD
  5
1B
100
AcDbSymbolTableRecord
100
AcDbBlockTableRecord
  2
*Paper_Space
340
1E
  0
BLOCK_RECORD
  5
23
100
AcDbSymbolTableRecord
100
AcDbBlockTableRecord
  2
*Paper_Space0
340
26
  0
ENDTAB
  0
ENDSEC
  0
SECTION
  2
BLOCKS
  0
BLOCK
  5
20
100
AcDbEntity
  8
0
100
AcDbBlockBegin
  2
*Model_Space
 70
0
 10
0.0
 20
0.0
 30
0.0
  3
*Model_Space
  1

  0
ENDBLK
  5
21
100
AcDbEntity
  8
0
100
AcDbBlockEnd
  0
BLOCK
  5
1C
100
AcDbEntity
 67
1
  8
0
100
AcDbBlockBegin
  2
*Paper_Space
 70
0
 10
0.0
 20
0.0
 30
0.0
  3
*Paper_Space
  1

  0
ENDBLK
  5
1D
100
AcDbEntity
 67
1
  8
0
100
AcDbBlockEnd
  0
BLOCK
  5
24
100
AcDbEntity
  8
0
100
AcDbBlockBegin
  2
*Paper_Space0
 70
0
 10
0.0
 20
0.0
 30
0.0
  3
*Paper_Space0
  1

  0
ENDBLK
  5
25
100
AcDbEntity
  8
0
100
AcDbBlockEnd
  0
ENDSEC
  0
SECTION
  2
ENTITIES
  0
MTEXT
  5
48
100
AcDbEntity
100
AcDbMText
  8
Notes
 62
256
370
-1
  6
ByLayer
 10
40.0
 20
70.0
 30
0.0
 40
3.0
 41
100.0
 71
1
 72
2
  1
Spur\~Gear\PMaterial:\~1/4"\~acrylic
  7
standard
 50
0.0
 73
1
 44
1.0
  0
LINE
  5
49
100
AcDbEntity
100
AcDbLine
  8
Drawings
 62
256
370
0
  6
ByLayer
 10
57.5461559037396384
 20
39.930928327322917
 30
0.0
 11
52.5461559037396384
 21
39.930928327322917
 31
0.0
  0
LINE
  5
4A
100
AcDbEntity
100
AcDbLine
  8
Drawings
 62
256
370
0
  6
ByLayer
 10
57.5461559037396384
 20
39.930928327322917
 30
0.0
 11
62.5461559037396384
 21
39.930928327322917
 31
0.0
  0
CIRCLE
  5
4B
100
AcDbEntity
100
AcDbCircle
  8
Drawings
 62
256
370
0
  6
ByLayer
 10
57.5461559037396384
 20
39.930928327322917
 30
0.0
 40
5.0
  0
LINE
  5
4C
100
AcDbEntity
100
AcDbLine
  8
Drawings
 62
256
370
0
  6
ByLayer
 10
57.5461559037396384
 20
39.930928327322917
 30
0.0
 11
57.5461559037396384
 21
44.930928327322917
 31
0.0
  0
LINE
  5
4D
100
AcDbEntity
100
AcDbLine
  8
Drawings
 62
256
370
0
  6
ByLayer
 10
57.5461559037396384
 20
39.930928327322917
 30
0.0
 11
57.5461559037396384
 21
34.930928327322917
 31
0.0
  0
MTEXT
  5
4E
100
AcDbEntity
100
AcDbMText
  8
Text
 62
256
370
0
  6
ByLayer
 10
57.5461559037396384
 20
44.930928327322917
 30
0.0
 40
2.0
 41
100.0
 71
5
 72
2
  1
Spur
  7
standard
 50
0.0
 73
0
 44
1.0
  0
MTEXT
  5
4F
100
AcDbEntity
100
AcDbMText
  8
Text
 62
256
370
0
  6
ByLayer
 10
57.5461559037396384
 20
34.930928327322917
 30
0.0
 40
2.0
 41
100.0
 71
5
 72
2
  1
Gear
  7
standard
 50
0.0
 73
0
 44
1.0
  0
LINE
  5
50
100
AcDbEntity
100
AcDbLine
  8
0
 62
256
370
0
  6
ByLayer
 10
60.086746386284986
 20
42.0759283273229201
 30
0.0
 11
55.0055654211942908
 21
42.0759283273229201
 31
0.0
  0
ARC
  5
51
100
AcDbEntity
  8
0
 62
256
370
0
  6
ByLayer
100
AcDbCircle
 10
57.5461559037396384
 20
39.930928327322917
 30
0.0
 40
3.3250000000000002
100
AcDbArc
 50
319.8258680010101784
 51
40.1741319989898216
  0
ARC
  5
52
100
AcDbEntity
  8
0
 62
256
370
0
  6
ByLayer
100
AcDbCircle
 10
57.5461559037396384
 20
39.930928327322917
 30
0.0
 40
3.3250000000000002
100
AcDbArc
 50
139.8258680010101784
 51
220.1741319989898216
  0
LINE
  5
53
100
AcDbEntity
100
AcDbLine
  8
0
 62
256
370
0
  6
ByLayer
 10
60.086746386284986
 20
37.7859283273229138
 30
0.0
 11
55.0055654211942908
 21
37.7859283273229138
 31
0.0
  0
CIRCLE
  5
54
100
AcDbEntity
100
AcDbCircle
  8
drawings
 62
7
420
0
370
0
  6
ByLayer
 10
57.5461559037396384
 20
39.930928327322917
 30
0.0
 40
15.1473683468846332
  0
LINE
  5
55
100
AcDbEntity
100
AcDbLine
  8
0
 62
7
420
0
370
0
  6
ByLayer
 10
71.1192918177485183
 20
41.2028973867917401
 30
0.0
 11
71.7179326441964662
 21
41.2590493400537923
 31
0.0
  0
LINE
  5
56
100
AcDbEntity
100
AcDbLine
  8
0
 62
7
420
0
370
0
  6
ByLayer
 10
71.7179326441964662
 20
41.2590493400537923
 30
0.0
 11
72.6468257661758372
 21
41.1193826956299375
 31
0.0
  0
LINE
  5
57
100
AcDbEntity
100
AcDbLine
  8
0
 62
7
420
0
370
0
  6
ByLayer
 10
72.6468257661758372
 20
41.1193826956299375
 30
0.0
 11
74.1998179533374014
 21
40.4572138808606923
 31
0.0
  0
LINE
  5
58
100
AcDbEntity
100
AcDbLine
  8
0
 62
7
420
0
370
0
  6
ByLayer
 10
74.1998179533374014
 20
40.4572138808606923
 30
0.0
 11
74.1998179533374014
 21
39.4045949157949167
 31
0.0
  0
LINE
  5
59
100
AcDbEntity
100
AcDbLine
  8
0
 62
7
420
0
370
0
  6
ByLayer
 10
74.1998179533374014
 20
39.4045949157949167
 30
0.0
 11
72.6468257661758372
 21
38.7424261010256643
 31
0.0
  0
LINE
  5
5A
100
AcDbEntity
100
AcDbLine
  8
0
 62
7
420
0
370
0
  6
ByLayer
 10
72.6468257661758372
 20
38.7424261010256643
 30
0.0
 11
71.7179326441964662
 21
38.6027594566018166
 31
0.0
  0
LINE
  5
5B
100
AcDbEntity
100
AcDbLine
  8
0
 62
7
420
0
370
0
  6
ByLayer
 10
71.7179326441964662
 20
38.6027594566018166
 30
0.0
 11
71.1192918177485183
 21
38.658911409863876
 31
0.0
  0
LINE
  5
5C
100
AcDbEntity
100
AcDbLine
  8
0
 62
7
420
0
370
0
  6
ByLayer
 10
71.1192918177485183
 20
38.658911409863876
 30
0.0
 11
70.8480478026914682
 21
36.9462650323662629
 31
0.0
  0
LINE
  5
5D
100
AcDbEntity
100
AcDbLine
  8
0
 62
7
420
0
370
0
  6
ByLayer
 10
70.8480478026914682
 20
36.9462650323662629
 30
0.0
 11
71.4345534538458082
 21
36.814688504804856
 31
0.0
  0
LINE
  5
5E
100
AcDbEntity
100
AcDbLine
  8
0
 62
7
420
0
370
0
  6
ByLayer
 10
71.4345534538458082
 20
36.814688504804856
 30
0.0
 11
72.274934998185401
 21
36.3947350573429134
 31
0.0
  0
LINE
  5
5F
100
AcDbEntity
100
AcDbLine
  8
0
 62
7
420
0
370
0
  6
ByLayer
 10
72.274934998185401
 20
36.3947350573429134
 30
0.0
 11
73.5474043222086493
 21
35.2850131540400085
 31
0.0
  0
LINE
  5
60
100
AcDbEntity
100
AcDbLine
  8
0
 62
7
420
0
370
0
  6
ByLayer
 10
73.5474043222086493
 20
35.2850131540400085
 30
0.0
 11
73.2221489131552374
 21
34.2842641806330946
 31
0.0
  0
LINE
  5
61
100
AcDbEntity
100
AcDbLine
  8
0
 62
7
420
0
370
0
  6
ByLayer
 10
73.2221489131552374
 20
34.2842641806330946
 30
0.0
 11
71.5404339964292433
 21
34.1343660170094267
 31
0.0
  0
LINE
  5
62
100
AcDbEntity
100
AcDbLine
  8
0
 62
7
420
0
370
0
  6
ByLayer
 10
71.5404339964292433
 20
34.1343660170094267
 30
0.0
 11
70.6139208661028874
 21
34.2885469853080949
 31
0.0
  0
LINE
  5
63
100
AcDbEntity
100
AcDbLine
  8
0
 62
7
420
0
370
0
  6
ByLayer
 10
70.6139208661028874
 20
34.2885469853080949
 30
0.0
 11
70.0619145555202465
 21
34.5267189803278143
 31
0.0
  0
LINE
  5
64
100
AcDbEntity
100
AcDbLine
  8
0
 62
7
420
0
370
0
  6
ByLayer
 10
70.0619145555202465
 20
34.5267189803278143
 30
0.0
 11
69.2745925771301785
 21
32.981816066956867
 31
0.0
  0
LINE
  5
65
100
AcDbEntity
100
AcDbLine
  8
0
 62
7
420
0
370
0
  6
ByLayer
 10
69.2745925771301785
 20
32.981816066956867
 30
0.0
 11
69.7918601147538169
 21
32.6753577864532758
 31
0.0
  0
LINE
  5
66
100
AcDbEntity
100
AcDbLine
  8
0
 62
7
420
0
370
0
  6
ByLayer
 10
69.7918601147538169
 20
32.6753577864532758
 30
0.0
 11
70.4614049645823997
 21
32.016519105240306
 31
0.0
  0
LINE
  5
67
100
AcDbEntity
100
AcDbLine
  8
0
 62
7
420
0
370
0
  6
ByLayer
 10
70.4614049645823997
 20
32.016519105240306
 30
0.0
 11
71.3286729112623874
 21
30.5677415508122934
 31
0.0
  0
LINE
  5
68
100
AcDbEntity
100
AcDbLine
  8
0
 62
7
420
0
370
0
  6
ByLayer
 10
71.3286729112623874
 20
30.5677415508122934
 30
0.0
 11
70.7100462250458008
 21
29.7164152485415158
 31
0.0
  0
LINE
  5
69
100
AcDbEntity
100
AcDbLine
  8
0
 62
7
420
0
370
0
  6
ByLayer
 10
70.7100462250458008
 20
29.7164152485415158
 30
0.0
 11
69.0642596555694439
 21
30.0935398061820223
 31
0.0
  0
LINE
  5
6A
100
AcDbEntity
100
AcDbLine
  8
0
 62
7
420
0
370
0
  6
ByLayer
 10
69.0642596555694439
 20
30.0935398061820223
 30
0.0
 11
68.2305400644861066
 21
30.5265794139125894
 31
0.0
  0
LINE
  5
6B
100
AcDbEntity
100
AcDbLine
  8
0
 62
7
420
0
370
0
  6
ByLayer
 10
68.2305400644861066
 20
30.5265794139125894
 30
0.0
 11
67.7794182530806211
 21
30.9236906743934696
 31
0.0
  0
LINE
  5
6C
100
AcDbEntity
100
AcDbLine
  8
0
 62
7
420
0
370
0
  6
ByLayer
 10
67.7794182530806211
 20
30.9236906743934696
 30
0.0
 11
66.5533456986788394
 21
29.6976181199917093
 31
0.0
  0
LINE
  5
6D
100
AcDbEntity
100
AcDbLine
  8
0
 62
7
420
0
370
0
  6
ByLayer
 10
66.5533456986788394
 20
29.6976181199917093
 30
0.0
 11
66.9504569591597658
 21
29.2464963085862664
 31
0.0
  0
LINE
  5
6E
100
AcDbEntity
100
AcDbLine
  8
0
 62
7
420
0
370
0
  6
ByLayer
 10
66.9504569591597658
 20
29.2464963085862664
 30
0.0
 11
67.3834965668903152
 21
28.412776717502858
 31
0.0
  0
LINE
  5
6F
100
AcDbEntity
100
AcDbLine
  8
0
 62
7
420
0
370
0
  6
ByLayer
 10
67.3834965668903152
 20
28.412776717502858
 30
0.0
 11
67.7606211245308288
 21
26.7669901480265224
 31
0.0
  0
LINE
  5
70
100
AcDbEntity
100
AcDbLine
  8
0
 62
7
420
0
370
0
  6
ByLayer
 10
67.7606211245308288
 20
26.7669901480265224
 30
0.0
 11
66.9092948222600796
 21
26.1483634618099643
 31
0.0
  0
LINE
  5
71
100
AcDbEntity
100
AcDbLine
  8
0
 62
7
420
0
370
0
  6
ByLayer
 10
66.9092948222600796
 20
26.1483634618099643
 30
0.0
 11
65.4605172678320599
 21
27.0156314084899591
 31
0.0
  0
LINE
  5
72
100
AcDbEntity
100
AcDbLine
  8
0
 62
7
420
0
370
0
  6
ByLayer
 10
65.4605172678320599
 20
27.0156314084899591
 30
0.0
 11
64.8016785866190759
 21
27.6851762583185455
 31
0.0
  0
LINE
  5
73
100
AcDbEntity
100
AcDbLine
  8
0
 62
7
420
0
370
0
  6
ByLayer
 10
64.8016785866190759
 20
27.6851762583185455
 30
0.0
 11
64.4952203061154705
 21
28.2024437959421697
 31
0.0
  0
LINE
  5
74
100
AcDbEntity
100
AcDbLine
  8
0
 62
7
420
0
370
0
  6
ByLayer
 10
64.4952203061154705
 20
28.2024437959421697
 30
0.0
 11
62.9503173927445019
 21
27.4151218175520981
 31
0.0
  0
LINE
  5
75
100
AcDbEntity
100
AcDbLine
  8
0
 62
7
420
0
370
0
  6
ByLayer
 10
62.9503173927445019
 20
27.4151218175520981
 30
0.0
 11
63.1884893877642781
 21
26.8631155069694572
 31
0.0
  0
LINE
  5
76
100
AcDbEntity
100
AcDbLine
  8
0
 62
7
420
0
370
0
  6
ByLayer
 10
63.1884893877642781
 20
26.8631155069694572
 30
0.0
 11
63.3426703560629107
 21
25.9366023766430978
 31
0.0
  0
LINE
  5
77
100
AcDbEntity
100
AcDbLine
  8
0
 62
7
420
0
370
0
  6
ByLayer
 10
63.3426703560629107
 20
25.9366023766430978
 30
0.0
 11
63.1927721924392216
 21
24.2548874599170894
 31
0.0
  0
LINE
  5
78
100
AcDbEntity
100
AcDbLine
  8
0
 62
7
420
0
370
0
  6
ByLayer
 10
63.1927721924392216
 20
24.2548874599170894
 30
0.0
 11
62.1920232190323219
 21
23.929632050863674
 31
0.0
  0
LINE
  5
79
100
AcDbEntity
100
AcDbLine
  8
0
 62
7
420
0
370
0
  6
ByLayer
 10
62.1920232190323219
 20
23.929632050863674
 30
0.0
 11
61.082301315729417
 21
25.2021013748869933
 31
0.0
  0
LINE
  5
7A
100
AcDbEntity
100
AcDbLine
  8
0
 62
7
420
0
370
0
  6
ByLayer
 10
61.082301315729417
 20
25.2021013748869933
 30
0.0
 11
60.662347868267517
 21
26.0424829192265435
 31
0.0
  0
LINE
  5
7B
100
AcDbEntity
100
AcDbLine
  8
0
 62
7
420
0
370
0
  6
ByLayer
 10
60.662347868267517
 20
26.0424829192265435
 30
0.0
 11
60.5307713407060888
 21
26.6289885703808764
 31
0.0
  0
LINE
  5
7C
100
AcDbEntity
100
AcDbLine
  8
0
 62
7
420
0
370
0
  6
ByLayer
 10
60.5307713407060888
 20
26.6289885703808764
 30
0.0
 11
58.8181249632084757
 21
26.3577445553238334
 31
0.0
  0
LINE
  5
7D
100
AcDbEntity
100
AcDbLine
  8
0
 62
7
420
0
370
0
  6
ByLayer
 10
58.8181249632084757
 20
26.3577445553238334
 30
0.0
 11
58.8742769164705422
 21
25.759103728875882
 31
0.0
  0
LINE
  5
7E
100
AcDbEntity
100
AcDbLine
  8
0
 62
7
420
0
370
0
  6
ByLayer
 10
58.8742769164705422
 20
25.759103728875882
 30
0.0
 11
58.7346102720467229
 21
24.8302106068965038
 31
0.0
  0
LINE
  5
7F
100
AcDbEntity
100
AcDbLine
  8
0
 62
7
420
0
370
0
  6
ByLayer
 10
58.7346102720467229
 20
24.8302106068965038
 30
0.0
 11
58.0724414572774066
 21
23.2772184197349574
 31
0.0
  0
LINE
  5
80
100
AcDbEntity
100
AcDbLine
  8
0
 62
7
420
0
370
0
  6
ByLayer
 10
58.0724414572774066
 20
23.2772184197349574
 30
0.0
 11
57.0198224922116239
 21
23.2772184197349574
 31
0.0
  0
LINE
  5
81
100
AcDbEntity
100
AcDbLine
  8
0
 62
7
420
0
370
0
  6
ByLayer
 10
57.0198224922116239
 20
23.2772184197349574
 30
0.0
 11
56.357653677442336
 21
24.8302106068965038
 31
0.0
  0
LINE
  5
82
100
AcDbEntity
100
AcDbLine
  8
0
 62
7
420
0
370
0
  6
ByLayer
 10
56.357653677442336
 20
24.8302106068965038
 30
0.0
 11
56.2179870330185167
 21
25.759103728875882
 31
0.0
  0
LINE
  5
83
100
AcDbEntity
100
AcDbLine
  8
0
 62
7
420
0
370
0
  6
ByLayer
 10
56.2179870330185167
 20
25.759103728875882
 30
0.0
 11
56.2741389862805832
 21
26.3577445553238334
 31
0.0
  0
LINE
  5
84
100
AcDbEntity
100
AcDbLine
  8
0
 62
7
420
0
370
0
  6
ByLayer
 10
56.2741389862805832
 20
26.3577445553238334
 30
0.0
 11
54.5614926087829986
 21
26.6289885703808764
 31
0.0
  0
LINE
  5
85
100
AcDbEntity
100
AcDbLine
  8
0
 62
7
420
0
370
0
  6
ByLayer
 10
54.5614926087829986
 20
26.6289885703808764
 30
0.0
 11
54.4299160812215419
 21
26.0424829192265435
 31
0.0
  0
LINE
  5
86
100
AcDbEntity
100
AcDbLine
  8
0
 62
7
420
0
370
0
  6
ByLayer
 10
54.4299160812215419
 20
26.0424829192265435
 30
0.0
 11
54.0099626337596561
 21
25.2021013748869933
 31
0.0
  0
LINE
  5
87
100
AcDbEntity
100
AcDbLine
  8
0
 62
7
420
0
370
0
  6
ByLayer
 10
54.0099626337596561
 20
25.2021013748869933
 30
0.0
 11
52.9002407304567654
 21
23.929632050863674
 31
0.0
  0
LINE
  5
88
100
AcDbEntity
100
AcDbLine
  8
0
 62
7
420
0
370
0
  6
ByLayer
 10
52.9002407304567654
 20
23.929632050863674
 30
0.0
 11
51.8994917570498657
 21
24.2548874599170894
 31
0.0
  0
LINE
  5
89
100
AcDbEntity
100
AcDbLine
  8
0
 62
7
420
0
370
0
  6
ByLayer
 10
51.8994917570498657
 20
24.2548874599170894
 30
0.0
 11
51.7495935934261482
 21
25.9366023766430978
 31
0.0
  0
LINE
  5
8A
100
AcDbEntity
100
AcDbLine
  8
0
 62
7
420
0
370
0
  6
ByLayer
 10
51.7495935934261482
 20
25.9366023766430978
 30
0.0
 11
51.9037745617248163
 21
26.8631155069694643
 31
0.0
  0
LINE
  5
8B
100
AcDbEntity
100
AcDbLine
  8
0
 62
7
420
0
370
0
  6
ByLayer
 10
51.9037745617248163
 20
26.8631155069694643
 30
0.0
 11
52.1419465567445855
 21
27.4151218175520981
 31
0.0
  0
LINE
  5
8C
100
AcDbEntity
100
AcDbLine
  8
0
 62
7
420
0
370
0
  6
ByLayer
 10
52.1419465567445855
 20
27.4151218175520981
 30
0.0
 11
50.5970436433736239
 21
28.2024437959421697
 31
0.0
  0
LINE
  5
8D
100
AcDbEntity
100
AcDbLine
  8
0
 62
7
420
0
370
0
  6
ByLayer
 10
50.5970436433736239
 20
28.2024437959421697
 30
0.0
 11
50.2905853628700186
 21
27.6851762583185455
 31
0.0
  0
LINE
  5
8E
100
AcDbEntity
100
AcDbLine
  8
0
 62
7
420
0
370
0
  6
ByLayer
 10
50.2905853628700186
 20
27.6851762583185455
 30
0.0
 11
49.6317466816570416
 21
27.0156314084899591
 31
0.0
  0
LINE
  5
8F
100
AcDbEntity
100
AcDbLine
  8
0
 62
7
420
0
370
0
  6
ByLayer
 10
49.6317466816570416
 20
27.0156314084899591
 30
0.0
 11
48.1829691272289864
 21
26.1483634618099892
 31
0.0
  0
LINE
  5
90
100
AcDbEntity
100
AcDbLine
  8
0
 62
7
420
0
370
0
  6
ByLayer
 10
48.1829691272289864
 20
26.1483634618099892
 30
0.0
 11
47.3316428249582657
 21
26.7669901480265224
 31
0.0
  0
LINE
  5
91
100
AcDbEntity
100
AcDbLine
  8
0
 62
7
420
0
370
0
  6
ByLayer
 10
47.3316428249582657
 20
26.7669901480265224
 30
0.0
 11
47.7087673825987295
 21
28.4127767175028723
 31
0.0
  0
LINE
  5
92
100
AcDbEntity
100
AcDbLine
  8
0
 62
7
420
0
370
0
  6
ByLayer
 10
47.7087673825987295
 20
28.4127767175028723
 30
0.0
 11
48.1418069903293286
 21
29.2464963085862664
 31
0.0
  0
LINE
  5
93
100
AcDbEntity
100
AcDbLine
  8
0
 62
7
420
0
370
0
  6
ByLayer
 10
48.1418069903293286
 20
29.2464963085862664
 30
0.0
 11
48.5389182508102195
 21
29.6976181199917093
 31
0.0
  0
LINE
  5
94
100
AcDbEntity
100
AcDbLine
  8
0
 62
7
420
0
370
0
  6
ByLayer
 10
48.5389182508102195
 20
29.6976181199917093
 30
0.0
 11
47.312845696408445
 21
30.9236906743934838
 31
0.0
  0
LINE
  5
95
100
AcDbEntity
100
AcDbLine
  8
0
 62
7
420
0
370
0
  6
ByLayer
 10
47.312845696408445
 20
30.9236906743934838
 30
0.0
 11
46.8617238850029594
 21
30.5265794139125894
 31
0.0
  0
LINE
  5
96
100
AcDbEntity
100
AcDbLine
  8
0
 62
7
420
0
370
0
  6
ByLayer
 10
46.8617238850029594
 20
30.5265794139125894
 30
0.0
 11
46.0280042939196221
 21
30.0935398061820223
 31
0.0
  0
LINE
  5
97
100
AcDbEntity
100
AcDbLine
  8
0
 62
7
420
0
370
0
  6
ByLayer
 10
46.0280042939196221
 20
30.0935398061820223
 30
0.0
 11
44.3822177244432723
 21
29.7164152485415443
 31
0.0
  0
LINE
  5
98
100
AcDbEntity
100
AcDbLine
  8
0
 62
7
420
0
370
0
  6
ByLayer
 10
44.3822177244432723
 20
29.7164152485415443
 30
0.0
 11
43.763591038226707
 21
30.5677415508123076
 31
0.0
  0
LINE
  5
99
100
AcDbEntity
100
AcDbLine
  8
0
 62
7
420
0
370
0
  6
ByLayer
 10
43.763591038226707
 20
30.5677415508123076
 30
0.0
 11
44.6308589849066948
 21
32.0165191052403202
 31
0.0
  0
LINE
  5
9A
100
AcDbEntity
100
AcDbLine
  8
0
 62
7
420
0
370
0
  6
ByLayer
 10
44.6308589849066948
 20
32.0165191052403202
 30
0.0
 11
45.3004038347352775
 21
32.6753577864532829
 31
0.0
  0
LINE
  5
9B
100
AcDbEntity
100
AcDbLine
  8
0
 62
7
420
0
370
0
  6
ByLayer
 10
45.3004038347352775
 20
32.6753577864532829
 30
0.0
 11
45.8176713723588875
 21
32.9818160669568812
 31
0.0
  0
LINE
  5
9C
100
AcDbEntity
100
AcDbLine
  8
0
 62
7
420
0
370
0
  6
ByLayer
 10
45.8176713723588875
 20
32.9818160669568812
 30
0.0
 11
45.0303493939688479
 21
34.5267189803278569
 31
0.0
  0
LINE
  5
9D
100
AcDbEntity
100
AcDbLine
  8
0
 62
7
420
0
370
0
  6
ByLayer
 10
45.0303493939688479
 20
34.5267189803278569
 30
0.0
 11
44.4783430833861786
 21
34.2885469853081162
 31
0.0
  0
LINE
  5
9E
100
AcDbEntity
100
AcDbLine
  8
0
 62
7
420
0
370
0
  6
ByLayer
 10
44.4783430833861786
 20
34.2885469853081162
 30
0.0
 11
43.5518299530598227
 21
34.1343660170094552
 31
0.0
  0
LINE
  5
9F
100
AcDbEntity
100
AcDbLine
  8
0
 62
7
420
0
370
0
  6
ByLayer
 10
43.5518299530598227
 20
34.1343660170094552
 30
0.0
 11
41.8701150363338286
 21
34.2842641806331159
 31
0.0
  0
LINE
  5
A0
100
AcDbEntity
100
AcDbLine
  8
0
 62
7
420
0
370
0
  6
ByLayer
 10
41.8701150363338286
 20
34.2842641806331159
 30
0.0
 11
41.5448596272804238
 21
35.2850131540400156
 31
0.0
  0
LINE
  5
A1
100
AcDbEntity
100
AcDbLine
  8
0
 62
7
420
0
370
0
  6
ByLayer
 10
41.5448596272804238
 20
35.2850131540400156
 30
0.0
 11
42.8173289513036934
 21
36.3947350573429347
 31
0.0
  0
LINE
  5
A2
100
AcDbEntity
100
AcDbLine
  8
0
 62
7
420
0
370
0
  6
ByLayer
 10
42.8173289513036934
 20
36.3947350573429347
 30
0.0
 11
43.6577104956432649
 21
36.8146885048048631
 31
0.0
  0
LINE
  5
A3
100
AcDbEntity
100
AcDbLine
  8
0
 62
7
420
0
370
0
  6
ByLayer
 10
43.6577104956432649
 20
36.8146885048048631
 30
0.0
 11
44.2442161467975978
 21
36.9462650323663127
 31
0.0
  0
LINE
  5
A4
100
AcDbEntity
100
AcDbLine
  8
0
 62
7
420
0
370
0
  6
ByLayer
 10
44.2442161467975978
 20
36.9462650323663127
 30
0.0
 11
43.9729721317405833
 21
38.6589114098638404
 31
0.0
  0
LINE
  5
A5
100
AcDbEntity
100
AcDbLine
  8
0
 62
7
420
0
370
0
  6
ByLayer
 10
43.9729721317405833
 20
38.6589114098638404
 30
0.0
 11
43.3743313052926283
 21
38.6027594566018664
 31
0.0
  0
LINE
  5
A6
100
AcDbEntity
100
AcDbLine
  8
0
 62
7
420
0
370
0
  6
ByLayer
 10
43.3743313052926283
 20
38.6027594566018664
 30
0.0
 11
42.4454381833132288
 21
38.7424261010256572
 31
0.0
  0
LINE
  5
A7
100
AcDbEntity
100
AcDbLine
  8
0
 62
7
420
0
370
0
  6
ByLayer
 10
42.4454381833132288
 20
38.7424261010256572
 30
0.0
 11
40.8924459961516931
 21
39.4045949157949238
 31
0.0
  0
LINE
  5
A8
100
AcDbEntity
100
AcDbLine
  8
0
 62
7
420
0
370
0
  6
ByLayer
 10
40.8924459961516931
 20
39.4045949157949238
 30
0.0
 11
40.8924459961516931
 21
40.4572138808606923
 31
0.0
  0
LINE
  5
A9
100
AcDbEntity
100
AcDbLine
  8
0
 62
7
420
0
370
0
  6
ByLayer
 10
40.8924459961516931
 20
40.4572138808606923
 30
0.0
 11
42.4454381833132288
 21
41.1193826956299588
 31
0.0
  0
LINE
  5
AA
100
AcDbEntity
100
AcDbLine
  8
0
 62
7
420
0
370
0
  6
ByLayer
 10
42.4454381833132288
 20
41.1193826956299588
 30
0.0
 11
43.3743313052926283
 21
41.2590493400538065
 31
0.0
  0
LINE
  5
AB
100
AcDbEntity
100
AcDbLine
  8
0
 62
7
420
0
370
0
  6
ByLayer
 10
43.3743313052926283
 20
41.2590493400538065
 30
0.0
 11
43.9729721317405833
 21
41.2028973867917827
 31
0.0
  0
LINE
  5
AC
100
AcDbEntity
100
AcDbLine
  8
0
 62
7
420
0
370
0
  6
ByLayer
 10
43.9729721317405833
 20
41.2028973867917827
 30
0.0
 11
44.2442161467975978
 21
42.9155437642893105
 31
0.0
  0
LINE
  5
AD
100
AcDbEntity
100
AcDbLine
  8
0
 62
7
420
0
370
0
  6
ByLayer
 10
44.2442161467975978
 20
42.9155437642893105
 30
0.0
 11
43.6577104956432649
 21
43.0471202918507672
 31
0.0
  0
LINE
  5
AE
100
AcDbEntity
100
AcDbLine
  8
0
 62
7
420
0
370
0
  6
ByLayer
 10
43.6577104956432649
 20
43.0471202918507672
 30
0.0
 11
42.8173289513036934
 21
43.4670737393126956
 31
0.0
  0
LINE
  5
AF
100
AcDbEntity
100
AcDbLine
  8
0
 62
7
420
0
370
0
  6
ByLayer
 10
42.8173289513036934
 20
43.4670737393126956
 30
0.0
 11
41.5448596272804238
 21
44.5767956426156076
 31
0.0
  0
LINE
  5
B0
100
AcDbEntity
100
AcDbLine
  8
0
 62
7
420
0
370
0
  6
ByLayer
 10
41.5448596272804238
 20
44.5767956426156076
 30
0.0
 11
41.8701150363338286
 21
45.577544616022486
 31
0.0
  0
LINE
  5
B1
100
AcDbEntity
100
AcDbLine
  8
0
 62
7
420
0
370
0
  6
ByLayer
 10
41.8701150363338286
 20
45.577544616022486
 30
0.0
 11
43.5518299530598512
 21
45.7274427796461751
 31
0.0
  0
LINE
  5
B2
100
AcDbEntity
100
AcDbLine
  8
0
 62
7
420
0
370
0
  6
ByLayer
 10
43.5518299530598512
 20
45.7274427796461751
 30
0.0
 11
44.4783430833861786
 21
45.573261811347507
 31
0.0
  0
LINE
  5
B3
100
AcDbEntity
100
AcDbLine
  8
0
 62
7
420
0
370
0
  6
ByLayer
 10
44.4783430833861786
 20
45.573261811347507
 30
0.0
 11
45.0303493939688479
 21
45.3350898163277947
 31
0.0
  0
LINE
  5
B4
100
AcDbEntity
100
AcDbLine
  8
0
 62
7
420
0
370
0
  6
ByLayer
 10
45.0303493939688479
 20
45.3350898163277947
 30
0.0
 11
45.8176713723588875
 21
46.879992729698742
 31
0.0
  0
LINE
  5
B5
100
AcDbEntity
100
AcDbLine
  8
0
 62
7
420
0
370
0
  6
ByLayer
 10
45.8176713723588875
 20
46.879992729698742
 30
0.0
 11
45.3004038347352775
 21
47.1864510102023331
 31
0.0
  0
LINE
  5
B6
100
AcDbEntity
100
AcDbLine
  8
0
 62
7
420
0
370
0
  6
ByLayer
 10
45.3004038347352775
 20
47.1864510102023331
 30
0.0
 11
44.6308589849066948
 21
47.8452896914153101
 31
0.0
  0
LINE
  5
B7
100
AcDbEntity
100
AcDbLine
  8
0
 62
7
420
0
370
0
  6
ByLayer
 10
44.6308589849066948
 20
47.8452896914153101
 30
0.0
 11
43.763591038226707
 21
49.2940672458433227
 31
0.0
  0
LINE
  5
B8
100
AcDbEntity
100
AcDbLine
  8
0
 62
7
420
0
370
0
  6
ByLayer
 10
43.763591038226707
 20
49.2940672458433227
 30
0.0
 11
44.3822177244432723
 21
50.1453935481140718
 31
0.0
  0
LINE
  5
B9
100
AcDbEntity
100
AcDbLine
  8
0
 62
7
420
0
370
0
  6
ByLayer
 10
44.3822177244432723
 20
50.1453935481140718
 30
0.0
 11
46.0280042939196221
 21
49.7682689904735795
 31
0.0
  0
LINE
  5
BA
100
AcDbEntity
100
AcDbLine
  8
0
 62
7
420
0
370
0
  6
ByLayer
 10
46.0280042939196221
 20
49.7682689904735795
 30
0.0
 11
46.8617238850029594
 21
49.3352293827430302
 31
0.0
  0
LINE
  5
BB
100
AcDbEntity
100
AcDbLine
  8
0
 62
7
420
0
370
0
  6
ByLayer
 10
46.8617238850029594
 20
49.3352293827430302
 30
0.0
 11
47.3128456964084734
 21
48.938118122262118
 31
0.0
  0
LINE
  5
BC
100
AcDbEntity
100
AcDbLine
  8
0
 62
7
420
0
370
0
  6
ByLayer
 10
47.3128456964084734
 20
48.938118122262118
 30
0.0
 11
48.5389182508102195
 21
50.1641906766638925
 31
0.0
  0
LINE
  5
BD
100
AcDbEntity
100
AcDbLine
  8
0
 62
7
420
0
370
0
  6
ByLayer
 10
48.5389182508102195
 20
50.1641906766638925
 30
0.0
 11
48.1418069903293286
 21
50.6153124880693497
 31
0.0
  0
LINE
  5
BE
100
AcDbEntity
100
AcDbLine
  8
0
 62
7
420
0
370
0
  6
ByLayer
 10
48.1418069903293286
 20
50.6153124880693497
 30
0.0
 11
47.7087673825987579
 21
51.4490320791527438
 31
0.0
  0
LINE
  5
BF
100
AcDbEntity
100
AcDbLine
  8
0
 62
7
420
0
370
0
  6
ByLayer
 10
47.7087673825987579
 20
51.4490320791527438
 30
0.0
 11
47.3316428249582657
 21
53.0948186486290794
 31
0.0
  0
LINE
  5
C0
100
AcDbEntity
100
AcDbLine
  8
0
 62
7
420
0
370
0
  6
ByLayer
 10
47.3316428249582657
 20
53.0948186486290794
 30
0.0
 11
48.1829691272289864
 21
53.7134453348456304
 31
0.0
  0
LINE
  5
C1
100
AcDbEntity
100
AcDbLine
  8
0
 62
7
420
0
370
0
  6
ByLayer
 10
48.1829691272289864
 20
53.7134453348456304
 30
0.0
 11
49.6317466816570416
 21
52.8461773881656569
 31
0.0
  0
LINE
  5
C2
100
AcDbEntity
100
AcDbLine
  8
0
 62
7
420
0
370
0
  6
ByLayer
 10
49.6317466816570416
 20
52.8461773881656569
 30
0.0
 11
50.2905853628700186
 21
52.1766325383370742
 31
0.0
  0
LINE
  5
C3
100
AcDbEntity
100
AcDbLine
  8
0
 62
7
420
0
370
0
  6
ByLayer
 10
50.2905853628700186
 20
52.1766325383370742
 30
0.0
 11
50.5970436433736239
 21
51.6593650007134499
 31
0.0
  0
LINE
  5
C4
100
AcDbEntity
100
AcDbLine
  8
0
 62
7
420
0
370
0
  6
ByLayer
 10
50.5970436433736239
 20
51.6593650007134499
 30
0.0
 11
52.1419465567445855
 21
52.446686979103518
 31
0.0
  0
LINE
  5
C5
100
AcDbEntity
100
AcDbLine
  8
0
 62
7
420
0
370
0
  6
ByLayer
 10
52.1419465567445855
 20
52.446686979103518
 30
0.0
 11
51.9037745617248163
 21
52.9986932896861447
 31
0.0
  0
LINE
  5
C6
100
AcDbEntity
100
AcDbLine
  8
0
 62
7
420
0
370
0
  6
ByLayer
 10
51.9037745617248163
 20
52.9986932896861447
 30
0.0
 11
51.7495935934261482
 21
53.9252064200125076
 31
0.0
  0
LINE
  5
C7
100
AcDbEntity
100
AcDbLine
  8
0
 62
7
420
0
370
0
  6
ByLayer
 10
51.7495935934261482
 20
53.9252064200125076
 30
0.0
 11
51.8994917570498657
 21
55.606921336738516
 31
0.0
  0
LINE
  5
C8
100
AcDbEntity
100
AcDbLine
  8
0
 62
7
420
0
370
0
  6
ByLayer
 10
51.8994917570498657
 20
55.606921336738516
 30
0.0
 11
52.9002407304567654
 21
55.9321767457919421
 31
0.0
  0
LINE
  5
C9
100
AcDbEntity
100
AcDbLine
  8
0
 62
7
420
0
370
0
  6
ByLayer
 10
52.9002407304567654
 20
55.9321767457919421
 30
0.0
 11
54.0099626337596561
 21
54.6597074217686298
 31
0.0
  0
LINE
  5
CA
100
AcDbEntity
100
AcDbLine
  8
0
 62
7
420
0
370
0
  6
ByLayer
 10
54.0099626337596561
 20
54.6597074217686298
 30
0.0
 11
54.4299160812215419
 21
53.8193258774290726
 31
0.0
  0
LINE
  5
CB
100
AcDbEntity
100
AcDbLine
  8
0
 62
7
420
0
370
0
  6
ByLayer
 10
54.4299160812215419
 20
53.8193258774290726
 30
0.0
 11
54.5614926087829986
 21
53.2328202262747254
 31
0.0
  0
LINE
  5
CC
100
AcDbEntity
100
AcDbLine
  8
0
 62
7
420
0
370
0
  6
ByLayer
 10
54.5614926087829986
 20
53.2328202262747254
 30
0.0
 11
56.2741389862805832
 21
53.5040642413317755
 31
0.0
  0
LINE
  5
CD
100
AcDbEntity
100
AcDbLine
  8
0
 62
7
420
0
370
0
  6
ByLayer
 10
56.2741389862805832
 20
53.5040642413317755
 30
0.0
 11
56.2179870330185167
 21
54.1027050677797376
 31
0.0
  0
LINE
  5
CE
100
AcDbEntity
100
AcDbLine
  8
0
 62
7
420
0
370
0
  6
ByLayer
 10
56.2179870330185167
 20
54.1027050677797376
 30
0.0
 11
56.3576536774423644
 21
55.0315981897591158
 31
0.0
  0
LINE
  5
CF
100
AcDbEntity
100
AcDbLine
  8
0
 62
7
420
0
370
0
  6
ByLayer
 10
56.3576536774423644
 20
55.0315981897591158
 30
0.0
 11
57.0198224922116381
 21
56.5845903769206586
 31
0.0
  0
LINE
  5
D0
100
AcDbEntity
100
AcDbLine
  8
0
 62
7
420
0
370
0
  6
ByLayer
 10
57.0198224922116381
 20
56.5845903769206586
 30
0.0
 11
58.0724414572774208
 21
56.5845903769206586
 31
0.0
  0
LINE
  5
D1
100
AcDbEntity
100
AcDbLine
  8
0
 62
7
420
0
370
0
  6
ByLayer
 10
58.0724414572774208
 20
56.5845903769206586
 30
0.0
 11
58.7346102720467229
 21
55.0315981897591158
 31
0.0
  0
LINE
  5
D2
100
AcDbEntity
100
AcDbLine
  8
0
 62
7
420
0
370
0
  6
ByLayer
 10
58.7346102720467229
 20
55.0315981897591158
 30
0.0
 11
58.8742769164705422
 21
54.1027050677797376
 31
0.0
  0
LINE
  5
D3
100
AcDbEntity
100
AcDbLine
  8
0
 62
7
420
0
370
0
  6
ByLayer
 10
58.8742769164705422
 20
54.1027050677797376
 30
0.0
 11
58.8181249632084757
 21
53.5040642413317755
 31
0.0
  0
LINE
  5
D4
100
AcDbEntity
100
AcDbLine
  8
0
 62
7
420
0
370
0
  6
ByLayer
 10
58.8181249632084757
 20
53.5040642413317755
 30
0.0
 11
60.5307713407060888
 21
53.2328202262747254
 31
0.0
  0
LINE
  5
D5
100
AcDbEntity
100
AcDbLine
  8
0
 62
7
420
0
370
0
  6
ByLayer
 10
60.5307713407060888
 20
53.2328202262747254
 30
0.0
 11
60.6623478682674886
 21
53.8193258774290726
 31
0.0
  0
LINE
  5
D6
100
AcDbEntity
100
AcDbLine
  8
0
 62
7
420
0
370
0
  6
ByLayer
 10
60.6623478682674886
 20
53.8193258774290726
 30
0.0
 11
61.0823013157294312
 21
54.6597074217686298
 31
0.0
  0
LINE
  5
D7
100
AcDbEntity
100
AcDbLine
  8
0
 62
7
420
0
370
0
  6
ByLayer
 10
61.0823013157294312
 20
54.6597074217686298
 30
0.0
 11
62.1920232190323219
 21
55.9321767457919421
 31
0.0
  0
LINE
  5
D8
100
AcDbEntity
100
AcDbLine
  8
0
 62
7
420
0
370
0
  6
ByLayer
 10
62.1920232190323219
 20
55.9321767457919421
 30
0.0
 11
63.1927721924392216
 21
55.606921336738516
 31
0.0
  0
LINE
  5
D9
100
AcDbEntity
100
AcDbLine
  8
0
 62
7
420
0
370
0
  6
ByLayer
 10
63.1927721924392216
 20
55.606921336738516
 30
0.0
 11
63.3426703560629107
 21
53.9252064200125076
 31
0.0
  0
LINE
  5
DA
100
AcDbEntity
100
AcDbLine
  8
0
 62
7
420
0
370
0
  6
ByLayer
 10
63.3426703560629107
 20
53.9252064200125076
 30
0.0
 11
63.1884893877642781
 21
52.9986932896861447
 31
0.0
  0
LINE
  5
DB
100
AcDbEntity
100
AcDbLine
  8
0
 62
7
420
0
370
0
  6
ByLayer
 10
63.1884893877642781
 20
52.9986932896861447
 30
0.0
 11
62.9503173927445019
 21
52.446686979103518
 31
0.0
  0
LINE
  5
DC
100
AcDbEntity
100
AcDbLine
  8
0
 62
7
420
0
370
0
  6
ByLayer
 10
62.9503173927445019
 20
52.446686979103518
 30
0.0
 11
64.4952203061154705
 21
51.6593650007134499
 31
0.0
  0
LINE
  5
DD
100
AcDbEntity
100
AcDbLine
  8
0
 62
7
420
0
370
0
  6
ByLayer
 10
64.4952203061154705
 20
51.6593650007134499
 30
0.0
 11
64.8016785866190759
 21
52.1766325383370742
 31
0.0
  0
LINE
  5
DE
100
AcDbEntity
100
AcDbLine
  8
0
 62
7
420
0
370
0
  6
ByLayer
 10
64.8016785866190759
 20
52.1766325383370742
 30
0.0
 11
65.4605172678320599
 21
52.8461773881656569
 31
0.0
  0
LINE
  5
DF
100
AcDbEntity
100
AcDbLine
  8
0
 62
7
420
0
370
0
  6
ByLayer
 10
65.4605172678320599
 20
52.8461773881656569
 30
0.0
 11
66.9092948222600796
 21
53.7134453348456304
 31
0.0
  0
LINE
  5
E0
100
AcDbEntity
100
AcDbLine
  8
0
 62
7
420
0
370
0
  6
ByLayer
 10
66.9092948222600796
 20
53.7134453348456304
 30
0.0
 11
67.7606211245308288
 21
53.0948186486290794
 31
0.0
  0
LINE
  5
E1
100
AcDbEntity
100
AcDbLine
  8
0
 62
7
420
0
370
0
  6
ByLayer
 10
67.7606211245308288
 20
53.0948186486290794
 30
0.0
 11
67.3834965668903152
 21
51.4490320791527438
 31
0.0
  0
LINE
  5
E2
100
AcDbEntity
100
AcDbLine
  8
0
 62
7
420
0
370
0
  6
ByLayer
 10
67.3834965668903152
 20
51.4490320791527438
 30
0.0
 11
66.9504569591597658
 21
50.6153124880693497
 31
0.0
  0
LINE
  5
E3
100
AcDbEntity
100
AcDbLine
  8
0
 62
7
420
0
370
0
  6
ByLayer
 10
66.9504569591597658
 20
50.6153124880693497
 30
0.0
 11
66.5533456986788394
 21
50.1641906766638925
 31
0.0
  0
LINE
  5
E4
100
AcDbEntity
100
AcDbLine
  8
0
 62
7
420
0
370
0
  6
ByLayer
 10
66.5533456986788394
 20
50.1641906766638925
 30
0.0
 11
67.7794182530806211
 21
48.938118122262118
 31
0.0
  0
LINE
  5
E5
100
AcDbEntity
100
AcDbLine
  8
0
 62
7
420
0
370
0
  6
ByLayer
 10
67.7794182530806211
 20
48.938118122262118
 30
0.0
 11
68.2305400644861066
 21
49.3352293827430302
 31
0.0
  0
LINE
  5
E6
100
AcDbEntity
100
AcDbLine
  8
0
 62
7
420
0
370
0
  6
ByLayer
 10
68.2305400644861066
 20
49.3352293827430302
 30
0.0
 11
69.0642596555694439
 21
49.7682689904735795
 31
0.0
  0
LINE
  5
E7
100
AcDbEntity
100
AcDbLine
  8
0
 62
7
420
0
370
0
  6
ByLayer
 10
69.0642596555694439
 20
49.7682689904735795
 30
0.0
 11
70.7100462250458008
 21
50.1453935481140718
 31
0.0
  0
LINE
  5
E8
100
AcDbEntity
100
AcDbLine
  8
0
 62
7
420
0
370
0
  6
ByLayer
 10
70.7100462250458008
 20
50.1453935481140718
 30
0.0
 11
71.3286729112623874
 21
49.2940672458433227
 31
0.0
  0
LINE
  5
E9
100
AcDbEntity
100
AcDbLine
  8
0
 62
7
420
0
370
0
  6
ByLayer
 10
71.3286729112623874
 20
49.2940672458433227
 30
0.0
 11
70.4614049645823997
 21
47.8452896914153101
 31
0.0
  0
LINE
  5
EA
100
AcDbEntity
100
AcDbLine
  8
0
 62
7
420
0
370
0
  6
ByLayer
 10
70.4614049645823997
 20
47.8452896914153101
 30
0.0
 11
69.7918601147538169
 21
47.1864510102023331
 31
0.0
  0
LINE
  5
EB
100
AcDbEntity
100
AcDbLine
  8
0
 62
7
420
0
370
0
  6
ByLayer
 10
69.7918601147538169
 20
47.1864510102023331
 30
0.0
 11
69.2745925771301785
 21
46.879992729698742
 31
0.0
  0
LINE
  5
EC
100
AcDbEntity
100
AcDbLine
  8
0
 62
7
420
0
370
0
  6
ByLayer
 10
69.2745925771301785
 20
46.879992729698742
 30
0.0
 11
70.0619145555202465
 21
45.3350898163277947
 31
0.0
  0
LINE
  5
ED
100
AcDbEntity
100
AcDbLine
  8
0
 62
7
420
0
370
0
  6
ByLayer
 10
70.0619145555202465
 20
45.3350898163277947
 30
0.0
 11
70.6139208661029159
 21
45.573261811347507
 31
0.0
  0
LINE
  5
EE
100
AcDbEntity
100
AcDbLine
  8
0
 62
7
420
0
370
0
  6
ByLayer
 10
70.6139208661029159
 20
45.573261811347507
 30
0.0
 11
71.5404339964292433
 21
45.7274427796461751
 31
0.0
  0
LINE
  5
EF
100
AcDbEntity
100
AcDbLine
  8
0
 62
7
420
0
370
0
  6
ByLayer
 10
71.5404339964292433
 20
45.7274427796461751
 30
0.0
 11
73.2221489131552374
 21
45.577544616022486
 31
0.0
  0
LINE
  5
F0
100
AcDbEntity
100
AcDbLine
  8
0
 62
7
420
0
370
0
  6
ByLayer
 10
73.2221489131552374
 20
45.577544616022486
 30
0.0
 11
73.5474043222086493
 21
44.5767956426156076
 31
0.0
  0
LINE
  5
F1
100
AcDbEntity
100
AcDbLine
  8
0
 62
7
420
0
370
0
  6
ByLayer
 10
73.5474043222086493
 20
44.5767956426156076
 30
0.0
 11
72.274934998185401
 21
43.4670737393126814
 31
0.0
  0
LINE
  5
F2
100
AcDbEntity
100
AcDbLine
  8
0
 62
7
420
0
370
0
  6
ByLayer
 10
72.274934998185401
 20
43.4670737393126814
 30
0.0
 11
71.4345534538458082
 21
43.0471202918507529
 31
0.0
  0
LINE
  5
F3
100
AcDbEntity
100
AcDbLine
  8
0
 62
7
420
0
370
0
  6
ByLayer
 10
71.4345534538458082
 20
43.0471202918507529
 30
0.0
 11
70.8480478026914682
 21
42.9155437642893105
 31
0.0
  0
LINE
  5
F4
100
AcDbEntity
100
AcDbLine
  8
0
 62
7
420
0
370
0
  6
ByLayer
 10
70.8480478026914682
 20
42.9155437642893105
 30
0.0
 11
71.1192918177485183
 21
41.2028973867917401
 31
0.0
  0
ENDSEC
  0
SECTION
  2
OBJECTS
  0
DICTIONARY
  5
C
100
AcDbDictionary
280
0
281
1
  3
ACAD_GROUP
350
D
  3
ACAD_LAYOUT
350
1A
  3
ACAD_MLINESTYLE
350
17
  3
ACAD_PLOTSETTINGS
350
19
  3
ACAD_PLOTSTYLENAME
350
E
  3
AcDbVariableDictionary
350
F5
  0
DICTIONARY
  5
D
100
AcDbDictionary
280
0
281
1
  0
ACDBDICTIONARYWDFLT
  5
E
100
AcDbDictionary
281
1
  3
Normal
350
F
100
AcDbDictionaryWithDefault
340
F
  0
ACDBPLACEHOLDER
  5
F
  0
DICTIONARY
  5
17
100
AcDbDictionary
280
0
281
1
  3
Standard
350
18
  0
MLINESTYLE
  5
18
100
AcDbMlineStyle
  2
STANDARD
 70
0
  3

 62
256
 51
90.0
 52
90.0
 71
2
 49
0.5
 62
256
  6
BYLAYER
 49
-0.5
 62
256
  6
BYLAYER
  0
DICTIONARY
  5
19
100
AcDbDictionary
280
0
281
1
  0
DICTIONARY
  5
1A
100
AcDbDictionary
281
1
  3
Layout1
350
1E
  3
Layout2
350
26
  3
Model
350
22
  0
LAYOUT
  5
1E
100
AcDbPlotSettings
  1

  2
C:\Program Files\AutoCAD 2002\plotters\DWF ePlot (optimized for plotting).pc3
  4

  6

 40
0.0
 41
0.0
 42
0.0
 43
0.0
 44
0.0
 45
0.0
 46
0.0
 47
0.0
 48
0.0
 49
0.0
140
0.0
141
0.0
142
1.0
143
1.0
 70
688
 72
0
 73
0
 74
5
  7

 75
16
147
1.0
148
0.0
149
0.0
100
AcDbLayout
  1
Layout1
 70
1
 71
1
 10
0.0
 20
0.0
 11
420.0
 21
297.0
 12
0.0
 22
0.0
 32
0.0
 14
100000000000000000000.0
 24
100000000000000000000.0
 34
100000000000000000000.0
 15
-100000000000000000000.0
 25
-100000000000000000000.0
 35
-100000000000000000000.0
146
0.0
 13
0.0
 23
0.0
 33
0.0
 16
1.0
 26
0.0
 36
0.0
 17
0.0
 27
1.0
 37
0.0
 76
0
330
1B
  0
LAYOUT
  5
22
100
AcDbPlotSettings
  1

  2
C:\Program Files\AutoCAD 2002\plotters\DWF ePlot (optimized for plotting).pc3
  4

  6

 40
0.0
 41
0.0
 42
0.0
 43
0.0
 44
0.0
 45
0.0
 46
0.0
 47
0.0
 48
0.0
 49
0.0
140
0.0
141
0.0
142
1.0
143
1.0
 70
1712
 72
0
 73
0
 74
0
  7

 75
0
147
1.0
148
0.0
149
0.0
100
AcDbLayout
  1
Model
 70
1
 71
0
 10
0.0
 20
0.0
 11
12.0
 21
9.0
 12
0.0
 22
0.0
 32
0.0
 14
0.0
 24
0.0
 34
0.0
 15
0.0
 25
0.0
 35
0.0
146
0.0
 13
0.0
 23
0.0
 33
0.0
 16
1.0
 26
0.0
 36
0.0
 17
0.0
 27
1.0
 37
0.0
 76
0
330
1F
  0
LAYOUT
  5
26
100
AcDbPlotSettings
  1

  2
C:\Program Files\AutoCAD 2002\plotters\DWF ePlot (optimized for plotting).pc3
  4

  6

 40
0.0
 41
0.0
 42
0.0
 43
0.0
 44
0.0
 45
0.0
 46
0.0
 47
0.0
 48
0.0
 49
0.0
140
0.0
141
0.0
142
1.0
143
1.0
 70
688
 72
0
 73
0
 74
5
  7

 75
16
147
1.0
148
0.0
149
0.0
100
AcDbLayout
  1
Layout2
 70
1
 71
2
 10
0.0
 20
0.0
 11
12.0
 21
9.0
 12
0.0
 22
0.0
 32
0.0
 14
0.0
 24
0.0
 34
0.0
 15
0.0
 25
0.0
 35
0.0
146
0.0
 13
0.0
 23
0.0
 33
0.0
 16
1.0
 26
0.0
 36
0.0
 17
0.0
 27
1.0
 37
0.0
 76
0
330
23
  0
DICTIONARY
  5
F5
100
AcDbDictionary
281
1
  3
DIMASSOC
350
F7
  3
HIDETEXT
350
F6
  0
DICTIONARYVAR
  5
F6
100
DictionaryVariables
280
0
  1
2
  0
DICTIONARYVAR
  5
F7
100
DictionaryVariables
280
0
  1
1
  0
ENDSEC
  0
EOF
