999
dxflib 2.2.0.0
  0
SECTION
  2
HEADER
  9
$ACADVER
  1
AC1015
  9
$HANDSEED
  5
FFFF
  9
$DIMASZ
 40
2.5
  9
$PLIMMIN
 10
0.0
 20
0.0
  9
$DIMEXE
 40
1.25
  9
$DIMGAP
 40
0.625
  9
$PLIMMAX
 10
210.0
 20
297.0
  9
$INSUNITS
 70
4
  9
$DIMSTYLE
  2
Standard
  9
$CLAYER
  8
0
  9
$DIMEXO
 40
0.625
  9
$DIMTXT
 40
2.5
  9
$CLAYER
  8
0
  0
ENDSEC
  0
SECTION
  2
TABLES
  0
TABLE
  2
VPORT
  5
8
100
AcDbSymbolTable
 70
1
  0
VPORT
  5
30
100
AcDbSymbolTableRecord
100
AcDbViewportTableRecord
  2
*Active
 70
0
 10
0.0
 20
0.0
 11
1.0
 21
1.0
 12
286.3055555555554861
 22
148.5
 13
0.0
 23
0.0
 14
10.0
 24
10.0
 15
10.0
 25
10.0
 16
0.0
 26
0.0
 36
1.0
 17
0.0
 27
0.0
 37
0.0
 40
297.0
 41
1.92798353909465
 42
50.0
 43
0.0
 44
0.0
 50
0.0
 51
0.0
 71
0
 72
100
 73
1
 74
3
 75
1
 76
1
 77
0
 78
0
281
0
 65
1
110
0.0
120
0.0
130
0.0
111
1.0
121
0.0
131
0.0
112
0.0
122
1.0
132
0.0
 79
0
146
0.0
  0
ENDTAB
  0
TABLE
  2
LTYPE
  5
5
100
AcDbSymbolTable
 70
21
  0
LTYPE
  5
14
100
AcDbSymbolTableRecord
100
AcDbLinetypeTableRecord
  2
ByBlock
 70
0
  3

 72
65
 73
0
 40
0.0
  0
LTYPE
  5
15
100
AcDbSymbolTableRecord
100
AcDbLinetypeTableRecord
  2
ByLayer
 70
0
  3

 72
65
 73
0
 40
0.0
  0
LTYPE
  5
16
100
AcDbSymbolTableRecord
100
AcDbLinetypeTableRecord
  2
CONTINUOUS
 70
0
  3
Solid line
 72
65
 73
0
 40
0.0
  0
LTYPE
  5
31
100
AcDbSymbolTableRecord
100
AcDbLinetypeTableRecord
  2
DOT
 70
0
  3
Dot . . . . . . . . . . . . . . . . . . . . . .
 72
65
 73
2
 40
6.3499999999999996
 49
0.0
 74
0
 49
-6.3499999999999996
 74
0
  0
LTYPE
  5
32
100
AcDbSymbolTableRecord
100
AcDbLinetypeTableRecord
  2
DOT2
 70
0
  3
Dot (.5x) .....................................
 72
65
 73
2
 40
3.1749999999999998
 49
0.0
 74
0
 49
-3.1749999999999998
 74
0
  0
LTYPE
  5
33
100
AcDbSymbolTableRecord
100
AcDbLinetypeTableRecord
  2
DOTX2
 70
0
  3
Dot (2x) .  .  .  .  .  .  .  .  .  .  .  .  .
 72
65
 73
2
 40
12.6999999999999993
 49
0.0
 74
0
 49
-12.6999999999999993
 74
0
  0
LTYPE
  5
34
100
AcDbSymbolTableRecord
100
AcDbLinetypeTableRecord
  2
DASHED
 70
0
  3
Dashed __ __ __ __ __ __ __ __ __ __ __ __ __ _
 72
65
 73
2
 40
19.0500000000000007
 49
12.6999999999999993
 74
0
 49
-6.3499999999999996
 74
0
  0
LTYPE
  5
35
100
AcDbSymbolTableRecord
100
AcDbLinetypeTableRecord
  2
DASHED2
 70
0
  3
Dashed (.5x) _ _ _ _ _ _ _ _ _ _ _ _ _ _ _ _ _
 72
65
 73
2
 40
9.5250000000000004
 49
6.3499999999999996
 74
0
 49
-3.1749999999999998
 74
0
  0
LTYPE
  5
36
100
AcDbSymbolTableRecord
100
AcDbLinetypeTableRecord
  2
DASHEDX2
 70
0
  3
Dashed (2x) ____  ____  ____  ____  ____  ___
 72
65
 73
2
 40
38.1000000000000014
 49
25.3999999999999986
 74
0
 49
-12.6999999999999993
 74
0
  0
LTYPE
  5
37
100
AcDbSymbolTableRecord
100
AcDbLinetypeTableRecord
  2
DASHDOT
 70
0
  3
Dash dot __ . __ . __ . __ . __ . __ . __ . __
 72
65
 73
4
 40
25.3999999999999986
 49
12.6999999999999993
 74
0
 49
-6.3499999999999996
 74
0
 49
0.0
 74
0
 49
-6.3499999999999996
 74
0
  0
LTYPE
  5
38
100
AcDbSymbolTableRecord
100
AcDbLinetypeTableRecord
  2
DASHDOT2
 70
0
  3
Dash dot (.5x) _._._._._._._._._._._._._._._.
 72
65
 73
4
 40
12.6999999999999993
 49
6.3499999999999996
 74
0
 49
-3.1749999999999998
 74
0
 49
0.0
 74
0
 49
-3.1749999999999998
 74
0
  0
LTYPE
  5
39
100
AcDbSymbolTableRecord
100
AcDbLinetypeTableRecord
  2
DASHDOTX2
 70
0
  3
Dash dot (2x) ____  .  ____  .  ____  .  ___
 72
65
 73
4
 40
50.7999999999999972
 49
25.3999999999999986
 74
0
 49
-12.6999999999999993
 74
0
 49
0.0
 74
0
 49
-12.6999999999999993
 74
0
  0
LTYPE
  5
3A
100
AcDbSymbolTableRecord
100
AcDbLinetypeTableRecord
  2
DIVIDE
 70
0
  3
Divide ____ . . ____ . . ____ . . ____ . . ____
 72
65
 73
6
 40
31.75
 49
12.6999999999999993
 74
0
 49
-6.3499999999999996
 74
0
 49
0.0
 74
0
 49
-6.3499999999999996
 74
0
 49
0.0
 74
0
 49
-6.3499999999999996
 74
0
  0
LTYPE
  5
3B
100
AcDbSymbolTableRecord
100
AcDbLinetypeTableRecord
  2
DIVIDE2
 70
0
  3
Divide (.5x) __..__..__..__..__..__..__..__.._
 72
65
 73
6
 40
15.875
 49
6.3499999999999996
 74
0
 49
-3.1749999999999998
 74
0
 49
0.0
 74
0
 49
-3.1749999999999998
 74
0
 49
0.0
 74
0
 49
-3.1749999999999998
 74
0
  0
LTYPE
  5
3C
100
AcDbSymbolTableRecord
100
AcDbLinetypeTableRecord
  2
DIVIDEX2
 70
0
  3
Divide (2x) ________  .  .  ________  .  .  _
 72
65
 73
6
 40
63.5
 49
25.3999999999999986
 74
0
 49
-12.6999999999999993
 74
0
 49
0.0
 74
0
 49
-12.6999999999999993
 74
0
 49
0.0
 74
0
 49
-12.6999999999999993
 74
0
  0
LTYPE
  5
3D
100
AcDbSymbolTableRecord
100
AcDbLinetypeTableRecord
  2
CENTER
 70
0
  3
Center ____ _ ____ _ ____ _ ____ _ ____ _ ____
 72
65
 73
4
 40
50.7999999999999972
 49
31.75
 74
0
 49
-6.3499999999999996
 74
0
 49
6.3499999999999996
 74
0
 49
-6.3499999999999996
 74
0
  0
LTYPE
  5
3E
100
AcDbSymbolTableRecord
100
AcDbLinetypeTableRecord
  2
CENTER2
 70
0
  3
Center (.5x) ___ _ ___ _ ___ _ ___ _ ___ _ ___
 72
65
 73
4
 40
28.5749999999999993
 49
19.0500000000000007
 74
0
 49
-3.1749999999999998
 74
0
 49
3.1749999999999998
 74
0
 49
-3.1749999999999998
 74
0
  0
LTYPE
  5
3F
100
AcDbSymbolTableRecord
100
AcDbLinetypeTableRecord
  2
CENTERX2
 70
0
  3
Center (2x) ________  __  ________  __  _____
 72
65
 73
4
 40
101.5999999999999943
 49
63.5
 74
0
 49
-12.6999999999999993
 74
0
 49
12.6999999999999993
 74
0
 49
-12.6999999999999993
 74
0
  0
LTYPE
  5
40
100
AcDbSymbolTableRecord
100
AcDbLinetypeTableRecord
  2
BORDER
 70
0
  3
Border __ __ . __ __ . __ __ . __ __ . __ __ .
 72
65
 73
6
 40
44.4500000000000028
 49
12.6999999999999993
 74
0
 49
-6.3499999999999996
 74
0
 49
12.6999999999999993
 74
0
 49
-6.3499999999999996
 74
0
 49
0.0
 74
0
 49
-6.3499999999999996
 74
0
  0
LTYPE
  5
41
100
AcDbSymbolTableRecord
100
AcDbLinetypeTableRecord
  2
BORDER2
 70
0
  3
Border (.5x) __.__.__.__.__.__.__.__.__.__.__.
 72
65
 73
6
 40
22.2250000000000014
 49
6.3499999999999996
 74
0
 49
-3.1749999999999998
 74
0
 49
6.3499999999999996
 74
0
 49
-3.1749999999999998
 74
0
 49
0.0
 74
0
 49
-3.1749999999999998
 74
0
  0
LTYPE
  5
42
100
AcDbSymbolTableRecord
100
AcDbLinetypeTableRecord
  2
BORDERX2
 70
0
  3
Border (2x) ____  ____  .  ____  ____  .  ___
 72
65
 73
6
 40
88.9000000000000057
 49
25.3999999999999986
 74
0
 49
-12.6999999999999993
 74
0
 49
25.3999999999999986
 74
0
 49
-12.6999999999999993
 74
0
 49
0.0
 74
0
 49
-12.6999999999999993
 74
0
  0
ENDTAB
  0
TABLE
  2
LAYER
  5
2
100
AcDbSymbolTable
 70
15
  0
LAYER
  5
10
100
AcDbSymbolTableRecord
100
AcDbLayerTableRecord
  2
0
 70
0
 62
7
420
16777215
  6
CONTINUOUS
370
0
390
F
  0
LAYER
  5
43
100
AcDbSymbolTableRecord
100
AcDbLayerTableRecord
  2
Bottom Layer
 70
0
 62
7
420
16777215
  6
CONTINUOUS
370
0
390
F
  0
LAYER
  5
44
100
AcDbSymbolTableRecord
100
AcDbLayerTableRecord
  2
Notes
 70
0
 62
7
420
16777215
  6
CONTINUOUS
370
0
390
F
  0
LAYER
  5
45
100
AcDbSymbolTableRecord
100
AcDbLayerTableRecord
  2
Middle
 70
0
 62
7
420
16777215
  6
CONTINUOUS
370
0
390
F
  0
LAYER
  5
46
100
AcDbSymbolTableRecord
100
AcDbLayerTableRecord
  2
Middle Text
 70
0
 62
4
420
65535
  6
CONTINUOUS
370
0
390
F
  0
LAYER
  5
47
100
AcDbSymbolTableRecord
100
AcDbLayerTableRecord
  2
retainer
 70
0
 62
7
420
16777215
  6
CONTINUOUS
370
0
390
F
  0
LAYER
  5
48
100
AcDbSymbolTableRecord
100
AcDbLayerTableRecord
  2
Text
 70
0
 62
4
420
65535
  6
CONTINUOUS
370
0
390
F
  0
LAYER
  5
49
100
AcDbSymbolTableRecord
100
AcDbLayerTableRecord
  2
Bottom Text
 70
0
 62
4
420
65535
  6
CONTINUOUS
370
0
390
F
  0
LAYER
  5
4A
100
AcDbSymbolTableRecord
100
AcDbLayerTableRecord
  2
Top
 70
0
 62
7
420
16777215
  6
CONTINUOUS
370
0
390
F
  0
LAYER
  5
4B
100
AcDbSymbolTableRecord
100
AcDbLayerTableRecord
  2
Retainer Plate
 70
0
 62
7
420
0
  6
CONTINUOUS
370
0
390
F
  0
LAYER
  5
4C
100
AcDbSymbolTableRecord
100
AcDbLayerTableRecord
  2
Retainer Plate Text
 70
0
 62
4
420
65535
  6
CONTINUOUS
370
0
390
F
  0
LAYER
  5
4D
100
AcDbSymbolTableRecord
100
AcDbLayerTableRecord
  2
Main Plate Middle Layer
 70
0
 62
7
420
0
  6
CONTINUOUS
370
0
390
F
  0
LAYER
  5
4E
100
AcDbSymbolTableRecord
100
AcDbLayerTableRecord
  2
Main Plate Middle Text
 70
0
 62
4
420
65535
  6
CONTINUOUS
370
0
390
F
  0
LAYER
  5
4F
100
AcDbSymbolTableRecord
100
AcDbLayerTableRecord
  2
Top Plate Top
 70
0
 62
7
420
0
  6
CONTINUOUS
370
0
390
F
  0
LAYER
  5
50
100
AcDbSymbolTableRecord
100
AcDbLayerTableRecord
  2
Top Plate Top Text
 70
0
 62
4
420
65535
  6
CONTINUOUS
370
0
390
F
  0
ENDTAB
  0
TABLE
  2
STYLE
  5
3
100
AcDbSymbolTable
 70
1
  0
STYLE
  5
11
100
AcDbSymbolTableRecord
100
AcDbTextStyleTableRecord
  2
Standard
 70
0
 40
0.0
 41
0.75
 50
0.0
 71
0
 42
2.5
  3
txt
  4

  0
ENDTAB
  0
TABLE
  2
VIEW
  5
6
100
AcDbSymbolTable
 70
0
  0
ENDTAB
  0
TABLE
  2
UCS
  5
7
100
AcDbSymbolTable
 70
0
  0
ENDTAB
  0
TABLE
  2
APPID
  5
9
100
AcDbSymbolTable
 70
1
  0
APPID
  5
12
100
AcDbSymbolTableRecord
100
AcDbRegAppTableRecord
  2
ACAD
 70
0
  0
ENDTAB
  0
TABLE
  2
DIMSTYLE
  5
A
100
AcDbSymbolTable
 70
1
100
AcDbDimStyleTable
 71
0
  0
DIMSTYLE
105
27
100
AcDbSymbolTableRecord
100
AcDbDimStyleTableRecord
  2
Standard
 41
2.5
 42
0.625
 43
3.75
 44
1.25
 70
0
 73
0
 74
0
 77
1
 78
8
140
2.5
141
2.5
143
0.03937007874016
147
0.625
171
3
172
1
271
2
272
2
274
3
278
44
283
0
284
8
340
11
  0
ENDTAB
  0
TABLE
  2
BLOCK_RECORD
  5
1
100
AcDbSymbolTable
 70
1
  0
BLOCK_RECORD
  5
1F
100
AcDbSymbolTableRecord
100
AcDbBlockTableRecord
  2
*Model_Space
340
22
  0
BLOCK_RECORD
  5
1B
100
AcDbSymbolTableRecord
100
AcDbBlockTableRecord
  2
*Paper_Space
340
1E
  0
BLOCK_RECORD
  5
23
100
AcDbSymbolTableRecord
100
AcDbBlockTableRecord
  2
*Paper_Space0
340
26
  0
ENDTAB
  0
ENDSEC
  0
SECTION
  2
BLOCKS
  0
BLOCK
  5
20
100
AcDbEntity
  8
0
100
AcDbBlockBegin
  2
*Model_Space
 70
0
 10
0.0
 20
0.0
 30
0.0
  3
*Model_Space
  1

  0
ENDBLK
  5
21
100
AcDbEntity
  8
0
100
AcDbBlockEnd
  0
BLOCK
  5
1C
100
AcDbEntity
 67
1
  8
0
100
AcDbBlockBegin
  2
*Paper_Space
 70
0
 10
0.0
 20
0.0
 30
0.0
  3
*Paper_Space
  1

  0
ENDBLK
  5
1D
100
AcDbEntity
 67
1
  8
0
100
AcDbBlockEnd
  0
BLOCK
  5
24
100
AcDbEntity
  8
0
100
AcDbBlockBegin
  2
*Paper_Space0
 70
0
 10
0.0
 20
0.0
 30
0.0
  3
*Paper_Space0
  1

  0
ENDBLK
  5
25
100
AcDbEntity
  8
0
100
AcDbBlockEnd
  0
ENDSEC
  0
SECTION
  2
ENTITIES
  0
LINE
  5
51
100
AcDbEntity
100
AcDbLine
  8
Top Plate Top
 62
256
370
-1
  6
ByLayer
 10
4.2065112586549276
 20
45.8976816064152402
 30
0.0
 11
9.4514698900212437
 21
31.487276200763084
 31
0.0
  0
LINE
  5
52
100
AcDbEntity
100
AcDbLine
  8
Top Plate Top
 62
256
370
-1
  6
ByLayer
 10
37.1019983723422371
 20
66.721527940300291
 30
0.0
 11
40.3019983723422968
 21
67.8862326899522373
 31
0.0
  0
LINE
  5
53
100
AcDbEntity
100
AcDbLine
  8
Top Plate Top
 62
256
370
-1
  6
ByLayer
 10
8.2743342430744633
 20
34.7214298103845422
 30
0.0
 11
1.3618970572137243
 21
53.7131948919348474
 31
0.0
  0
LINE
  5
54
100
AcDbEntity
100
AcDbLine
  8
Top Plate Top
 62
256
370
-1
  6
ByLayer
 10
13.70199837234291
 20
2.0073116725542022
 30
0.0
 11
13.7019983723429348
 21
3.9396169110745589
 31
0.0
  0
LINE
  5
55
100
AcDbEntity
100
AcDbLine
  8
Top Plate Top
 62
256
370
-1
  6
ByLayer
 10
63.7019983723425014
 20
12.7559659464981294
 30
0.0
 11
63.7019983723426151
 21
2.0073116725541951
 31
0.0
  0
LINE
  5
56
100
AcDbEntity
100
AcDbLine
  8
Top Plate Top
 62
256
370
-1
  6
ByLayer
 10
48.3465280965087345
 20
70.8142020582185978
 30
0.0
 11
58.2743342430740654
 21
43.5377788458081909
 31
0.0
  0
LINE
  5
57
100
AcDbEntity
100
AcDbLine
  8
Top Plate Top
 62
256
370
-1
  6
ByLayer
 10
40.3019983723422968
 20
67.8862326899522373
 30
0.0
 11
48.3465280965087345
 21
70.8142020582185978
 31
0.0
  0
ARC
  5
58
100
AcDbEntity
  8
Top Plate Top
 62
256
370
-1
  6
ByLayer
100
AcDbCircle
 10
-76.2980016276563759
 20
3.9396169110733226
 30
0.0
 40
89.9999999999994458
100
AcDbArc
 50
360.0
 51
20.0000000000005862
  0
ARC
  5
59
100
AcDbEntity
  8
Top Plate Top
 62
256
370
-1
  6
ByLayer
100
AcDbCircle
 10
-26.2980016276561912
 20
12.7559659464973407
 30
0.0
 40
89.9999999999989058
100
AcDbArc
 50
360.0
 51
20.0000000000006892
  0
LINE
  5
5A
100
AcDbEntity
100
AcDbLine
  8
Top Plate Top
 62
256
370
-1
  6
ByLayer
 10
63.7019983723426151
 20
2.0073116725541951
 30
0.0
 11
13.70199837234291
 21
2.0073116725542022
 31
0.0
  0
LINE
  5
5B
100
AcDbEntity
100
AcDbLine
  8
Top Plate Top
 62
256
370
-1
  6
ByLayer
 10
1.3618970572137243
 20
53.7131948919348474
 30
0.0
 11
17.2427023484954987
 21
59.4933353141389105
 31
0.0
  0
LINE
  5
5C
100
AcDbEntity
100
AcDbLine
  8
Top Plate Top
 62
256
370
-1
  6
ByLayer
 10
21.6889642117291146
 20
47.2773312439220419
 30
0.0
 11
17.2427023484954987
 21
59.4933353141389105
 31
0.0
  0
LINE
  5
5D
100
AcDbEntity
100
AcDbLine
  8
Top Plate Top
 62
256
370
-1
  6
ByLayer
 10
36.9119846684608035
 20
52.8180575657979361
 30
0.0
 11
21.6889642117291146
 21
47.2773312439220419
 31
0.0
  0
LINE
  5
5E
100
AcDbEntity
100
AcDbLine
  8
Top Plate Top
 62
256
370
-1
  6
ByLayer
 10
32.4657228052271734
 20
65.034061636014826
 30
0.0
 11
37.1019983723422371
 21
66.721527940300291
 31
0.0
  0
LINE
  5
5F
100
AcDbEntity
100
AcDbLine
  8
Top Plate Top
 62
256
370
-1
  6
ByLayer
 10
36.9119846684608035
 20
52.8180575657979361
 30
0.0
 11
32.4657228052271734
 21
65.034061636014826
 31
0.0
  0
LINE
  5
60
100
AcDbEntity
100
AcDbLine
  8
Top Plate Top
 62
256
370
-1
  6
ByLayer
 10
33.3019983723425099
 20
35.2172196925468128
 30
0.0
 11
40.3019983723425099
 21
35.2172196925469265
 31
0.0
  0
LINE
  5
61
100
AcDbEntity
100
AcDbLine
  8
Top Plate Top
 62
256
370
-1
  6
ByLayer
 10
40.3019983723428439
 20
13.217219692546923
 30
0.0
 11
40.3019983723425099
 21
35.2172196925469265
 31
0.0
  0
LINE
  5
62
100
AcDbEntity
100
AcDbLine
  8
Top Plate Top
 62
256
370
-1
  6
ByLayer
 10
33.301998372342851
 20
13.2172196925468128
 30
0.0
 11
33.3019983723425099
 21
35.2172196925468128
 31
0.0
  0
LINE
  5
63
100
AcDbEntity
100
AcDbLine
  8
Top Plate Top
 62
256
370
-1
  6
ByLayer
 10
33.301998372342851
 20
13.2172196925468128
 30
0.0
 11
40.3019983723428439
 21
13.217219692546923
 31
0.0
  0
MTEXT
  5
64
100
AcDbEntity
100
AcDbMText
  8
Top Plate Top Text
 62
256
370
-1
  6
ByLayer
 10
12.3618970572137243
 20
39.7131948919348474
 30
0.0
 40
2.0
 41
100.0
 71
1
 72
2
  1
Top\~Plate\PTop
  7
standard
 50
0.0
 73
0
 44
1.0
  0
MTEXT
  5
65
100
AcDbEntity
100
AcDbMText
  8
Top Plate Top Text
 62
256
370
-1
  6
ByLayer
 10
43.3618970572137243
 20
39.7131948919348474
 30
0.0
 40
2.0
 41
100.0
 71
1
 72
2
  1
Top\~Plate\PTop
  7
standard
 50
0.0
 73
0
 44
1.0
  0
CIRCLE
  5
66
100
AcDbEntity
100
AcDbCircle
  8
Top Plate Top
 62
256
370
-1
  6
ByLayer
 10
51.3618970572137243
 20
23.713194891934851
 30
0.0
 40
1.45
  0
CIRCLE
  5
67
100
AcDbEntity
100
AcDbCircle
  8
Top Plate Top
 62
256
370
-1
  6
ByLayer
 10
25.083920631212326
 20
24.2172196925466814
 30
0.0
 40
1.45
  0
CIRCLE
  5
68
100
AcDbEntity
100
AcDbCircle
  8
Top Plate Top
 62
256
370
-1
  6
ByLayer
 10
17.3019983723427444
 20
18.7172196925465535
 30
0.0
 40
1.45
  0
CIRCLE
  5
69
100
AcDbEntity
100
AcDbCircle
  8
Top Plate Top
 62
256
370
-1
  6
ByLayer
 10
17.3019983723425632
 20
29.7172196925465641
 30
0.0
 40
1.45
  0
CIRCLE
  5
6A
100
AcDbEntity
100
AcDbCircle
  8
Top Plate Top
 62
256
370
-1
  6
ByLayer
 10
57.2019983723426151
 20
18.7172196925471823
 30
0.0
 40
1.45
  0
CIRCLE
  5
6B
100
AcDbEntity
100
AcDbCircle
  8
Top Plate Top
 62
256
370
-1
  6
ByLayer
 10
57.2019983723424588
 20
29.7172196925472036
 30
0.0
 40
1.45
  0
CIRCLE
  5
6C
100
AcDbEntity
100
AcDbCircle
  8
Top Plate Top
 62
256
370
-1
  6
ByLayer
 10
48.3618970572135822
 20
47.7131948919356788
 30
0.0
 40
1.45
  0
CIRCLE
  5
6D
100
AcDbEntity
100
AcDbCircle
  8
Top Plate Top
 62
256
370
-1
  6
ByLayer
 10
46.3618970572137101
 20
6.713194891934851
 30
0.0
 40
1.45
  0
CIRCLE
  5
6E
100
AcDbEntity
100
AcDbCircle
  8
Top Plate Top
 62
256
370
-1
  6
ByLayer
 10
31.3618970572139482
 20
6.7131948919351956
 30
0.0
 40
1.45
  0
CIRCLE
  5
6F
100
AcDbEntity
100
AcDbCircle
  8
Top Plate Top
 62
256
370
-1
  6
ByLayer
 10
19.3618970572137243
 20
41.2631948919349085
 30
0.0
 40
1.45
  0
LINE
  5
70
100
AcDbEntity
100
AcDbLine
  8
Retainer Plate
 62
256
370
-1
  6
ByLayer
 10
69.1397116875703261
 20
4.4465834995283799
 30
0.0
 11
69.139711687570383
 21
2.5142782610070853
 31
0.0
  0
LINE
  5
71
100
AcDbEntity
100
AcDbLine
  8
Retainer Plate
 62
256
370
-1
  6
ByLayer
 10
113.7120475583021175
 20
44.0447454342611948
 30
0.0
 11
103.7842414117369572
 21
71.3211686466718504
 31
0.0
  0
LINE
  5
72
100
AcDbEntity
100
AcDbLine
  8
Retainer Plate
 62
256
370
-1
  6
ByLayer
 10
119.1397116875704114
 20
2.5142782610070711
 30
0.0
 11
119.1397116875703261
 21
13.2629325349510339
 31
0.0
  0
LINE
  5
73
100
AcDbEntity
100
AcDbLine
  8
Retainer Plate
 62
256
370
-1
  6
ByLayer
 10
56.7996103724416344
 20
54.2201614803884411
 30
0.0
 11
63.7120475583022028
 21
35.2283963988379512
 31
0.0
  0
ARC
  5
74
100
AcDbEntity
  8
Retainer Plate
 62
256
370
-1
  6
ByLayer
100
AcDbCircle
 10
29.1397116875709514
 20
13.2629325349512612
 30
0.0
 40
89.9999999999993463
100
AcDbArc
 50
360.0
 51
20.0000000000000711
  0
ARC
  5
75
100
AcDbEntity
  8
Retainer Plate
 62
256
370
-1
  6
ByLayer
100
AcDbCircle
 10
-20.8602883124294323
 20
4.4465834995283444
 30
0.0
 40
89.9999999999996447
100
AcDbArc
 50
360.0
 51
20.0000000000000711
  0
LINE
  5
76
100
AcDbEntity
100
AcDbLine
  8
Retainer Plate
 62
256
370
-1
  6
ByLayer
 10
69.139711687570383
 20
2.5142782610070995
 30
0.0
 11
119.1397116875704114
 21
2.5142782610070711
 31
0.0
  0
LINE
  5
77
100
AcDbEntity
100
AcDbLine
  8
Retainer Plate
 62
256
370
-1
  6
ByLayer
 10
69.1397116875702693
 20
4.4465834995278115
 30
0.0
 11
69.139711687570383
 21
2.5142782610070995
 31
0.0
  0
LINE
  5
78
100
AcDbEntity
100
AcDbLine
  8
Retainer Plate
 62
256
370
-1
  6
ByLayer
 10
103.7842414117369572
 20
71.3211686466718504
 30
0.0
 11
87.9034361204551828
 21
65.5410282244679934
 31
0.0
  0
LINE
  5
79
100
AcDbEntity
100
AcDbLine
  8
Retainer Plate
 62
256
370
-1
  6
ByLayer
 10
87.9034361204551828
 20
65.5410282244679934
 30
0.0
 11
92.3496979836888272
 21
53.3250241542511887
 31
0.0
  0
LINE
  5
7A
100
AcDbEntity
100
AcDbLine
  8
Retainer Plate
 62
256
370
-1
  6
ByLayer
 10
92.3496979836888272
 20
53.3250241542511887
 30
0.0
 11
77.1266775269571099
 21
47.78429783237533
 31
0.0
  0
LINE
  5
7B
100
AcDbEntity
100
AcDbLine
  8
Retainer Plate
 62
256
370
-1
  6
ByLayer
 10
77.1266775269571099
 20
47.78429783237533
 30
0.0
 11
72.6804156637234371
 21
60.000301902592156
 31
0.0
  0
LINE
  5
7C
100
AcDbEntity
100
AcDbLine
  8
Retainer Plate
 62
256
370
-1
  6
ByLayer
 10
72.6804156637234371
 20
60.000301902592156
 30
0.0
 11
56.7996103724416628
 21
54.2201614803884127
 31
0.0
  0
MTEXT
  5
7D
100
AcDbEntity
100
AcDbMText
  8
Retainer Plate Text
 62
256
370
-1
  6
ByLayer
 10
97.9952634084482668
 20
39.9388322873587924
 30
0.0
 40
3.0
 41
100.0
 71
5
 72
2
  1
Retainer\PPlate
  7
standard
 50
360.0
 73
1
 44
1.0
  0
CIRCLE
  5
7E
100
AcDbEntity
100
AcDbCircle
  8
Retainer Plate
 62
256
370
-1
  6
ByLayer
 10
106.7996103724416344
 20
24.2201614803883984
 30
0.0
 40
1.45
  0
CIRCLE
  5
7F
100
AcDbEntity
100
AcDbCircle
  8
Retainer Plate
 62
256
370
-1
  6
ByLayer
 10
80.5216339464402324
 20
24.7241862810002537
 30
0.0
 40
1.45
  0
CIRCLE
  5
80
100
AcDbEntity
100
AcDbCircle
  8
Retainer Plate
 62
256
370
-1
  6
ByLayer
 10
72.7397116875706615
 20
19.2241862810001365
 30
0.0
 40
1.45
  0
CIRCLE
  5
81
100
AcDbEntity
100
AcDbCircle
  8
Retainer Plate
 62
256
370
-1
  6
ByLayer
 10
72.7397116875704768
 20
30.2241862810001365
 30
0.0
 40
1.45
  0
CIRCLE
  5
82
100
AcDbEntity
100
AcDbCircle
  8
Retainer Plate
 62
256
370
-1
  6
ByLayer
 10
112.6397116875700704
 20
19.2241862810000903
 30
0.0
 40
1.45
  0
CIRCLE
  5
83
100
AcDbEntity
100
AcDbCircle
  8
Retainer Plate
 62
256
370
-1
  6
ByLayer
 10
112.6397116875698998
 20
30.2241862810000548
 30
0.0
 40
1.45
  0
CIRCLE
  5
84
100
AcDbEntity
100
AcDbCircle
  8
Retainer Plate
 62
256
370
-1
  6
ByLayer
 10
103.7996103724416344
 20
48.2201614803884198
 30
0.0
 40
1.45
  0
CIRCLE
  5
85
100
AcDbEntity
100
AcDbCircle
  8
Retainer Plate
 62
256
370
-1
  6
ByLayer
 10
101.7996103724414212
 20
7.2201614803878904
 30
0.0
 40
1.45
  0
CIRCLE
  5
86
100
AcDbEntity
100
AcDbCircle
  8
Retainer Plate
 62
256
370
-1
  6
ByLayer
 10
86.7996103724416628
 20
7.2201614803883594
 30
0.0
 40
1.45
  0
CIRCLE
  5
87
100
AcDbEntity
100
AcDbCircle
  8
Retainer Plate
 62
256
370
-1
  6
ByLayer
 10
74.7996103724415633
 20
41.7701614803882322
 30
0.0
 40
1.45
  0
LINE
  5
88
100
AcDbEntity
100
AcDbLine
  8
Main Plate Middle Layer
 62
256
370
-1
  6
ByLayer
 10
157.710993389563356
 20
12.8775683330802977
 30
0.0
 11
150.1934524232760282
 21
10.1414071864749147
 31
0.0
  0
LINE
  5
89
100
AcDbEntity
100
AcDbLine
  8
Main Plate Middle Layer
 62
256
370
-1
  6
ByLayer
 10
168.5612366897207437
 20
44.4666622737337036
 30
0.0
 11
158.6334305431555833
 21
71.7430854861443095
 31
0.0
  0
LINE
  5
8A
100
AcDbEntity
100
AcDbLine
  8
Main Plate Middle Layer
 62
256
370
-1
  6
ByLayer
 10
173.9889008189890092
 20
2.9361951004795088
 30
0.0
 11
173.9889008189890376
 21
13.6848493744235107
 31
0.0
  0
LINE
  5
8B
100
AcDbEntity
100
AcDbLine
  8
Main Plate Middle Layer
 62
256
370
-1
  6
ByLayer
 10
123.9889008189890376
 20
4.868500339000235
 30
0.0
 11
123.9889008189890092
 21
2.9361951004795515
 31
0.0
  0
ARC
  5
8C
100
AcDbEntity
  8
Main Plate Middle Layer
 62
256
370
-1
  6
ByLayer
100
AcDbCircle
 10
149.9882403372806721
 20
10.7052227589464657
 30
0.0
 40
0.599999999999996
100
AcDbArc
 50
199.9999999999997158
 51
289.9999999999998863
  0
ARC
  5
8D
100
AcDbEntity
  8
Main Plate Middle Layer
 62
256
370
-1
  6
ByLayer
100
AcDbCircle
 10
157.505781303567943
 20
13.4413839055518096
 30
0.0
 40
0.5999999999999983
100
AcDbArc
 50
289.9999999999998295
 51
20.000000000000103
  0
ARC
  5
8E
100
AcDbEntity
  8
Main Plate Middle Layer
 62
256
370
-1
  6
ByLayer
100
AcDbCircle
 10
83.9889008189895776
 20
13.6848493744237487
 30
0.0
 40
89.9999999999993463
100
AcDbArc
 50
0.0
 51
20.000000000000103
  0
ARC
  5
8F
100
AcDbEntity
  8
Main Plate Middle Layer
 62
256
370
-1
  6
ByLayer
100
AcDbCircle
 10
33.9889008189892934
 20
4.8685003390021322
 30
0.0
 40
89.9999999999996447
100
AcDbArc
 50
0.0
 51
20.000000000000103
  0
LINE
  5
90
100
AcDbEntity
100
AcDbLine
  8
Main Plate Middle Layer
 62
256
370
-1
  6
ByLayer
 10
111.6487995038602605
 20
54.6420783198608433
 30
0.0
 11
118.5612366897208574
 21
35.6503132383104031
 31
0.0
  0
LINE
  5
91
100
AcDbEntity
100
AcDbLine
  8
Main Plate Middle Layer
 62
256
370
-1
  6
ByLayer
 10
143.9099629423567706
 20
52.5498704920838051
 30
0.0
 11
158.0695968760394408
 21
13.6465959915472403
 31
0.0
  0
LINE
  5
92
100
AcDbEntity
100
AcDbLine
  8
Main Plate Middle Layer
 62
256
370
-1
  6
ByLayer
 10
143.9099629423567706
 20
52.5498704920838051
 30
0.0
 11
147.1988871151074534
 21
53.7469409937236335
 31
0.0
  0
LINE
  5
93
100
AcDbEntity
100
AcDbLine
  8
Main Plate Middle Layer
 62
256
370
-1
  6
ByLayer
 10
147.1988871151074534
 20
53.7469409937236335
 30
0.0
 11
142.7526252518737522
 21
65.9629450639404808
 31
0.0
  0
LINE
  5
94
100
AcDbEntity
100
AcDbLine
  8
Main Plate Middle Layer
 62
256
370
-1
  6
ByLayer
 10
135.2647908311264189
 20
49.403285173487653
 30
0.0
 11
131.9758666583757361
 21
48.2062146718478388
 31
0.0
  0
LINE
  5
95
100
AcDbEntity
100
AcDbLine
  8
Main Plate Middle Layer
 62
256
370
-1
  6
ByLayer
 10
131.9758666583757361
 20
48.2062146718478388
 30
0.0
 11
127.5296047951420348
 21
60.4222187420646719
 31
0.0
  0
LINE
  5
96
100
AcDbEntity
100
AcDbLine
  8
Main Plate Middle Layer
 62
256
370
-1
  6
ByLayer
 10
173.9889008189890092
 20
2.9361951004795088
 30
0.0
 11
123.9889008189890092
 21
2.9361951004795515
 31
0.0
  0
LINE
  5
97
100
AcDbEntity
100
AcDbLine
  8
Main Plate Middle Layer
 62
256
370
-1
  6
ByLayer
 10
158.6334305431555833
 20
71.7430854861443095
 30
0.0
 11
142.7526252518737522
 21
65.9629450639404808
 31
0.0
  0
LINE
  5
98
100
AcDbEntity
100
AcDbLine
  8
Main Plate Middle Layer
 62
256
370
-1
  6
ByLayer
 10
127.5296047951420348
 20
60.4222187420646719
 30
0.0
 11
111.6487995038602605
 21
54.6420783198608433
 31
0.0
  0
MTEXT
  5
99
100
AcDbEntity
100
AcDbMText
  8
Main Plate Middle Text
 62
256
370
-1
  6
ByLayer
 10
164.6900491096808139
 20
45.6204291809864628
 30
0.0
 40
2.0
 41
100.0
 71
3
 72
2
  1
Main\~Plate\PMiddle
  7
standard
 50
360.0
 73
0
 44
1.0
  0
LINE
  5
9A
100
AcDbEntity
100
AcDbLine
  8
Main Plate Middle Layer
 62
256
370
-1
  6
ByLayer
 10
135.2647908311264189
 20
49.403285173487653
 30
0.0
 11
149.4244247648090607
 21
10.5000106729510385
 31
0.0
  0
LINE
  5
9B
100
AcDbEntity
100
AcDbLine
  8
Main Plate Middle Layer
 62
256
370
-1
  6
ByLayer
 10
116.6139674882505801
 20
50.064185039454955
 30
0.0
 11
123.9435699303806473
 21
52.7319421573949469
 31
0.0
  0
LINE
  5
9C
100
AcDbEntity
100
AcDbLine
  8
Main Plate Middle Layer
 62
256
370
-1
  6
ByLayer
 10
123.9435699303806473
 20
52.7319421573949469
 30
0.0
 11
125.3116505036831256
 21
48.973171674251823
 31
0.0
  0
LINE
  5
9D
100
AcDbEntity
100
AcDbLine
  8
Main Plate Middle Layer
 62
256
370
-1
  6
ByLayer
 10
125.3116505036831256
 20
48.973171674251823
 30
0.0
 11
124.4659271449759501
 21
48.665353545258391
 31
0.0
  0
LINE
  5
9E
100
AcDbEntity
100
AcDbLine
  8
Main Plate Middle Layer
 62
256
370
-1
  6
ByLayer
 10
124.4659271449759501
 20
48.665353545258391
 30
0.0
 11
125.4919875749530433
 21
45.8462756829008171
 31
0.0
  0
LINE
  5
9F
100
AcDbEntity
100
AcDbLine
  8
Main Plate Middle Layer
 62
256
370
-1
  6
ByLayer
 10
125.4919875749530433
 20
45.8462756829008171
 30
0.0
 11
119.8538318502377251
 21
43.7941548229467728
 31
0.0
  0
LINE
  5
A0
100
AcDbEntity
100
AcDbLine
  8
Main Plate Middle Layer
 62
256
370
-1
  6
ByLayer
 10
119.8538318502377251
 20
43.7941548229467728
 30
0.0
 11
118.8277714202605182
 21
46.6132326853044461
 31
0.0
  0
LINE
  5
A1
100
AcDbEntity
100
AcDbLine
  8
Main Plate Middle Layer
 62
256
370
-1
  6
ByLayer
 10
118.8277714202605182
 20
46.6132326853044461
 30
0.0
 11
117.9820480615532574
 21
46.3054145563112343
 31
0.0
  0
LINE
  5
A2
100
AcDbEntity
100
AcDbLine
  8
Main Plate Middle Layer
 62
256
370
-1
  6
ByLayer
 10
117.9820480615532574
 20
46.3054145563112343
 30
0.0
 11
116.6139674882505801
 21
50.064185039454955
 31
0.0
  0
LINE
  5
A3
100
AcDbEntity
100
AcDbLine
  8
Main Plate Middle Layer
 62
256
370
-1
  6
ByLayer
 10
150.4429018365432
 20
62.376910199179008
 30
0.0
 11
157.7725042786732388
 21
65.0446673171193197
 31
0.0
  0
LINE
  5
A4
100
AcDbEntity
100
AcDbLine
  8
Main Plate Middle Layer
 62
256
370
-1
  6
ByLayer
 10
157.7725042786732388
 20
65.0446673171193197
 30
0.0
 11
159.1405848519759445
 21
61.2858968339757268
 31
0.0
  0
LINE
  5
A5
100
AcDbEntity
100
AcDbLine
  8
Main Plate Middle Layer
 62
256
370
-1
  6
ByLayer
 10
159.1405848519759445
 20
61.2858968339757268
 30
0.0
 11
158.2948614932686553
 21
60.978078704982515
 31
0.0
  0
LINE
  5
A6
100
AcDbEntity
100
AcDbLine
  8
Main Plate Middle Layer
 62
256
370
-1
  6
ByLayer
 10
158.2948614932686553
 20
60.978078704982515
 30
0.0
 11
159.3209219232456064
 21
58.1590008426248417
 31
0.0
  0
LINE
  5
A7
100
AcDbEntity
100
AcDbLine
  8
Main Plate Middle Layer
 62
256
370
-1
  6
ByLayer
 10
159.3209219232456064
 20
58.1590008426248417
 30
0.0
 11
153.6827661985302029
 21
56.1068799826707973
 31
0.0
  0
LINE
  5
A8
100
AcDbEntity
100
AcDbLine
  8
Main Plate Middle Layer
 62
256
370
-1
  6
ByLayer
 10
153.6827661985302029
 20
56.1068799826707973
 30
0.0
 11
152.6567057685532234
 21
58.9259578450284849
 31
0.0
  0
LINE
  5
A9
100
AcDbEntity
100
AcDbLine
  8
Main Plate Middle Layer
 62
256
370
-1
  6
ByLayer
 10
152.6567057685532234
 20
58.9259578450284849
 30
0.0
 11
151.8109824098459057
 21
58.6181397160354223
 31
0.0
  0
LINE
  5
AA
100
AcDbEntity
100
AcDbLine
  8
Main Plate Middle Layer
 62
256
370
-1
  6
ByLayer
 10
151.8109824098459057
 20
58.6181397160354223
 30
0.0
 11
150.4429018365432
 21
62.376910199179008
 31
0.0
  0
LINE
  5
AB
100
AcDbEntity
100
AcDbLine
  8
Main Plate Middle Layer
 62
256
370
-1
  6
ByLayer
 10
129.0889008189890035
 20
10.9361951004792068
 30
0.0
 11
136.8889008189890149
 21
10.936195100479658
 31
0.0
  0
LINE
  5
AC
100
AcDbEntity
100
AcDbLine
  8
Main Plate Middle Layer
 62
256
370
-1
  6
ByLayer
 10
136.8889008189890149
 20
10.936195100479658
 30
0.0
 11
136.8889008189890149
 21
14.9361951004796296
 31
0.0
  0
LINE
  5
AD
100
AcDbEntity
100
AcDbLine
  8
Main Plate Middle Layer
 62
256
370
-1
  6
ByLayer
 10
136.8889008189890149
 20
14.9361951004796296
 30
0.0
 11
135.9889008189890376
 21
14.9361951004795586
 31
0.0
  0
LINE
  5
AE
100
AcDbEntity
100
AcDbLine
  8
Main Plate Middle Layer
 62
256
370
-1
  6
ByLayer
 10
135.9889008189890376
 20
14.9361951004795586
 30
0.0
 11
135.9889008189890376
 21
16.9361951004795763
 31
0.0
  0
LINE
  5
AF
100
AcDbEntity
100
AcDbLine
  8
Main Plate Middle Layer
 62
256
370
-1
  6
ByLayer
 10
135.9889008189890376
 20
16.9361951004795763
 30
0.0
 11
129.9889008189890092
 21
16.9361951004795515
 31
0.0
  0
LINE
  5
B0
100
AcDbEntity
100
AcDbLine
  8
Main Plate Middle Layer
 62
256
370
-1
  6
ByLayer
 10
129.9889008189890092
 20
16.9361951004795515
 30
0.0
 11
129.9889008189890092
 21
14.9361951004795763
 31
0.0
  0
LINE
  5
B1
100
AcDbEntity
100
AcDbLine
  8
Main Plate Middle Layer
 62
256
370
-1
  6
ByLayer
 10
129.9889008189890092
 20
14.9361951004795763
 30
0.0
 11
129.0889008189890035
 21
14.9361951004792637
 31
0.0
  0
LINE
  5
B2
100
AcDbEntity
100
AcDbLine
  8
Main Plate Middle Layer
 62
256
370
-1
  6
ByLayer
 10
129.0889008189890035
 20
14.9361951004792637
 30
0.0
 11
129.0889008189890035
 21
10.9361951004792068
 31
0.0
  0
LINE
  5
B3
100
AcDbEntity
100
AcDbLine
  8
Main Plate Middle Layer
 62
256
370
-1
  6
ByLayer
 10
161.0889008189889182
 20
10.9361951004795515
 30
0.0
 11
168.8889008189890433
 21
10.9361951004796083
 31
0.0
  0
LINE
  5
B4
100
AcDbEntity
100
AcDbLine
  8
Main Plate Middle Layer
 62
256
370
-1
  6
ByLayer
 10
168.8889008189890433
 20
10.9361951004796083
 30
0.0
 11
168.8889008189890149
 21
14.9361951004796332
 31
0.0
  0
LINE
  5
B5
100
AcDbEntity
100
AcDbLine
  8
Main Plate Middle Layer
 62
256
370
-1
  6
ByLayer
 10
168.8889008189890149
 20
14.9361951004796332
 30
0.0
 11
167.9889008189890092
 21
14.936195100479555
 31
0.0
  0
LINE
  5
B6
100
AcDbEntity
100
AcDbLine
  8
Main Plate Middle Layer
 62
256
370
-1
  6
ByLayer
 10
167.9889008189890092
 20
14.936195100479555
 30
0.0
 11
167.9889008189890376
 21
16.9361951004795372
 31
0.0
  0
LINE
  5
B7
100
AcDbEntity
100
AcDbLine
  8
Main Plate Middle Layer
 62
256
370
-1
  6
ByLayer
 10
167.9889008189890376
 20
16.9361951004795372
 30
0.0
 11
161.9889008189889239
 21
16.9361951004795408
 31
0.0
  0
LINE
  5
B8
100
AcDbEntity
100
AcDbLine
  8
Main Plate Middle Layer
 62
256
370
-1
  6
ByLayer
 10
161.9889008189889239
 20
16.9361951004795408
 30
0.0
 11
161.988900818989066
 21
14.9361951004795657
 31
0.0
  0
LINE
  5
B9
100
AcDbEntity
100
AcDbLine
  8
Main Plate Middle Layer
 62
256
370
-1
  6
ByLayer
 10
161.988900818989066
 20
14.9361951004795657
 30
0.0
 11
161.0889008189890603
 21
14.936195100479523
 31
0.0
  0
LINE
  5
BA
100
AcDbEntity
100
AcDbLine
  8
Main Plate Middle Layer
 62
256
370
-1
  6
ByLayer
 10
161.0889008189890603
 20
14.936195100479523
 30
0.0
 11
161.0889008189889182
 21
10.9361951004795515
 31
0.0
  0
CIRCLE
  5
BB
100
AcDbEntity
100
AcDbCircle
  8
Main Plate Middle Layer
 62
256
370
-1
  6
ByLayer
 10
135.3708230778588586
 20
25.1461031204726666
 30
0.0
 40
1.45
  0
CIRCLE
  5
BC
100
AcDbEntity
100
AcDbCircle
  8
Main Plate Middle Layer
 62
256
370
-1
  6
ByLayer
 10
161.6487995038602605
 20
24.642078319860822
 30
0.0
 40
1.45
  0
CIRCLE
  5
BD
100
AcDbEntity
100
AcDbCircle
  8
Main Plate Middle Layer
 62
256
370
-1
  6
ByLayer
 10
127.5889008189892451
 20
19.6461031204725458
 30
0.0
 40
1.45
  0
CIRCLE
  5
BE
100
AcDbEntity
100
AcDbCircle
  8
Main Plate Middle Layer
 62
256
370
-1
  6
ByLayer
 10
127.5889008189890887
 20
30.6461031204725423
 30
0.0
 40
1.45
  0
CIRCLE
  5
BF
100
AcDbEntity
100
AcDbCircle
  8
Main Plate Middle Layer
 62
256
370
-1
  6
ByLayer
 10
167.4889008189887534
 20
19.6461031204725067
 30
0.0
 40
1.45
  0
CIRCLE
  5
C0
100
AcDbEntity
100
AcDbCircle
  8
Main Plate Middle Layer
 62
256
370
-1
  6
ByLayer
 10
167.4889008189885544
 20
30.6461031204725245
 30
0.0
 40
1.45
  0
CIRCLE
  5
C1
100
AcDbEntity
100
AcDbCircle
  8
Main Plate Middle Layer
 62
256
370
-1
  6
ByLayer
 10
158.6487995038602605
 20
48.6420783198612341
 30
0.0
 40
1.45
  0
CIRCLE
  5
C2
100
AcDbEntity
100
AcDbCircle
  8
Main Plate Middle Layer
 62
256
370
-1
  6
ByLayer
 10
156.6487995038600616
 20
7.6420783198604418
 30
0.0
 40
1.45
  0
CIRCLE
  5
C3
100
AcDbEntity
100
AcDbCircle
  8
Main Plate Middle Layer
 62
256
370
-1
  6
ByLayer
 10
141.648799503860289
 20
7.6420783198608326
 30
0.0
 40
1.45
  0
CIRCLE
  5
C4
100
AcDbEntity
100
AcDbCircle
  8
Main Plate Middle Layer
 62
256
370
-1
  6
ByLayer
 10
129.6487995038601753
 20
42.1920783198607126
 30
0.0
 40
1.45
  0
ENDSEC
  0
SECTION
  2
OBJECTS
  0
DICTIONARY
  5
C
100
AcDbDictionary
280
0
281
1
  3
ACAD_GROUP
350
D
  3
ACAD_LAYOUT
350
1A
  3
ACAD_MLINESTYLE
350
17
  3
ACAD_PLOTSETTINGS
350
19
  3
ACAD_PLOTSTYLENAME
350
E
  3
AcDbVariableDictionary
350
C5
  0
DICTIONARY
  5
D
100
AcDbDictionary
280
0
281
1
  0
ACDBDICTIONARYWDFLT
  5
E
100
AcDbDictionary
281
1
  3
Normal
350
F
100
AcDbDictionaryWithDefault
340
F
  0
ACDBPLACEHOLDER
  5
F
  0
DICTIONARY
  5
17
100
AcDbDictionary
280
0
281
1
  3
Standard
350
18
  0
MLINESTYLE
  5
18
100
AcDbMlineStyle
  2
STANDARD
 70
0
  3

 62
256
 51
90.0
 52
90.0
 71
2
 49
0.5
 62
256
  6
BYLAYER
 49
-0.5
 62
256
  6
BYLAYER
  0
DICTIONARY
  5
19
100
AcDbDictionary
280
0
281
1
  0
DICTIONARY
  5
1A
100
AcDbDictionary
281
1
  3
Layout1
350
1E
  3
Layout2
350
26
  3
Model
350
22
  0
LAYOUT
  5
1E
100
AcDbPlotSettings
  1

  2
C:\Program Files\AutoCAD 2002\plotters\DWF ePlot (optimized for plotting).pc3
  4

  6

 40
0.0
 41
0.0
 42
0.0
 43
0.0
 44
0.0
 45
0.0
 46
0.0
 47
0.0
 48
0.0
 49
0.0
140
0.0
141
0.0
142
1.0
143
1.0
 70
688
 72
0
 73
0
 74
5
  7

 75
16
147
1.0
148
0.0
149
0.0
100
AcDbLayout
  1
Layout1
 70
1
 71
1
 10
0.0
 20
0.0
 11
420.0
 21
297.0
 12
0.0
 22
0.0
 32
0.0
 14
100000000000000000000.0
 24
100000000000000000000.0
 34
100000000000000000000.0
 15
-100000000000000000000.0
 25
-100000000000000000000.0
 35
-100000000000000000000.0
146
0.0
 13
0.0
 23
0.0
 33
0.0
 16
1.0
 26
0.0
 36
0.0
 17
0.0
 27
1.0
 37
0.0
 76
0
330
1B
  0
LAYOUT
  5
22
100
AcDbPlotSettings
  1

  2
C:\Program Files\AutoCAD 2002\plotters\DWF ePlot (optimized for plotting).pc3
  4

  6

 40
0.0
 41
0.0
 42
0.0
 43
0.0
 44
0.0
 45
0.0
 46
0.0
 47
0.0
 48
0.0
 49
0.0
140
0.0
141
0.0
142
1.0
143
1.0
 70
1712
 72
0
 73
0
 74
0
  7

 75
0
147
1.0
148
0.0
149
0.0
100
AcDbLayout
  1
Model
 70
1
 71
0
 10
0.0
 20
0.0
 11
12.0
 21
9.0
 12
0.0
 22
0.0
 32
0.0
 14
0.0
 24
0.0
 34
0.0
 15
0.0
 25
0.0
 35
0.0
146
0.0
 13
0.0
 23
0.0
 33
0.0
 16
1.0
 26
0.0
 36
0.0
 17
0.0
 27
1.0
 37
0.0
 76
0
330
1F
  0
LAYOUT
  5
26
100
AcDbPlotSettings
  1

  2
C:\Program Files\AutoCAD 2002\plotters\DWF ePlot (optimized for plotting).pc3
  4

  6

 40
0.0
 41
0.0
 42
0.0
 43
0.0
 44
0.0
 45
0.0
 46
0.0
 47
0.0
 48
0.0
 49
0.0
140
0.0
141
0.0
142
1.0
143
1.0
 70
688
 72
0
 73
0
 74
5
  7

 75
16
147
1.0
148
0.0
149
0.0
100
AcDbLayout
  1
Layout2
 70
1
 71
2
 10
0.0
 20
0.0
 11
12.0
 21
9.0
 12
0.0
 22
0.0
 32
0.0
 14
0.0
 24
0.0
 34
0.0
 15
0.0
 25
0.0
 35
0.0
146
0.0
 13
0.0
 23
0.0
 33
0.0
 16
1.0
 26
0.0
 36
0.0
 17
0.0
 27
1.0
 37
0.0
 76
0
330
23
  0
DICTIONARY
  5
C5
100
AcDbDictionary
281
1
  3
DIMASSOC
350
C7
  3
HIDETEXT
350
C6
  0
DICTIONARYVAR
  5
C6
100
DictionaryVariables
280
0
  1
2
  0
DICTIONARYVAR
  5
C7
100
DictionaryVariables
280
0
  1
1
  0
ENDSEC
  0
EOF
