999
dxflib 2.2.0.0
  0
SECTION
  2
HEADER
  9
$ACADVER
  1
AC1015
  9
$HANDSEED
  5
FFFF
  9
$DIMASZ
 40
2.5
  9
$PLIMMIN
 10
0.0
 20
0.0
  9
$DIMEXE
 40
1.25
  9
$DIMGAP
 40
0.625
  9
$PLIMMAX
 10
210.0
 20
297.0
  9
$INSUNITS
 70
4
  9
$DIMSTYLE
  2
Standard
  9
$CLAYER
  8
0
  9
$DIMEXO
 40
0.625
  9
$DIMTXT
 40
2.5
  9
$CLAYER
  8
0
  0
ENDSEC
  0
SECTION
  2
TABLES
  0
TABLE
  2
VPORT
  5
8
100
AcDbSymbolTable
 70
1
  0
VPORT
  5
30
100
AcDbSymbolTableRecord
100
AcDbViewportTableRecord
  2
*Active
 70
0
 10
0.0
 20
0.0
 11
1.0
 21
1.0
 12
286.3055555555554861
 22
148.5
 13
0.0
 23
0.0
 14
10.0
 24
10.0
 15
10.0
 25
10.0
 16
0.0
 26
0.0
 36
1.0
 17
0.0
 27
0.0
 37
0.0
 40
297.0
 41
1.92798353909465
 42
50.0
 43
0.0
 44
0.0
 50
0.0
 51
0.0
 71
0
 72
100
 73
1
 74
3
 75
1
 76
1
 77
0
 78
0
281
0
 65
1
110
0.0
120
0.0
130
0.0
111
1.0
121
0.0
131
0.0
112
0.0
122
1.0
132
0.0
 79
0
146
0.0
  0
ENDTAB
  0
TABLE
  2
LTYPE
  5
5
100
AcDbSymbolTable
 70
21
  0
LTYPE
  5
14
100
AcDbSymbolTableRecord
100
AcDbLinetypeTableRecord
  2
ByBlock
 70
0
  3

 72
65
 73
0
 40
0.0
  0
LTYPE
  5
15
100
AcDbSymbolTableRecord
100
AcDbLinetypeTableRecord
  2
ByLayer
 70
0
  3

 72
65
 73
0
 40
0.0
  0
LTYPE
  5
16
100
AcDbSymbolTableRecord
100
AcDbLinetypeTableRecord
  2
CONTINUOUS
 70
0
  3
Solid line
 72
65
 73
0
 40
0.0
  0
LTYPE
  5
31
100
AcDbSymbolTableRecord
100
AcDbLinetypeTableRecord
  2
DOT
 70
0
  3
Dot . . . . . . . . . . . . . . . . . . . . . .
 72
65
 73
2
 40
6.3499999999999996
 49
0.0
 74
0
 49
-6.3499999999999996
 74
0
  0
LTYPE
  5
32
100
AcDbSymbolTableRecord
100
AcDbLinetypeTableRecord
  2
DOT2
 70
0
  3
Dot (.5x) .....................................
 72
65
 73
2
 40
3.1749999999999998
 49
0.0
 74
0
 49
-3.1749999999999998
 74
0
  0
LTYPE
  5
33
100
AcDbSymbolTableRecord
100
AcDbLinetypeTableRecord
  2
DOTX2
 70
0
  3
Dot (2x) .  .  .  .  .  .  .  .  .  .  .  .  .
 72
65
 73
2
 40
12.6999999999999993
 49
0.0
 74
0
 49
-12.6999999999999993
 74
0
  0
LTYPE
  5
34
100
AcDbSymbolTableRecord
100
AcDbLinetypeTableRecord
  2
DASHED
 70
0
  3
Dashed __ __ __ __ __ __ __ __ __ __ __ __ __ _
 72
65
 73
2
 40
19.0500000000000007
 49
12.6999999999999993
 74
0
 49
-6.3499999999999996
 74
0
  0
LTYPE
  5
35
100
AcDbSymbolTableRecord
100
AcDbLinetypeTableRecord
  2
DASHED2
 70
0
  3
Dashed (.5x) _ _ _ _ _ _ _ _ _ _ _ _ _ _ _ _ _
 72
65
 73
2
 40
9.5250000000000004
 49
6.3499999999999996
 74
0
 49
-3.1749999999999998
 74
0
  0
LTYPE
  5
36
100
AcDbSymbolTableRecord
100
AcDbLinetypeTableRecord
  2
DASHEDX2
 70
0
  3
Dashed (2x) ____  ____  ____  ____  ____  ___
 72
65
 73
2
 40
38.1000000000000014
 49
25.3999999999999986
 74
0
 49
-12.6999999999999993
 74
0
  0
LTYPE
  5
37
100
AcDbSymbolTableRecord
100
AcDbLinetypeTableRecord
  2
DASHDOT
 70
0
  3
Dash dot __ . __ . __ . __ . __ . __ . __ . __
 72
65
 73
4
 40
25.3999999999999986
 49
12.6999999999999993
 74
0
 49
-6.3499999999999996
 74
0
 49
0.0
 74
0
 49
-6.3499999999999996
 74
0
  0
LTYPE
  5
38
100
AcDbSymbolTableRecord
100
AcDbLinetypeTableRecord
  2
DASHDOT2
 70
0
  3
Dash dot (.5x) _._._._._._._._._._._._._._._.
 72
65
 73
4
 40
12.6999999999999993
 49
6.3499999999999996
 74
0
 49
-3.1749999999999998
 74
0
 49
0.0
 74
0
 49
-3.1749999999999998
 74
0
  0
LTYPE
  5
39
100
AcDbSymbolTableRecord
100
AcDbLinetypeTableRecord
  2
DASHDOTX2
 70
0
  3
Dash dot (2x) ____  .  ____  .  ____  .  ___
 72
65
 73
4
 40
50.7999999999999972
 49
25.3999999999999986
 74
0
 49
-12.6999999999999993
 74
0
 49
0.0
 74
0
 49
-12.6999999999999993
 74
0
  0
LTYPE
  5
3A
100
AcDbSymbolTableRecord
100
AcDbLinetypeTableRecord
  2
DIVIDE
 70
0
  3
Divide ____ . . ____ . . ____ . . ____ . . ____
 72
65
 73
6
 40
31.75
 49
12.6999999999999993
 74
0
 49
-6.3499999999999996
 74
0
 49
0.0
 74
0
 49
-6.3499999999999996
 74
0
 49
0.0
 74
0
 49
-6.3499999999999996
 74
0
  0
LTYPE
  5
3B
100
AcDbSymbolTableRecord
100
AcDbLinetypeTableRecord
  2
DIVIDE2
 70
0
  3
Divide (.5x) __..__..__..__..__..__..__..__.._
 72
65
 73
6
 40
15.875
 49
6.3499999999999996
 74
0
 49
-3.1749999999999998
 74
0
 49
0.0
 74
0
 49
-3.1749999999999998
 74
0
 49
0.0
 74
0
 49
-3.1749999999999998
 74
0
  0
LTYPE
  5
3C
100
AcDbSymbolTableRecord
100
AcDbLinetypeTableRecord
  2
DIVIDEX2
 70
0
  3
Divide (2x) ________  .  .  ________  .  .  _
 72
65
 73
6
 40
63.5
 49
25.3999999999999986
 74
0
 49
-12.6999999999999993
 74
0
 49
0.0
 74
0
 49
-12.6999999999999993
 74
0
 49
0.0
 74
0
 49
-12.6999999999999993
 74
0
  0
LTYPE
  5
3D
100
AcDbSymbolTableRecord
100
AcDbLinetypeTableRecord
  2
CENTER
 70
0
  3
Center ____ _ ____ _ ____ _ ____ _ ____ _ ____
 72
65
 73
4
 40
50.7999999999999972
 49
31.75
 74
0
 49
-6.3499999999999996
 74
0
 49
6.3499999999999996
 74
0
 49
-6.3499999999999996
 74
0
  0
LTYPE
  5
3E
100
AcDbSymbolTableRecord
100
AcDbLinetypeTableRecord
  2
CENTER2
 70
0
  3
Center (.5x) ___ _ ___ _ ___ _ ___ _ ___ _ ___
 72
65
 73
4
 40
28.5749999999999993
 49
19.0500000000000007
 74
0
 49
-3.1749999999999998
 74
0
 49
3.1749999999999998
 74
0
 49
-3.1749999999999998
 74
0
  0
LTYPE
  5
3F
100
AcDbSymbolTableRecord
100
AcDbLinetypeTableRecord
  2
CENTERX2
 70
0
  3
Center (2x) ________  __  ________  __  _____
 72
65
 73
4
 40
101.5999999999999943
 49
63.5
 74
0
 49
-12.6999999999999993
 74
0
 49
12.6999999999999993
 74
0
 49
-12.6999999999999993
 74
0
  0
LTYPE
  5
40
100
AcDbSymbolTableRecord
100
AcDbLinetypeTableRecord
  2
BORDER
 70
0
  3
Border __ __ . __ __ . __ __ . __ __ . __ __ .
 72
65
 73
6
 40
44.4500000000000028
 49
12.6999999999999993
 74
0
 49
-6.3499999999999996
 74
0
 49
12.6999999999999993
 74
0
 49
-6.3499999999999996
 74
0
 49
0.0
 74
0
 49
-6.3499999999999996
 74
0
  0
LTYPE
  5
41
100
AcDbSymbolTableRecord
100
AcDbLinetypeTableRecord
  2
BORDER2
 70
0
  3
Border (.5x) __.__.__.__.__.__.__.__.__.__.__.
 72
65
 73
6
 40
22.2250000000000014
 49
6.3499999999999996
 74
0
 49
-3.1749999999999998
 74
0
 49
6.3499999999999996
 74
0
 49
-3.1749999999999998
 74
0
 49
0.0
 74
0
 49
-3.1749999999999998
 74
0
  0
LTYPE
  5
42
100
AcDbSymbolTableRecord
100
AcDbLinetypeTableRecord
  2
BORDERX2
 70
0
  3
Border (2x) ____  ____  .  ____  ____  .  ___
 72
65
 73
6
 40
88.9000000000000057
 49
25.3999999999999986
 74
0
 49
-12.6999999999999993
 74
0
 49
25.3999999999999986
 74
0
 49
-12.6999999999999993
 74
0
 49
0.0
 74
0
 49
-12.6999999999999993
 74
0
  0
ENDTAB
  0
TABLE
  2
LAYER
  5
2
100
AcDbSymbolTable
 70
13
  0
LAYER
  5
10
100
AcDbSymbolTableRecord
100
AcDbLayerTableRecord
  2
0
 70
0
 62
7
420
0
  6
CONTINUOUS
370
25
390
F
  0
LAYER
  5
43
100
AcDbSymbolTableRecord
100
AcDbLayerTableRecord
  2
Bottom Plate
 70
0
 62
7
420
16777215
  6
CONTINUOUS
370
0
390
F
  0
LAYER
  5
44
100
AcDbSymbolTableRecord
100
AcDbLayerTableRecord
  2
Bottom Text
 70
0
 62
4
420
65535
  6
CONTINUOUS
370
0
390
F
  0
LAYER
  5
45
100
AcDbSymbolTableRecord
100
AcDbLayerTableRecord
  2
Top Plate
 70
0
 62
7
420
16777215
  6
CONTINUOUS
370
0
390
F
  0
LAYER
  5
46
100
AcDbSymbolTableRecord
100
AcDbLayerTableRecord
  2
Top Text
 70
0
 62
4
420
65535
  6
CONTINUOUS
370
0
390
F
  0
LAYER
  5
47
100
AcDbSymbolTableRecord
100
AcDbLayerTableRecord
  2
Spring Plate
 70
0
 62
7
420
16777215
  6
CONTINUOUS
370
0
390
F
  0
LAYER
  5
48
100
AcDbSymbolTableRecord
100
AcDbLayerTableRecord
  2
Spring Plate Text
 70
0
 62
4
420
65535
  6
CONTINUOUS
370
0
390
F
  0
LAYER
  5
49
100
AcDbSymbolTableRecord
100
AcDbLayerTableRecord
  2
Extruder Mount Plate
 70
0
 62
7
420
16777215
  6
CONTINUOUS
370
0
390
F
  0
LAYER
  5
4A
100
AcDbSymbolTableRecord
100
AcDbLayerTableRecord
  2
Extruder Mount Plate Text
 70
0
 62
4
420
65535
  6
CONTINUOUS
370
0
390
F
  0
LAYER
  5
4B
100
AcDbSymbolTableRecord
100
AcDbLayerTableRecord
  2
Insulator Retainer Text
 70
0
 62
4
420
65535
  6
CONTINUOUS
370
0
390
F
  0
LAYER
  5
4C
100
AcDbSymbolTableRecord
100
AcDbLayerTableRecord
  2
Insulator Retainer
 70
0
 62
7
420
16777215
  6
CONTINUOUS
370
0
390
F
  0
LAYER
  5
4D
100
AcDbSymbolTableRecord
100
AcDbLayerTableRecord
  2
Notes
 70
0
 62
7
420
16777215
  6
CONTINUOUS
370
0
390
F
  0
LAYER
  5
4E
100
AcDbSymbolTableRecord
100
AcDbLayerTableRecord
  2
Text
 70
0
 62
4
420
65535
  6
CONTINUOUS
370
0
390
F
  0
ENDTAB
  0
TABLE
  2
STYLE
  5
3
100
AcDbSymbolTable
 70
1
  0
STYLE
  5
11
100
AcDbSymbolTableRecord
100
AcDbTextStyleTableRecord
  2
Standard
 70
0
 40
0.0
 41
0.75
 50
0.0
 71
0
 42
2.5
  3
txt
  4

  0
ENDTAB
  0
TABLE
  2
VIEW
  5
6
100
AcDbSymbolTable
 70
0
  0
ENDTAB
  0
TABLE
  2
UCS
  5
7
100
AcDbSymbolTable
 70
0
  0
ENDTAB
  0
TABLE
  2
APPID
  5
9
100
AcDbSymbolTable
 70
1
  0
APPID
  5
12
100
AcDbSymbolTableRecord
100
AcDbRegAppTableRecord
  2
ACAD
 70
0
  0
ENDTAB
  0
TABLE
  2
DIMSTYLE
  5
A
100
AcDbSymbolTable
 70
1
100
AcDbDimStyleTable
 71
0
  0
DIMSTYLE
105
27
100
AcDbSymbolTableRecord
100
AcDbDimStyleTableRecord
  2
Standard
 41
2.5
 42
0.625
 43
3.75
 44
1.25
 70
0
 73
0
 74
0
 77
1
 78
8
140
2.5
141
2.5
143
0.03937007874016
147
0.625
171
3
172
1
271
2
272
2
274
3
278
44
283
0
284
8
340
11
  0
ENDTAB
  0
TABLE
  2
BLOCK_RECORD
  5
1
100
AcDbSymbolTable
 70
1
  0
BLOCK_RECORD
  5
1F
100
AcDbSymbolTableRecord
100
AcDbBlockTableRecord
  2
*Model_Space
340
22
  0
BLOCK_RECORD
  5
1B
100
AcDbSymbolTableRecord
100
AcDbBlockTableRecord
  2
*Paper_Space
340
1E
  0
BLOCK_RECORD
  5
23
100
AcDbSymbolTableRecord
100
AcDbBlockTableRecord
  2
*Paper_Space0
340
26
  0
ENDTAB
  0
ENDSEC
  0
SECTION
  2
BLOCKS
  0
BLOCK
  5
20
100
AcDbEntity
  8
0
100
AcDbBlockBegin
  2
*Model_Space
 70
0
 10
0.0
 20
0.0
 30
0.0
  3
*Model_Space
  1

  0
ENDBLK
  5
21
100
AcDbEntity
  8
0
100
AcDbBlockEnd
  0
BLOCK
  5
1C
100
AcDbEntity
 67
1
  8
0
100
AcDbBlockBegin
  2
*Paper_Space
 70
0
 10
0.0
 20
0.0
 30
0.0
  3
*Paper_Space
  1

  0
ENDBLK
  5
1D
100
AcDbEntity
 67
1
  8
0
100
AcDbBlockEnd
  0
BLOCK
  5
24
100
AcDbEntity
  8
0
100
AcDbBlockBegin
  2
*Paper_Space0
 70
0
 10
0.0
 20
0.0
 30
0.0
  3
*Paper_Space0
  1

  0
ENDBLK
  5
25
100
AcDbEntity
  8
0
100
AcDbBlockEnd
  0
ENDSEC
  0
SECTION
  2
ENTITIES
  0
CIRCLE
  5
4F
100
AcDbEntity
100
AcDbCircle
  8
Bottom Plate
 62
256
370
-1
  6
ByLayer
 10
36.5502538732046531
 20
12.3336689813458982
 30
0.0
 40
2.4249999999999998
  0
CIRCLE
  5
50
100
AcDbEntity
100
AcDbCircle
  8
Bottom Plate
 62
256
370
-1
  6
ByLayer
 10
43.4497461267954321
 20
47.6663310186541054
 30
0.0
 40
2.4249999999999998
  0
LINE
  5
51
100
AcDbEntity
100
AcDbLine
  8
Bottom Plate
 62
256
370
-1
  6
ByLayer
 10
41.2778531000075617
 20
7.9827575192803906
 30
0.0
 11
51.6626377812959703
 21
19.266623085799651
 31
0.0
  0
ARC
  5
52
100
AcDbEntity
  8
Bottom Plate
 62
256
370
-1
  6
ByLayer
100
AcDbCircle
 10
40.0000000000000853
 20
30.0
 30
0.0
 40
15.8499999999999996
100
AcDbArc
 50
317.3759674952219143
 51
20.5255493212028064
  0
LINE
  5
53
100
AcDbEntity
100
AcDbLine
  8
Bottom Plate
 62
256
370
-1
  6
ByLayer
 10
54.8437775179255738
 20
35.5574066792281656
 30
0.0
 11
49.4668609881626367
 21
49.9190968176471728
 31
0.0
  0
ARC
  5
54
100
AcDbEntity
  8
Bottom Plate
 62
256
370
-1
  6
ByLayer
100
AcDbCircle
 10
43.4497461267954321
 20
47.6663310186541054
 30
0.0
 40
6.424999999999998
100
AcDbArc
 50
20.5255493212025897
 51
137.3759674952218575
  0
LINE
  5
55
100
AcDbEntity
100
AcDbLine
  8
Bottom Plate
 62
256
370
-1
  6
ByLayer
 10
38.722146899992552
 20
52.0172424807195029
 30
0.0
 11
28.3373622187040723
 21
40.733376914200278
 31
0.0
  0
ARC
  5
56
100
AcDbEntity
  8
Bottom Plate
 62
256
370
-1
  6
ByLayer
100
AcDbCircle
 10
40.0000000000000853
 20
30.0
 30
0.0
 40
15.8499999999999996
100
AcDbArc
 50
137.3759674952218575
 51
200.5255493212027318
  0
LINE
  5
57
100
AcDbEntity
100
AcDbLine
  8
Bottom Plate
 62
256
370
-1
  6
ByLayer
 10
25.1562224820745541
 20
24.4425933207717598
 30
0.0
 11
30.5331390118374166
 21
10.0809031823526993
 31
0.0
  0
ARC
  5
58
100
AcDbEntity
  8
Bottom Plate
 62
256
370
-1
  6
ByLayer
100
AcDbCircle
 10
36.5502538732046531
 20
12.3336689813458982
 30
0.0
 40
6.4249999999999998
100
AcDbArc
 50
200.5255493212027886
 51
317.3759674952219143
  0
CIRCLE
  5
59
100
AcDbEntity
100
AcDbCircle
  8
Bottom Plate
 62
256
370
-1
  6
ByLayer
 10
40.0000000000000853
 20
30.0
 30
0.0
 40
11.0500000000000007
  0
MTEXT
  5
5A
100
AcDbEntity
100
AcDbMText
  8
Bottom Text
 62
256
370
-1
  6
ByLayer
 10
43.1493447463308399
 20
44.1910918673984128
 30
0.0
 40
2.0
 41
100.0
 71
3
 72
2
  1
Bottom
  7
standard
 50
337.9015168164245893
 73
0
 44
1.0
  0
ELLIPSE
  5
5B
100
AcDbEntity
100
AcDbEllipse
  8
Bottom Plate
 62
256
370
-1
  6
ByLayer
 10
47.7882974838446728
 20
48.2005654932663248
 30
0.0
 11
1.581862599522007
 21
4.8018299037249772
 31
0.0
 40
0.5482072711802527
 41
0.0
 42
6.2831853071795862
  0
CIRCLE
  5
5C
100
AcDbEntity
100
AcDbCircle
  8
Top Plate
 62
256
370
-1
  6
ByLayer
 10
76.5502538732046531
 20
12.3336689813458982
 30
0.0
 40
2.4249999999999998
  0
CIRCLE
  5
5D
100
AcDbEntity
100
AcDbCircle
  8
Top Plate
 62
256
370
-1
  6
ByLayer
 10
83.4497461267954321
 20
47.6663310186541054
 30
0.0
 40
2.4249999999999998
  0
LINE
  5
5E
100
AcDbEntity
100
AcDbLine
  8
Top Plate
 62
256
370
-1
  6
ByLayer
 10
81.2778531000075617
 20
7.9827575192803906
 30
0.0
 11
91.6626377812959703
 21
19.266623085799651
 31
0.0
  0
ARC
  5
5F
100
AcDbEntity
  8
Top Plate
 62
256
370
-1
  6
ByLayer
100
AcDbCircle
 10
80.0000000000000853
 20
30.0
 30
0.0
 40
15.8499999999999996
100
AcDbArc
 50
317.3759674952219143
 51
20.5255493212028064
  0
LINE
  5
60
100
AcDbEntity
100
AcDbLine
  8
Top Plate
 62
256
370
-1
  6
ByLayer
 10
94.8437775179255738
 20
35.5574066792281656
 30
0.0
 11
89.4668609881626367
 21
49.9190968176471728
 31
0.0
  0
ARC
  5
61
100
AcDbEntity
  8
Top Plate
 62
256
370
-1
  6
ByLayer
100
AcDbCircle
 10
83.4497461267954321
 20
47.6663310186541054
 30
0.0
 40
6.424999999999998
100
AcDbArc
 50
20.5255493212025897
 51
137.3759674952218575
  0
LINE
  5
62
100
AcDbEntity
100
AcDbLine
  8
Top Plate
 62
256
370
-1
  6
ByLayer
 10
78.722146899992552
 20
52.0172424807195029
 30
0.0
 11
68.3373622187040723
 21
40.733376914200278
 31
0.0
  0
ARC
  5
63
100
AcDbEntity
  8
Top Plate
 62
256
370
-1
  6
ByLayer
100
AcDbCircle
 10
80.0000000000000853
 20
30.0
 30
0.0
 40
15.8499999999999996
100
AcDbArc
 50
137.3759674952218575
 51
200.5255493212027318
  0
LINE
  5
64
100
AcDbEntity
100
AcDbLine
  8
Top Plate
 62
256
370
-1
  6
ByLayer
 10
65.1562224820745541
 20
24.4425933207717598
 30
0.0
 11
70.5331390118373776
 21
10.0809031823527206
 31
0.0
  0
ARC
  5
65
100
AcDbEntity
  8
Top Plate
 62
256
370
-1
  6
ByLayer
100
AcDbCircle
 10
76.5502538732046531
 20
12.3336689813458982
 30
0.0
 40
6.4249999999999998
100
AcDbArc
 50
200.5255493212027886
 51
317.3759674952219143
  0
CIRCLE
  5
66
100
AcDbEntity
100
AcDbCircle
  8
Top Plate
 62
256
370
-1
  6
ByLayer
 10
80.0000000000000853
 20
30.0
 30
0.0
 40
5.0
  0
MTEXT
  5
67
100
AcDbEntity
100
AcDbMText
  8
Top Text
 62
256
370
-1
  6
ByLayer
 10
80.7034243836623801
 20
43.1880323708185898
 30
0.0
 40
2.0
 41
100.0
 71
3
 72
2
  1
Top
  7
standard
 50
337.9015168164245893
 73
0
 44
1.0
  0
ELLIPSE
  5
68
100
AcDbEntity
100
AcDbEllipse
  8
Top Plate
 62
256
370
-1
  6
ByLayer
 10
87.8241699720436486
 20
49.7679597725506682
 30
0.0
 11
0.7666102503989688
 21
3.9258513374786901
 31
0.0
 40
0.4500000000000001
 41
0.0
 42
6.2831853071795862
  0
MTEXT
  5
69
100
AcDbEntity
100
AcDbMText
  8
Text
 62
256
370
-1
  6
ByLayer
 10
14.9893113927651882
 20
68.3526050003457044
 30
0.0
 40
2.0
 41
100.0
 71
1
 72
2
  1
Driven\~Gear
  7
standard
 50
0.0
 73
1
 44
1.0
  0
LINE
  5
6A
100
AcDbEntity
100
AcDbLine
  8
0
 62
256
370
0
  6
ByLayer
 10
14.8428279511290384
 20
60.2512105321266276
 30
0.0
 11
20.0348694492613078
 21
65.3135458050026472
 31
0.0
  0
LINE
  5
6B
100
AcDbEntity
100
AcDbLine
  8
0
 62
256
370
0
  6
ByLayer
 10
20.0348694492613078
 20
65.3135458050026472
 30
0.0
 11
27.0150011471122298
 21
63.3482736065551109
 31
0.0
  0
LINE
  5
6C
100
AcDbEntity
100
AcDbLine
  8
0
 62
256
370
0
  6
ByLayer
 10
27.0150011471122298
 20
63.3482736065551109
 30
0.0
 11
28.803091346830783
 21
56.3206661352315194
 31
0.0
  0
LINE
  5
6D
100
AcDbEntity
100
AcDbLine
  8
0
 62
256
370
0
  6
ByLayer
 10
28.803091346830783
 20
56.3206661352315194
 30
0.0
 11
23.6110498486984568
 21
51.2583308623553719
 31
0.0
  0
LINE
  5
6E
100
AcDbEntity
100
AcDbLine
  8
0
 62
256
370
0
  6
ByLayer
 10
23.6110498486984568
 20
51.2583308623553719
 30
0.0
 11
16.6309181508475774
 21
53.2236030608030219
 31
0.0
  0
LINE
  5
6F
100
AcDbEntity
100
AcDbLine
  8
0
 62
256
370
0
  6
ByLayer
 10
16.6309181508475774
 20
53.2236030608030219
 30
0.0
 11
14.8428279511290384
 21
60.2512105321266276
 31
0.0
  0
LINE
  5
70
100
AcDbEntity
100
AcDbLine
  8
0
 62
7
420
0
370
0
  6
ByLayer
 10
35.2617080786916262
 20
59.5453136400838687
 30
0.0
 11
35.8544217682440234
 21
59.6009096334126127
 31
0.0
  0
LINE
  5
71
100
AcDbEntity
100
AcDbLine
  8
0
 62
7
420
0
370
0
  6
ByLayer
 10
35.8544217682440234
 20
59.6009096334126127
 30
0.0
 11
36.7741179286196456
 21
59.4626258270523707
 31
0.0
  0
LINE
  5
72
100
AcDbEntity
100
AcDbLine
  8
0
 62
7
420
0
370
0
  6
ByLayer
 10
36.7741179286196456
 20
59.4626258270523707
 30
0.0
 11
38.3117339555122811
 21
58.8070131391620379
 31
0.0
  0
LINE
  5
73
100
AcDbEntity
100
AcDbLine
  8
0
 62
7
420
0
370
0
  6
ByLayer
 10
38.3117339555122811
 20
58.8070131391620379
 30
0.0
 11
38.3117339555122811
 21
57.7648161440474084
 31
0.0
  0
LINE
  5
74
100
AcDbEntity
100
AcDbLine
  8
0
 62
7
420
0
370
0
  6
ByLayer
 10
38.3117339555122811
 20
57.7648161440474084
 30
0.0
 11
36.7741179286196456
 21
57.1092034561570614
 31
0.0
  0
LINE
  5
75
100
AcDbEntity
100
AcDbLine
  8
0
 62
7
420
0
370
0
  6
ByLayer
 10
36.7741179286196456
 20
57.1092034561570614
 30
0.0
 11
35.8544217682440234
 21
56.9709196497968122
 31
0.0
  0
LINE
  5
76
100
AcDbEntity
100
AcDbLine
  8
0
 62
7
420
0
370
0
  6
ByLayer
 10
35.8544217682440234
 20
56.9709196497968122
 30
0.0
 11
35.2617080786916262
 21
57.0265156431255775
 31
0.0
  0
LINE
  5
77
100
AcDbEntity
100
AcDbLine
  8
0
 62
7
420
0
370
0
  6
ByLayer
 10
35.2617080786916262
 20
57.0265156431255775
 30
0.0
 11
34.9931496479420474
 21
55.3308261604546772
 31
0.0
  0
LINE
  5
78
100
AcDbEntity
100
AcDbLine
  8
0
 62
7
420
0
370
0
  6
ByLayer
 10
34.9931496479420474
 20
55.3308261604546772
 30
0.0
 11
35.5738483124513181
 21
55.2005523707899144
 31
0.0
  0
LINE
  5
79
100
AcDbEntity
100
AcDbLine
  8
0
 62
7
420
0
370
0
  6
ByLayer
 10
35.5738483124513181
 20
55.2005523707899144
 30
0.0
 11
36.405909247440988
 21
54.784756878253333
 31
0.0
  0
LINE
  5
7A
100
AcDbEntity
100
AcDbLine
  8
0
 62
7
420
0
370
0
  6
ByLayer
 10
36.405909247440988
 20
54.784756878253333
 30
0.0
 11
37.6657798652857849
 21
53.6860223205276839
 31
0.0
  0
LINE
  5
7B
100
AcDbEntity
100
AcDbLine
  8
0
 62
7
420
0
370
0
  6
ByLayer
 10
37.6657798652857849
 20
53.6860223205276839
 30
0.0
 11
37.343744806817071
 21
52.6951817527980708
 31
0.0
  0
LINE
  5
7C
100
AcDbEntity
100
AcDbLine
  8
0
 62
7
420
0
370
0
  6
ByLayer
 10
37.343744806817071
 20
52.6951817527980708
 30
0.0
 11
35.6786805328309384
 21
52.5467677294083018
 31
0.0
  0
LINE
  5
7D
100
AcDbEntity
100
AcDbLine
  8
0
 62
7
420
0
370
0
  6
ByLayer
 10
35.6786805328309384
 20
52.5467677294083018
 30
0.0
 11
34.7613407998345352
 21
52.6994221534663794
 31
0.0
  0
LINE
  5
7E
100
AcDbEntity
100
AcDbLine
  8
0
 62
7
420
0
370
0
  6
ByLayer
 10
34.7613407998345352
 20
52.6994221534663794
 30
0.0
 11
34.2147998982675716
 21
52.9352360099215531
 31
0.0
  0
LINE
  5
7F
100
AcDbEntity
100
AcDbLine
  8
0
 62
7
420
0
370
0
  6
ByLayer
 10
34.2147998982675716
 20
52.9352360099215531
 30
0.0
 11
33.4352731869902726
 21
51.40562916499983
 31
0.0
  0
LINE
  5
80
100
AcDbEntity
100
AcDbLine
  8
0
 62
7
420
0
370
0
  6
ByLayer
 10
33.4352731869902726
 20
51.40562916499983
 30
0.0
 11
33.9474192638453616
 21
51.1022051248972602
 31
0.0
  0
LINE
  5
81
100
AcDbEntity
100
AcDbLine
  8
0
 62
7
420
0
370
0
  6
ByLayer
 10
33.9474192638453616
 20
51.1022051248972602
 30
0.0
 11
34.6103349567449499
 21
50.4498895989438267
 31
0.0
  0
LINE
  5
82
100
AcDbEntity
100
AcDbLine
  8
0
 62
7
420
0
370
0
  6
ByLayer
 10
34.6103349567449499
 20
50.4498895989438267
 30
0.0
 11
35.4690160920716693
 21
49.0154563767378733
 31
0.0
  0
LINE
  5
83
100
AcDbEntity
100
AcDbLine
  8
0
 62
7
420
0
370
0
  6
ByLayer
 10
35.4690160920716693
 20
49.0154563767378733
 30
0.0
 11
34.8565144225502905
 21
48.1725590477569057
 31
0.0
  0
LINE
  5
84
100
AcDbEntity
100
AcDbLine
  8
0
 62
7
420
0
370
0
  6
ByLayer
 10
34.8565144225502905
 20
48.1725590477569057
 30
0.0
 11
33.2270227696034084
 21
48.545949698886119
 31
0.0
  0
LINE
  5
85
100
AcDbEntity
100
AcDbLine
  8
0
 62
7
420
0
370
0
  6
ByLayer
 10
33.2270227696034084
 20
48.545949698886119
 30
0.0
 11
32.4015578279367489
 21
48.9747017857480671
 31
0.0
  0
LINE
  5
86
100
AcDbEntity
100
AcDbLine
  8
0
 62
7
420
0
370
0
  6
ByLayer
 10
32.4015578279367489
 20
48.9747017857480671
 30
0.0
 11
31.9549025691194402
 21
49.3678812515707293
 31
0.0
  0
LINE
  5
87
100
AcDbEntity
100
AcDbLine
  8
0
 62
7
420
0
370
0
  6
ByLayer
 10
31.9549025691194402
 20
49.3678812515707293
 30
0.0
 11
30.7409693469394583
 21
48.1539480293907616
 31
0.0
  0
LINE
  5
88
100
AcDbEntity
100
AcDbLine
  8
0
 62
7
420
0
370
0
  6
ByLayer
 10
30.7409693469394583
 20
48.1539480293907616
 30
0.0
 11
31.134148812762156
 21
47.7072927705734813
 31
0.0
  0
LINE
  5
89
100
AcDbEntity
100
AcDbLine
  8
0
 62
7
420
0
370
0
  6
ByLayer
 10
31.134148812762156
 20
47.7072927705734813
 30
0.0
 11
31.5629008996240827
 21
46.8818278289067507
 31
0.0
  0
LINE
  5
8A
100
AcDbEntity
100
AcDbLine
  8
0
 62
7
420
0
370
0
  6
ByLayer
 10
31.5629008996240827
 20
46.8818278289067507
 30
0.0
 11
31.9362915507533103
 21
45.2523361759598828
 31
0.0
  0
LINE
  5
8B
100
AcDbEntity
100
AcDbLine
  8
0
 62
7
420
0
370
0
  6
ByLayer
 10
31.9362915507533103
 20
45.2523361759598828
 30
0.0
 11
31.0933942217723569
 21
44.6398345064385396
 31
0.0
  0
LINE
  5
8C
100
AcDbEntity
100
AcDbLine
  8
0
 62
7
420
0
370
0
  6
ByLayer
 10
31.0933942217723569
 20
44.6398345064385396
 30
0.0
 11
29.658960999566407
 21
45.4985156417652661
 31
0.0
  0
LINE
  5
8D
100
AcDbEntity
100
AcDbLine
  8
0
 62
7
420
0
370
0
  6
ByLayer
 10
29.658960999566407
 20
45.4985156417652661
 30
0.0
 11
29.0066454736129593
 21
46.1614313346648544
 31
0.0
  0
LINE
  5
8E
100
AcDbEntity
100
AcDbLine
  8
0
 62
7
420
0
370
0
  6
ByLayer
 10
29.0066454736129593
 20
46.1614313346648544
 30
0.0
 11
28.7032214335103824
 21
46.6735774115199291
 31
0.0
  0
LINE
  5
8F
100
AcDbEntity
100
AcDbLine
  8
0
 62
7
420
0
370
0
  6
ByLayer
 10
28.7032214335103824
 20
46.6735774115199291
 30
0.0
 11
27.1736145885886309
 21
45.8940507002426301
 31
0.0
  0
LINE
  5
90
100
AcDbEntity
100
AcDbLine
  8
0
 62
7
420
0
370
0
  6
ByLayer
 10
27.1736145885886309
 20
45.8940507002426301
 30
0.0
 11
27.4094284450438508
 21
45.3475097986756595
 31
0.0
  0
LINE
  5
91
100
AcDbEntity
100
AcDbLine
  8
0
 62
7
420
0
370
0
  6
ByLayer
 10
27.4094284450438508
 20
45.3475097986756595
 30
0.0
 11
27.5620828691019106
 21
44.4301700656792633
 31
0.0
  0
LINE
  5
92
100
AcDbEntity
100
AcDbLine
  8
0
 62
7
420
0
370
0
  6
ByLayer
 10
27.5620828691019106
 20
44.4301700656792633
 30
0.0
 11
27.4136688457121274
 21
42.7651057916931165
 31
0.0
  0
LINE
  5
93
100
AcDbEntity
100
AcDbLine
  8
0
 62
7
420
0
370
0
  6
ByLayer
 10
27.4136688457121274
 20
42.7651057916931165
 30
0.0
 11
26.4228282779825143
 21
42.4430707332243884
 31
0.0
  0
LINE
  5
94
100
AcDbEntity
100
AcDbLine
  8
0
 62
7
420
0
370
0
  6
ByLayer
 10
26.4228282779825143
 20
42.4430707332243884
 30
0.0
 11
25.3240937202568617
 21
43.7029413510692564
 31
0.0
  0
LINE
  5
95
100
AcDbEntity
100
AcDbLine
  8
0
 62
7
420
0
370
0
  6
ByLayer
 10
25.3240937202568617
 20
43.7029413510692564
 30
0.0
 11
24.9082982277203371
 21
44.5350022860589121
 31
0.0
  0
LINE
  5
96
100
AcDbEntity
100
AcDbLine
  8
0
 62
7
420
0
370
0
  6
ByLayer
 10
24.9082982277203371
 20
44.5350022860589121
 30
0.0
 11
24.7780244380555494
 21
45.1157009505681543
 31
0.0
  0
LINE
  5
97
100
AcDbEntity
100
AcDbLine
  8
0
 62
7
420
0
370
0
  6
ByLayer
 10
24.7780244380555494
 20
45.1157009505681543
 30
0.0
 11
23.0823349553846491
 21
44.847142519818604
 31
0.0
  0
LINE
  5
98
100
AcDbEntity
100
AcDbLine
  8
0
 62
7
420
0
370
0
  6
ByLayer
 10
23.0823349553846491
 20
44.847142519818604
 30
0.0
 11
23.1379309487134286
 21
44.2544288302661784
 31
0.0
  0
LINE
  5
99
100
AcDbEntity
100
AcDbLine
  8
0
 62
7
420
0
370
0
  6
ByLayer
 10
23.1379309487134286
 20
44.2544288302661784
 30
0.0
 11
22.9996471423532114
 21
43.3347326698905562
 31
0.0
  0
LINE
  5
9A
100
AcDbEntity
100
AcDbLine
  8
0
 62
7
420
0
370
0
  6
ByLayer
 10
22.9996471423532114
 20
43.3347326698905562
 30
0.0
 11
22.3440344544627898
 21
41.7971166429979348
 31
0.0
  0
LINE
  5
9B
100
AcDbEntity
100
AcDbLine
  8
0
 62
7
420
0
370
0
  6
ByLayer
 10
22.3440344544627898
 20
41.7971166429979348
 30
0.0
 11
21.3018374593481674
 21
41.7971166429979348
 31
0.0
  0
LINE
  5
9C
100
AcDbEntity
100
AcDbLine
  8
0
 62
7
420
0
370
0
  6
ByLayer
 10
21.3018374593481674
 20
41.7971166429979348
 30
0.0
 11
20.6462247714577742
 21
43.3347326698905562
 31
0.0
  0
LINE
  5
9D
100
AcDbEntity
100
AcDbLine
  8
0
 62
7
420
0
370
0
  6
ByLayer
 10
20.6462247714577742
 20
43.3347326698905562
 30
0.0
 11
20.507940965097557
 21
44.2544288302661784
 31
0.0
  0
LINE
  5
9E
100
AcDbEntity
100
AcDbLine
  8
0
 62
7
420
0
370
0
  6
ByLayer
 10
20.507940965097557
 20
44.2544288302661784
 30
0.0
 11
20.5635369584263401
 21
44.847142519818604
 31
0.0
  0
LINE
  5
9F
100
AcDbEntity
100
AcDbLine
  8
0
 62
7
420
0
370
0
  6
ByLayer
 10
20.5635369584263401
 20
44.847142519818604
 30
0.0
 11
18.8678474757554646
 21
45.1157009505681543
 31
0.0
  0
LINE
  5
A0
100
AcDbEntity
100
AcDbLine
  8
0
 62
7
420
0
370
0
  6
ByLayer
 10
18.8678474757554646
 20
45.1157009505681543
 30
0.0
 11
18.7375736860906521
 21
44.5350022860589121
 31
0.0
  0
LINE
  5
A1
100
AcDbEntity
100
AcDbLine
  8
0
 62
7
420
0
370
0
  6
ByLayer
 10
18.7375736860906521
 20
44.5350022860589121
 30
0.0
 11
18.3217781935541382
 21
43.7029413510692564
 31
0.0
  0
LINE
  5
A2
100
AcDbEntity
100
AcDbLine
  8
0
 62
7
420
0
370
0
  6
ByLayer
 10
18.3217781935541382
 20
43.7029413510692564
 30
0.0
 11
17.2230436358285033
 21
42.4430707332243884
 31
0.0
  0
LINE
  5
A3
100
AcDbEntity
100
AcDbLine
  8
0
 62
7
420
0
370
0
  6
ByLayer
 10
16.2364434687671526
 20
45.3475097986756666
 30
0.0
 11
16.4722573252223832
 21
45.8940507002426301
 31
0.0
  0
LINE
  5
A4
100
AcDbEntity
100
AcDbLine
  8
0
 62
7
420
0
370
0
  6
ByLayer
 10
16.4722573252223832
 20
45.8940507002426301
 30
0.0
 11
14.9426504803006353
 21
46.6735774115199291
 31
0.0
  0
LINE
  5
A5
100
AcDbEntity
100
AcDbLine
  8
0
 62
7
420
0
370
0
  6
ByLayer
 10
14.9426504803006353
 20
46.6735774115199291
 30
0.0
 11
14.6392264401980583
 21
46.1614313346648544
 31
0.0
  0
LINE
  5
A6
100
AcDbEntity
100
AcDbLine
  8
0
 62
7
420
0
370
0
  6
ByLayer
 10
14.6392264401980583
 20
46.1614313346648544
 30
0.0
 11
13.9869109142446106
 21
45.4985156417652732
 31
0.0
  0
LINE
  5
A7
100
AcDbEntity
100
AcDbLine
  8
0
 62
7
420
0
370
0
  6
ByLayer
 10
13.9869109142446106
 20
45.4985156417652732
 30
0.0
 11
12.5524776920386145
 21
44.639834506438568
 31
0.0
  0
LINE
  5
A8
100
AcDbEntity
100
AcDbLine
  8
0
 62
7
420
0
370
0
  6
ByLayer
 10
12.5524776920386145
 20
44.639834506438568
 30
0.0
 11
11.7095803630577109
 21
45.2523361759598828
 31
0.0
  0
LINE
  5
A9
100
AcDbEntity
100
AcDbLine
  8
0
 62
7
420
0
370
0
  6
ByLayer
 10
11.7095803630577109
 20
45.2523361759598828
 30
0.0
 11
12.0829710141868798
 21
46.8818278289067649
 31
0.0
  0
LINE
  5
AA
100
AcDbEntity
100
AcDbLine
  8
0
 62
7
420
0
370
0
  6
ByLayer
 10
12.0829710141868798
 20
46.8818278289067649
 30
0.0
 11
12.5117231010488528
 21
47.7072927705734884
 31
0.0
  0
LINE
  5
AB
100
AcDbEntity
100
AcDbLine
  8
0
 62
7
420
0
370
0
  6
ByLayer
 10
12.5117231010488528
 20
47.7072927705734884
 30
0.0
 11
12.9049025668715256
 21
48.1539480293907616
 31
0.0
  0
LINE
  5
AC
100
AcDbEntity
100
AcDbLine
  8
0
 62
7
420
0
370
0
  6
ByLayer
 10
12.9049025668715256
 20
48.1539480293907616
 30
0.0
 11
11.6909693446915508
 21
49.3678812515707364
 31
0.0
  0
LINE
  5
AD
100
AcDbEntity
100
AcDbLine
  8
0
 62
7
420
0
370
0
  6
ByLayer
 10
11.6909693446915508
 20
49.3678812515707364
 30
0.0
 11
11.2443140858742332
 21
48.9747017857480742
 31
0.0
  0
LINE
  5
AE
100
AcDbEntity
100
AcDbLine
  8
0
 62
7
420
0
370
0
  6
ByLayer
 10
11.2443140858742332
 20
48.9747017857480742
 30
0.0
 11
10.4188491442075666
 21
48.5459496988861261
 31
0.0
  0
LINE
  5
AF
100
AcDbEntity
100
AcDbLine
  8
0
 62
7
420
0
370
0
  6
ByLayer
 10
10.4188491442075666
 20
48.5459496988861261
 30
0.0
 11
8.7893574912606844
 21
48.1725590477569341
 31
0.0
  0
LINE
  5
B0
100
AcDbEntity
100
AcDbLine
  8
0
 62
7
420
0
370
0
  6
ByLayer
 10
8.7893574912606844
 20
48.1725590477569341
 30
0.0
 11
8.1768558217393341
 21
49.0154563767378875
 31
0.0
  0
LINE
  5
B1
100
AcDbEntity
100
AcDbLine
  8
0
 62
7
420
0
370
0
  6
ByLayer
 10
8.1768558217393341
 20
49.0154563767378875
 30
0.0
 11
9.0355369570660535
 21
50.449889598943841
 31
0.0
  0
LINE
  5
B2
100
AcDbEntity
100
AcDbLine
  8
0
 62
7
420
0
370
0
  6
ByLayer
 10
9.0355369570660535
 20
50.449889598943841
 30
0.0
 11
9.6984526499656454
 21
51.1022051248972673
 31
0.0
  0
LINE
  5
B3
100
AcDbEntity
100
AcDbLine
  8
0
 62
7
420
0
370
0
  6
ByLayer
 10
9.6984526499656454
 20
51.1022051248972673
 30
0.0
 11
10.2105987268207041
 21
51.4056291649998514
 31
0.0
  0
LINE
  5
B4
100
AcDbEntity
100
AcDbLine
  8
0
 62
7
420
0
370
0
  6
ByLayer
 10
10.2105987268207041
 20
51.4056291649998514
 30
0.0
 11
9.4310720155434336
 21
52.9352360099215957
 31
0.0
  0
LINE
  5
B5
100
AcDbEntity
100
AcDbLine
  8
0
 62
7
420
0
370
0
  6
ByLayer
 10
9.4310720155434336
 20
52.9352360099215957
 30
0.0
 11
8.8845311139764345
 21
52.6994221534664149
 31
0.0
  0
LINE
  5
B6
100
AcDbEntity
100
AcDbLine
  8
0
 62
7
420
0
370
0
  6
ByLayer
 10
8.8845311139764345
 20
52.6994221534664149
 30
0.0
 11
7.9671913809800383
 21
52.5467677294083302
 31
0.0
  0
LINE
  5
B7
100
AcDbEntity
100
AcDbLine
  8
0
 62
7
420
0
370
0
  6
ByLayer
 10
7.9671913809800383
 20
52.5467677294083302
 30
0.0
 11
6.3021271069939058
 21
52.6951817527980921
 31
0.0
  0
LINE
  5
B8
100
AcDbEntity
100
AcDbLine
  8
0
 62
7
420
0
370
0
  6
ByLayer
 10
6.3021271069939058
 20
52.6951817527980921
 30
0.0
 11
5.9800920485251936
 21
53.6860223205276981
 31
0.0
  0
LINE
  5
B9
100
AcDbEntity
100
AcDbLine
  8
0
 62
7
420
0
370
0
  6
ByLayer
 10
5.9800920485251936
 20
53.6860223205276981
 30
0.0
 11
7.239962666370019
 21
54.7847568782533614
 31
0.0
  0
LINE
  5
BA
100
AcDbEntity
100
AcDbLine
  8
0
 62
7
420
0
370
0
  6
ByLayer
 10
7.239962666370019
 20
54.7847568782533614
 30
0.0
 11
8.0720236013596889
 21
55.2005523707899215
 31
0.0
  0
LINE
  5
BB
100
AcDbEntity
100
AcDbLine
  8
0
 62
7
420
0
370
0
  6
ByLayer
 10
8.0720236013596889
 20
55.2005523707899215
 30
0.0
 11
8.6527222658689293
 21
55.3308261604547198
 31
0.0
  0
LINE
  5
BC
100
AcDbEntity
100
AcDbLine
  8
0
 62
7
420
0
370
0
  6
ByLayer
 10
8.6527222658689293
 20
55.3308261604547198
 30
0.0
 11
8.3841638351194092
 21
57.0265156431255491
 31
0.0
  0
LINE
  5
BD
100
AcDbEntity
100
AcDbLine
  8
0
 62
7
420
0
370
0
  6
ByLayer
 10
8.3841638351194092
 20
57.0265156431255491
 30
0.0
 11
7.7914501455669818
 21
56.9709196497968478
 31
0.0
  0
LINE
  5
BE
100
AcDbEntity
100
AcDbLine
  8
0
 62
7
420
0
370
0
  6
ByLayer
 10
7.7914501455669818
 20
56.9709196497968478
 30
0.0
 11
6.871753985191333
 21
57.1092034561570614
 31
0.0
  0
LINE
  5
BF
100
AcDbEntity
100
AcDbLine
  8
0
 62
7
420
0
370
0
  6
ByLayer
 10
6.871753985191333
 20
57.1092034561570614
 30
0.0
 11
5.3341379582987258
 21
57.7648161440474155
 31
0.0
  0
LINE
  5
C0
100
AcDbEntity
100
AcDbLine
  8
0
 62
7
420
0
370
0
  6
ByLayer
 10
5.3341379582987258
 20
57.7648161440474155
 30
0.0
 11
5.3341379582987258
 21
58.8070131391620379
 31
0.0
  0
LINE
  5
C1
100
AcDbEntity
100
AcDbLine
  8
0
 62
7
420
0
370
0
  6
ByLayer
 10
5.3341379582987258
 20
58.8070131391620379
 30
0.0
 11
6.871753985191333
 21
59.4626258270523991
 31
0.0
  0
LINE
  5
C2
100
AcDbEntity
100
AcDbLine
  8
0
 62
7
420
0
370
0
  6
ByLayer
 10
6.871753985191333
 20
59.4626258270523991
 30
0.0
 11
7.7914501455669853
 21
59.6009096334126482
 31
0.0
  0
LINE
  5
C3
100
AcDbEntity
100
AcDbLine
  8
0
 62
7
420
0
370
0
  6
ByLayer
 10
7.7914501455669853
 20
59.6009096334126482
 30
0.0
 11
8.384163835119411
 21
59.5453136400838972
 31
0.0
  0
LINE
  5
C4
100
AcDbEntity
100
AcDbLine
  8
0
 62
7
420
0
370
0
  6
ByLayer
 10
8.384163835119411
 20
59.5453136400838972
 30
0.0
 11
8.6527222658689311
 21
61.2410031227547194
 31
0.0
  0
LINE
  5
C5
100
AcDbEntity
100
AcDbLine
  8
0
 62
7
420
0
370
0
  6
ByLayer
 10
8.6527222658689311
 20
61.2410031227547194
 30
0.0
 11
8.0720236013596889
 21
61.3712769124195248
 31
0.0
  0
LINE
  5
C6
100
AcDbEntity
100
AcDbLine
  8
0
 62
7
420
0
370
0
  6
ByLayer
 10
8.0720236013596889
 20
61.3712769124195248
 30
0.0
 11
7.239962666370019
 21
61.7870724049560991
 31
0.0
  0
LINE
  5
C7
100
AcDbEntity
100
AcDbLine
  8
0
 62
7
420
0
370
0
  6
ByLayer
 10
7.239962666370019
 20
61.7870724049560991
 30
0.0
 11
5.9800920485251936
 21
62.8858069626817411
 31
0.0
  0
LINE
  5
C8
100
AcDbEntity
100
AcDbLine
  8
0
 62
7
420
0
370
0
  6
ByLayer
 10
5.9800920485251936
 20
62.8858069626817411
 30
0.0
 11
6.3021271069939075
 21
63.8766475304113328
 31
0.0
  0
LINE
  5
C9
100
AcDbEntity
100
AcDbLine
  8
0
 62
7
420
0
370
0
  6
ByLayer
 10
6.3021271069939075
 20
63.8766475304113328
 30
0.0
 11
7.9671913809800667
 21
64.0250615538011232
 31
0.0
  0
LINE
  5
CA
100
AcDbEntity
100
AcDbLine
  8
0
 62
7
420
0
370
0
  6
ByLayer
 10
7.9671913809800667
 20
64.0250615538011232
 30
0.0
 11
8.8845311139764362
 21
63.8724071297430385
 31
0.0
  0
LINE
  5
CB
100
AcDbEntity
100
AcDbLine
  8
0
 62
7
420
0
370
0
  6
ByLayer
 10
8.8845311139764362
 20
63.8724071297430385
 30
0.0
 11
9.4310720155434336
 21
63.6365932732878719
 31
0.0
  0
LINE
  5
CC
100
AcDbEntity
100
AcDbLine
  8
0
 62
7
420
0
370
0
  6
ByLayer
 10
9.4310720155434336
 20
63.6365932732878719
 30
0.0
 11
10.2105987268207059
 21
65.166200118209602
 31
0.0
  0
LINE
  5
CD
100
AcDbEntity
100
AcDbLine
  8
0
 62
7
420
0
370
0
  6
ByLayer
 10
10.2105987268207059
 20
65.166200118209602
 30
0.0
 11
9.6984526499656472
 21
65.4696241583121719
 31
0.0
  0
LINE
  5
CE
100
AcDbEntity
100
AcDbLine
  8
0
 62
7
420
0
370
0
  6
ByLayer
 10
9.6984526499656472
 20
65.4696241583121719
 30
0.0
 11
9.0355369570660553
 21
66.1219396842656124
 31
0.0
  0
LINE
  5
CF
100
AcDbEntity
100
AcDbLine
  8
0
 62
7
420
0
370
0
  6
ByLayer
 10
9.0355369570660553
 20
66.1219396842656124
 30
0.0
 11
8.1768558217393359
 21
67.5563729064715659
 31
0.0
  0
LINE
  5
D0
100
AcDbEntity
100
AcDbLine
  8
0
 62
7
420
0
370
0
  6
ByLayer
 10
8.1768558217393359
 20
67.5563729064715659
 30
0.0
 11
8.7893574912606862
 21
68.3992702354525051
 31
0.0
  0
LINE
  5
D1
100
AcDbEntity
100
AcDbLine
  8
0
 62
7
420
0
370
0
  6
ByLayer
 10
8.7893574912606862
 20
68.3992702354525051
 30
0.0
 11
10.4188491442075684
 21
68.0258795843233059
 31
0.0
  0
LINE
  5
D2
100
AcDbEntity
100
AcDbLine
  8
0
 62
7
420
0
370
0
  6
ByLayer
 10
10.4188491442075684
 20
68.0258795843233059
 30
0.0
 11
11.2443140858742368
 21
67.5971274974613721
 31
0.0
  0
LINE
  5
D3
100
AcDbEntity
100
AcDbLine
  8
0
 62
7
420
0
370
0
  6
ByLayer
 10
11.2443140858742368
 20
67.5971274974613721
 30
0.0
 11
11.6909693446915792
 21
67.2039480316386886
 31
0.0
  0
LINE
  5
D4
100
AcDbEntity
100
AcDbLine
  8
0
 62
7
420
0
370
0
  6
ByLayer
 10
11.6909693446915792
 20
67.2039480316386886
 30
0.0
 11
12.9049025668715274
 21
68.4178812538186634
 31
0.0
  0
LINE
  5
D5
100
AcDbEntity
100
AcDbLine
  8
0
 62
7
420
0
370
0
  6
ByLayer
 10
12.9049025668715274
 20
68.4178812538186634
 30
0.0
 11
12.5117231010488581
 21
68.8645365126359508
 31
0.0
  0
LINE
  5
D6
100
AcDbEntity
100
AcDbLine
  8
0
 62
7
420
0
370
0
  6
ByLayer
 10
12.5117231010488581
 20
68.8645365126359508
 30
0.0
 11
12.0829710141869118
 21
69.6900014543026742
 31
0.0
  0
LINE
  5
D7
100
AcDbEntity
100
AcDbLine
  8
0
 62
7
420
0
370
0
  6
ByLayer
 10
12.0829710141869118
 20
69.6900014543026742
 30
0.0
 11
11.7095803630577127
 21
71.3194931072495564
 31
0.0
  0
LINE
  5
D8
100
AcDbEntity
100
AcDbLine
  8
0
 62
7
420
0
370
0
  6
ByLayer
 10
11.7095803630577127
 20
71.3194931072495564
 30
0.0
 11
12.5524776920386216
 21
71.9319947767708783
 31
0.0
  0
LINE
  5
D9
100
AcDbEntity
100
AcDbLine
  8
0
 62
7
420
0
370
0
  6
ByLayer
 10
12.5524776920386216
 20
71.9319947767708783
 30
0.0
 11
13.9869109142446177
 21
71.0733136414441873
 31
0.0
  0
LINE
  5
DA
100
AcDbEntity
100
AcDbLine
  8
0
 62
7
420
0
370
0
  6
ByLayer
 10
13.9869109142446177
 20
71.0733136414441873
 30
0.0
 11
14.6392264401980583
 21
70.410397948544599
 31
0.0
  0
LINE
  5
DB
100
AcDbEntity
100
AcDbLine
  8
0
 62
7
420
0
370
0
  6
ByLayer
 10
14.6392264401980583
 20
70.410397948544599
 30
0.0
 11
14.9426504803006424
 21
69.89825187168951
 31
0.0
  0
LINE
  5
DC
100
AcDbEntity
100
AcDbLine
  8
0
 62
7
420
0
370
0
  6
ByLayer
 10
14.9426504803006424
 20
69.89825187168951
 30
0.0
 11
16.4722573252223867
 21
70.677778582966809
 31
0.0
  0
LINE
  5
DD
100
AcDbEntity
100
AcDbLine
  8
0
 62
7
420
0
370
0
  6
ByLayer
 10
16.4722573252223867
 20
70.677778582966809
 30
0.0
 11
16.2364434687671633
 21
71.2243194845337797
 31
0.0
  0
LINE
  5
DE
100
AcDbEntity
100
AcDbLine
  8
0
 62
7
420
0
370
0
  6
ByLayer
 10
16.2364434687671633
 20
71.2243194845337797
 30
0.0
 11
16.0837890447090786
 21
72.1416592175301759
 31
0.0
  0
LINE
  5
DF
100
AcDbEntity
100
AcDbLine
  8
0
 62
7
420
0
370
0
  6
ByLayer
 10
16.0837890447090786
 20
72.1416592175301759
 30
0.0
 11
16.2322030680988973
 21
73.8067234915163084
 31
0.0
  0
LINE
  5
E0
100
AcDbEntity
100
AcDbLine
  8
0
 62
7
420
0
370
0
  6
ByLayer
 10
16.2322030680988973
 20
73.8067234915163084
 30
0.0
 11
17.2230436358285033
 21
74.1287585499850508
 31
0.0
  0
LINE
  5
E1
100
AcDbEntity
100
AcDbLine
  8
0
 62
7
420
0
370
0
  6
ByLayer
 10
17.2230436358285033
 20
74.1287585499850508
 30
0.0
 11
18.3217781935541382
 21
72.868887932140197
 31
0.0
  0
LINE
  5
E2
100
AcDbEntity
100
AcDbLine
  8
0
 62
7
420
0
370
0
  6
ByLayer
 10
18.3217781935541382
 20
72.868887932140197
 30
0.0
 11
18.7375736860906557
 21
72.0368269971505271
 31
0.0
  0
LINE
  5
E3
100
AcDbEntity
100
AcDbLine
  8
0
 62
7
420
0
370
0
  6
ByLayer
 10
18.7375736860906557
 20
72.0368269971505271
 30
0.0
 11
18.8678474757554682
 21
71.4561283326412848
 31
0.0
  0
LINE
  5
E4
100
AcDbEntity
100
AcDbLine
  8
0
 62
7
420
0
370
0
  6
ByLayer
 10
18.8678474757554682
 20
71.4561283326412848
 30
0.0
 11
20.5635369584263401
 21
71.7246867633908352
 31
0.0
  0
LINE
  5
E5
100
AcDbEntity
100
AcDbLine
  8
0
 62
7
420
0
370
0
  6
ByLayer
 10
20.5635369584263401
 20
71.7246867633908352
 30
0.0
 11
20.5079409650975606
 21
72.3174004529432608
 31
0.0
  0
LINE
  5
E6
100
AcDbEntity
100
AcDbLine
  8
0
 62
7
420
0
370
0
  6
ByLayer
 10
20.5079409650975606
 20
72.3174004529432608
 30
0.0
 11
20.6462247714578098
 21
73.237096613318883
 31
0.0
  0
LINE
  5
E7
100
AcDbEntity
100
AcDbLine
  8
0
 62
7
420
0
370
0
  6
ByLayer
 10
20.6462247714578098
 20
73.237096613318883
 30
0.0
 11
21.3018374593481781
 21
74.7747126402115185
 31
0.0
  0
LINE
  5
E8
100
AcDbEntity
100
AcDbLine
  8
0
 62
7
420
0
370
0
  6
ByLayer
 10
21.3018374593481781
 20
74.7747126402115185
 30
0.0
 11
22.3440344544628147
 21
74.7747126402115185
 31
0.0
  0
LINE
  5
E9
100
AcDbEntity
100
AcDbLine
  8
0
 62
7
420
0
370
0
  6
ByLayer
 10
22.3440344544628147
 20
74.7747126402115185
 30
0.0
 11
22.9996471423532114
 21
73.237096613318883
 31
0.0
  0
LINE
  5
EA
100
AcDbEntity
100
AcDbLine
  8
0
 62
7
420
0
370
0
  6
ByLayer
 10
22.9996471423532114
 20
73.237096613318883
 30
0.0
 11
23.1379309487134321
 21
72.3174004529432608
 31
0.0
  0
LINE
  5
EB
100
AcDbEntity
100
AcDbLine
  8
0
 62
7
420
0
370
0
  6
ByLayer
 10
23.1379309487134321
 20
72.3174004529432608
 30
0.0
 11
23.0823349553846526
 21
71.7246867633908352
 31
0.0
  0
LINE
  5
EC
100
AcDbEntity
100
AcDbLine
  8
0
 62
7
420
0
370
0
  6
ByLayer
 10
23.0823349553846526
 20
71.7246867633908352
 30
0.0
 11
24.778024438055553
 21
71.4561283326412848
 31
0.0
  0
LINE
  5
ED
100
AcDbEntity
100
AcDbLine
  8
0
 62
7
420
0
370
0
  6
ByLayer
 10
24.778024438055553
 20
71.4561283326412848
 30
0.0
 11
24.9082982277203087
 21
72.0368269971505129
 31
0.0
  0
LINE
  5
EE
100
AcDbEntity
100
AcDbLine
  8
0
 62
7
420
0
370
0
  6
ByLayer
 10
24.9082982277203087
 20
72.0368269971505129
 30
0.0
 11
25.324093720256883
 21
72.8688879321401828
 31
0.0
  0
LINE
  5
EF
100
AcDbEntity
100
AcDbLine
  8
0
 62
7
420
0
370
0
  6
ByLayer
 10
25.324093720256883
 20
72.8688879321401828
 30
0.0
 11
26.4228282779825179
 21
74.1287585499850366
 31
0.0
  0
LINE
  5
F0
100
AcDbEntity
100
AcDbLine
  8
0
 62
7
420
0
370
0
  6
ByLayer
 10
26.4228282779825179
 20
74.1287585499850366
 30
0.0
 11
27.4136688457121238
 21
73.8067234915162942
 31
0.0
  0
LINE
  5
F1
100
AcDbEntity
100
AcDbLine
  8
0
 62
7
420
0
370
0
  6
ByLayer
 10
27.4136688457121238
 20
73.8067234915162942
 30
0.0
 11
27.5620828691019142
 21
72.1416592175301759
 31
0.0
  0
LINE
  5
F2
100
AcDbEntity
100
AcDbLine
  8
0
 62
7
420
0
370
0
  6
ByLayer
 10
27.5620828691019142
 20
72.1416592175301759
 30
0.0
 11
27.4094284450438579
 21
71.2243194845337655
 31
0.0
  0
LINE
  5
F3
100
AcDbEntity
100
AcDbLine
  8
0
 62
7
420
0
370
0
  6
ByLayer
 10
27.4094284450438579
 20
71.2243194845337655
 30
0.0
 11
27.1736145885886344
 21
70.6777785829667948
 31
0.0
  0
LINE
  5
F4
100
AcDbEntity
100
AcDbLine
  8
0
 62
7
420
0
370
0
  6
ByLayer
 10
27.1736145885886344
 20
70.6777785829667948
 30
0.0
 11
28.7032214335103788
 21
69.89825187168951
 31
0.0
  0
LINE
  5
F5
100
AcDbEntity
100
AcDbLine
  8
0
 62
7
420
0
370
0
  6
ByLayer
 10
28.7032214335103788
 20
69.89825187168951
 30
0.0
 11
29.0066454736129629
 21
70.410397948544599
 31
0.0
  0
LINE
  5
F6
100
AcDbEntity
100
AcDbLine
  8
0
 62
7
420
0
370
0
  6
ByLayer
 10
29.0066454736129629
 20
70.410397948544599
 30
0.0
 11
29.6589609995664034
 21
71.0733136414441873
 31
0.0
  0
LINE
  5
F7
100
AcDbEntity
100
AcDbLine
  8
0
 62
7
420
0
370
0
  6
ByLayer
 10
29.6589609995664034
 20
71.0733136414441873
 30
0.0
 11
31.0933942217723711
 21
71.9319947767708641
 31
0.0
  0
LINE
  5
F8
100
AcDbEntity
100
AcDbLine
  8
0
 62
7
420
0
370
0
  6
ByLayer
 10
31.0933942217723711
 20
71.9319947767708641
 30
0.0
 11
31.9362915507533103
 21
71.3194931072495422
 31
0.0
  0
LINE
  5
F9
100
AcDbEntity
100
AcDbLine
  8
0
 62
7
420
0
370
0
  6
ByLayer
 10
31.9362915507533103
 20
71.3194931072495422
 30
0.0
 11
31.5629008996240827
 21
69.6900014543026742
 31
0.0
  0
LINE
  5
FA
100
AcDbEntity
100
AcDbLine
  8
0
 62
7
420
0
370
0
  6
ByLayer
 10
31.5629008996240827
 20
69.6900014543026742
 30
0.0
 11
31.1341488127621631
 21
68.8645365126359508
 31
0.0
  0
LINE
  5
FB
100
AcDbEntity
100
AcDbLine
  8
0
 62
7
420
0
370
0
  6
ByLayer
 10
31.1341488127621631
 20
68.8645365126359508
 30
0.0
 11
30.7409693469394654
 21
68.4178812538186634
 31
0.0
  0
LINE
  5
FC
100
AcDbEntity
100
AcDbLine
  8
0
 62
7
420
0
370
0
  6
ByLayer
 10
30.7409693469394654
 20
68.4178812538186634
 30
0.0
 11
31.9549025691194402
 21
67.2039480316386886
 31
0.0
  0
LINE
  5
FD
100
AcDbEntity
100
AcDbLine
  8
0
 62
7
420
0
370
0
  6
ByLayer
 10
31.9549025691194402
 20
67.2039480316386886
 30
0.0
 11
32.401557827936756
 21
67.5971274974613721
 31
0.0
  0
LINE
  5
FE
100
AcDbEntity
100
AcDbLine
  8
0
 62
7
420
0
370
0
  6
ByLayer
 10
32.401557827936756
 20
67.5971274974613721
 30
0.0
 11
33.2270227696034084
 21
68.0258795843233059
 31
0.0
  0
LINE
  5
FF
100
AcDbEntity
100
AcDbLine
  8
0
 62
7
420
0
370
0
  6
ByLayer
 10
33.2270227696034084
 20
68.0258795843233059
 30
0.0
 11
34.856514422550319
 21
68.3992702354525051
 31
0.0
  0
LINE
  5
100
100
AcDbEntity
100
AcDbLine
  8
0
 62
7
420
0
370
0
  6
ByLayer
 10
34.856514422550319
 20
68.3992702354525051
 30
0.0
 11
35.4690160920716693
 21
67.5563729064715659
 31
0.0
  0
LINE
  5
101
100
AcDbEntity
100
AcDbLine
  8
0
 62
7
420
0
370
0
  6
ByLayer
 10
35.4690160920716693
 20
67.5563729064715659
 30
0.0
 11
34.6103349567449499
 21
66.1219396842656124
 31
0.0
  0
LINE
  5
102
100
AcDbEntity
100
AcDbLine
  8
0
 62
7
420
0
370
0
  6
ByLayer
 10
34.6103349567449499
 20
66.1219396842656124
 30
0.0
 11
33.94741926384539
 21
65.4696241583121719
 31
0.0
  0
LINE
  5
103
100
AcDbEntity
100
AcDbLine
  8
0
 62
7
420
0
370
0
  6
ByLayer
 10
33.94741926384539
 20
65.4696241583121719
 30
0.0
 11
33.4352731869902726
 21
65.166200118209602
 31
0.0
  0
LINE
  5
104
100
AcDbEntity
100
AcDbLine
  8
0
 62
7
420
0
370
0
  6
ByLayer
 10
33.4352731869902726
 20
65.166200118209602
 30
0.0
 11
34.2147998982675716
 21
63.6365932732878719
 31
0.0
  0
LINE
  5
105
100
AcDbEntity
100
AcDbLine
  8
0
 62
7
420
0
370
0
  6
ByLayer
 10
34.2147998982675716
 20
63.6365932732878719
 30
0.0
 11
34.7613407998345991
 21
63.8724071297430385
 31
0.0
  0
LINE
  5
106
100
AcDbEntity
100
AcDbLine
  8
0
 62
7
420
0
370
0
  6
ByLayer
 10
34.7613407998345991
 20
63.8724071297430385
 30
0.0
 11
35.6786805328309669
 21
64.0250615538011232
 31
0.0
  0
LINE
  5
107
100
AcDbEntity
100
AcDbLine
  8
0
 62
7
420
0
370
0
  6
ByLayer
 10
35.6786805328309669
 20
64.0250615538011232
 30
0.0
 11
37.343744806817071
 21
63.8766475304113328
 31
0.0
  0
LINE
  5
108
100
AcDbEntity
100
AcDbLine
  8
0
 62
7
420
0
370
0
  6
ByLayer
 10
37.343744806817071
 20
63.8766475304113328
 30
0.0
 11
37.6657798652857849
 21
62.8858069626817411
 31
0.0
  0
LINE
  5
109
100
AcDbEntity
100
AcDbLine
  8
0
 62
7
420
0
370
0
  6
ByLayer
 10
37.6657798652857849
 20
62.8858069626817411
 30
0.0
 11
36.405909247440988
 21
61.7870724049560707
 31
0.0
  0
LINE
  5
10A
100
AcDbEntity
100
AcDbLine
  8
0
 62
7
420
0
370
0
  6
ByLayer
 10
36.405909247440988
 20
61.7870724049560707
 30
0.0
 11
35.5738483124513181
 21
61.3712769124195319
 31
0.0
  0
LINE
  5
10B
100
AcDbEntity
100
AcDbLine
  8
0
 62
7
420
0
370
0
  6
ByLayer
 10
35.5738483124513181
 20
61.3712769124195319
 30
0.0
 11
34.9931496479420474
 21
61.2410031227547194
 31
0.0
  0
LINE
  5
10C
100
AcDbEntity
100
AcDbLine
  8
0
 62
7
420
0
370
0
  6
ByLayer
 10
34.9931496479420474
 20
61.2410031227547194
 30
0.0
 11
35.2617080786916262
 21
59.5453136400838687
 31
0.0
  0
LINE
  5
10D
100
AcDbEntity
100
AcDbLine
  8
0
 62
7
420
0
370
0
  6
ByLayer
 10
17.2230436358285033
 20
42.4430707332243884
 30
0.0
 11
16.2322030680988902
 21
42.7651057916931165
 31
0.0
  0
LINE
  5
10E
100
AcDbEntity
100
AcDbLine
  8
0
 62
7
420
0
370
0
  6
ByLayer
 10
16.2322030680988902
 20
42.7651057916931165
 30
0.0
 11
16.083789044709075
 21
44.4301700656792633
 31
0.0
  0
LINE
  5
10F
100
AcDbEntity
100
AcDbLine
  8
0
 62
7
420
0
370
0
  6
ByLayer
 10
16.083789044709075
 20
44.4301700656792633
 30
0.0
 11
16.2364434687671526
 21
45.3475097986756666
 31
0.0
  0
MTEXT
  5
110
100
AcDbEntity
100
AcDbMText
  8
Text
 62
256
370
0
  6
ByLayer
 10
65.0000236920743362
 20
67.0000236920743646
 30
0.0
 40
2.0
 41
100.0
 71
5
 72
2
  1
Spur
  7
standard
 50
0.0
 73
1
 44
1.0
  0
MTEXT
  5
111
100
AcDbEntity
100
AcDbMText
  8
Text
 62
256
370
0
  6
ByLayer
 10
65.0000236920743362
 20
57.0000236920743646
 30
0.0
 40
2.0
 41
100.0
 71
5
 72
2
  1
Gear
  7
standard
 50
0.0
 73
1
 44
1.0
  0
LINE
  5
112
100
AcDbEntity
100
AcDbLine
  8
0
 62
256
370
0
  6
ByLayer
 10
67.5406141746196909
 20
64.1450236920743606
 30
0.0
 11
62.4594332095289957
 21
64.1450236920743606
 31
0.0
  0
ARC
  5
113
100
AcDbEntity
  8
0
 62
256
370
0
  6
ByLayer
100
AcDbCircle
 10
65.0000236920743362
 20
62.0000236920743646
 30
0.0
 40
3.3250000000000002
100
AcDbArc
 50
319.8258680010101784
 51
40.1741319989898216
  0
ARC
  5
114
100
AcDbEntity
  8
0
 62
256
370
0
  6
ByLayer
100
AcDbCircle
 10
65.0000236920743362
 20
62.0000236920743646
 30
0.0
 40
3.3250000000000002
100
AcDbArc
 50
139.8258680010101784
 51
220.1741319989898216
  0
LINE
  5
115
100
AcDbEntity
100
AcDbLine
  8
0
 62
256
370
0
  6
ByLayer
 10
67.5406141746196909
 20
59.8550236920743615
 30
0.0
 11
62.4594332095289957
 21
59.8550236920743615
 31
0.0
  0
LINE
  5
116
100
AcDbEntity
100
AcDbLine
  8
0
 62
7
420
0
370
0
  6
ByLayer
 10
78.4387721217861014
 20
63.2593989984791349
 30
0.0
 11
79.031485811338527
 21
63.3149949918079074
 31
0.0
  0
LINE
  5
117
100
AcDbEntity
100
AcDbLine
  8
0
 62
7
420
0
370
0
  6
ByLayer
 10
79.031485811338527
 20
63.3149949918079074
 30
0.0
 11
79.9511819717141492
 21
63.176711185447644
 31
0.0
  0
LINE
  5
118
100
AcDbEntity
100
AcDbLine
  8
0
 62
7
420
0
370
0
  6
ByLayer
 10
79.9511819717141492
 20
63.176711185447644
 30
0.0
 11
81.4887979986067847
 21
62.5210984975573112
 31
0.0
  0
LINE
  5
119
100
AcDbEntity
100
AcDbLine
  8
0
 62
7
420
0
370
0
  6
ByLayer
 10
81.4887979986067847
 20
62.5210984975573112
 30
0.0
 11
81.4887979986067847
 21
61.4789015024426817
 31
0.0
  0
LINE
  5
11A
100
AcDbEntity
100
AcDbLine
  8
0
 62
7
420
0
370
0
  6
ByLayer
 10
81.4887979986067847
 20
61.4789015024426817
 30
0.0
 11
79.9511819717141492
 21
60.8232888145523347
 31
0.0
  0
LINE
  5
11B
100
AcDbEntity
100
AcDbLine
  8
0
 62
7
420
0
370
0
  6
ByLayer
 10
79.9511819717141492
 20
60.8232888145523347
 30
0.0
 11
79.031485811338527
 21
60.6850050081920855
 31
0.0
  0
LINE
  5
11C
100
AcDbEntity
100
AcDbLine
  8
0
 62
7
420
0
370
0
  6
ByLayer
 10
79.031485811338527
 20
60.6850050081920855
 30
0.0
 11
78.4387721217861014
 21
60.7406010015208579
 31
0.0
  0
LINE
  5
11D
100
AcDbEntity
100
AcDbLine
  8
0
 62
7
420
0
370
0
  6
ByLayer
 10
78.4387721217861014
 20
60.7406010015208579
 30
0.0
 11
78.170213691036551
 21
59.0449115188499505
 31
0.0
  0
LINE
  5
11E
100
AcDbEntity
100
AcDbLine
  8
0
 62
7
420
0
370
0
  6
ByLayer
 10
78.170213691036551
 20
59.0449115188499505
 30
0.0
 11
78.7509123555457933
 21
58.9146377291851948
 31
0.0
  0
LINE
  5
11F
100
AcDbEntity
100
AcDbLine
  8
0
 62
7
420
0
370
0
  6
ByLayer
 10
78.7509123555457933
 20
58.9146377291851948
 30
0.0
 11
79.5829732905354916
 21
58.4988422366486205
 31
0.0
  0
LINE
  5
120
100
AcDbEntity
100
AcDbLine
  8
0
 62
7
420
0
370
0
  6
ByLayer
 10
79.5829732905354916
 20
58.4988422366486205
 30
0.0
 11
80.8428439083802886
 21
57.4001076789229714
 31
0.0
  0
LINE
  5
121
100
AcDbEntity
100
AcDbLine
  8
0
 62
7
420
0
370
0
  6
ByLayer
 10
80.8428439083802886
 20
57.4001076789229714
 30
0.0
 11
80.5208088499115746
 21
56.4092671111933583
 31
0.0
  0
LINE
  5
122
100
AcDbEntity
100
AcDbLine
  8
0
 62
7
420
0
370
0
  6
ByLayer
 10
80.5208088499115746
 20
56.4092671111933583
 30
0.0
 11
78.8557445759254421
 21
56.2608530878035751
 31
0.0
  0
LINE
  5
123
100
AcDbEntity
100
AcDbLine
  8
0
 62
7
420
0
370
0
  6
ByLayer
 10
78.8557445759254421
 20
56.2608530878035751
 30
0.0
 11
77.9384048429290459
 21
56.4135075118616598
 31
0.0
  0
LINE
  5
124
100
AcDbEntity
100
AcDbLine
  8
0
 62
7
420
0
370
0
  6
ByLayer
 10
77.9384048429290459
 20
56.4135075118616598
 30
0.0
 11
77.3918639413620753
 21
56.6493213683168335
 31
0.0
  0
LINE
  5
125
100
AcDbEntity
100
AcDbLine
  8
0
 62
7
420
0
370
0
  6
ByLayer
 10
77.3918639413620753
 20
56.6493213683168335
 30
0.0
 11
76.6123372300847763
 21
55.1197145233951034
 31
0.0
  0
LINE
  5
126
100
AcDbEntity
100
AcDbLine
  8
0
 62
7
420
0
370
0
  6
ByLayer
 10
76.6123372300847763
 20
55.1197145233951034
 30
0.0
 11
77.1244833069398652
 21
54.8162904832925335
 31
0.0
  0
LINE
  5
127
100
AcDbEntity
100
AcDbLine
  8
0
 62
7
420
0
370
0
  6
ByLayer
 10
77.1244833069398652
 20
54.8162904832925335
 30
0.0
 11
77.7873989998394535
 21
54.1639749573391001
 31
0.0
  0
LINE
  5
128
100
AcDbEntity
100
AcDbLine
  8
0
 62
7
420
0
370
0
  6
ByLayer
 10
77.7873989998394535
 20
54.1639749573391001
 30
0.0
 11
78.6460801351661729
 21
52.7295417351331466
 31
0.0
  0
LINE
  5
129
100
AcDbEntity
100
AcDbLine
  8
0
 62
7
420
0
370
0
  6
ByLayer
 10
78.6460801351661729
 20
52.7295417351331466
 30
0.0
 11
78.0335784656447942
 21
51.886644406152179
 31
0.0
  0
LINE
  5
12A
100
AcDbEntity
100
AcDbLine
  8
0
 62
7
420
0
370
0
  6
ByLayer
 10
78.0335784656447942
 20
51.886644406152179
 30
0.0
 11
76.404086812697912
 21
52.2600350572813923
 31
0.0
  0
LINE
  5
12B
100
AcDbEntity
100
AcDbLine
  8
0
 62
7
420
0
370
0
  6
ByLayer
 10
76.404086812697912
 20
52.2600350572813923
 30
0.0
 11
75.5786218710312454
 21
52.6887871441433475
 31
0.0
  0
LINE
  5
12C
100
AcDbEntity
100
AcDbLine
  8
0
 62
7
420
0
370
0
  6
ByLayer
 10
75.5786218710312454
 20
52.6887871441433475
 30
0.0
 11
75.1319666122139296
 21
53.0819666099660026
 31
0.0
  0
LINE
  5
12D
100
AcDbEntity
100
AcDbLine
  8
0
 62
7
420
0
370
0
  6
ByLayer
 10
75.1319666122139296
 20
53.0819666099660026
 30
0.0
 11
73.9180333900339548
 21
51.868033387786042
 31
0.0
  0
LINE
  5
12E
100
AcDbEntity
100
AcDbLine
  8
0
 62
7
420
0
370
0
  6
ByLayer
 10
73.9180333900339548
 20
51.868033387786042
 30
0.0
 11
74.3112128558566525
 21
51.4213781289687688
 31
0.0
  0
LINE
  5
12F
100
AcDbEntity
100
AcDbLine
  8
0
 62
7
420
0
370
0
  6
ByLayer
 10
74.3112128558566525
 20
51.4213781289687688
 30
0.0
 11
74.7399649427185722
 21
50.595913187302024
 31
0.0
  0
LINE
  5
130
100
AcDbEntity
100
AcDbLine
  8
0
 62
7
420
0
370
0
  6
ByLayer
 10
74.7399649427185722
 20
50.595913187302024
 30
0.0
 11
75.1133555938477997
 21
48.9664215343551632
 31
0.0
  0
LINE
  5
131
100
AcDbEntity
100
AcDbLine
  8
0
 62
7
420
0
370
0
  6
ByLayer
 10
75.1133555938477997
 20
48.9664215343551632
 30
0.0
 11
74.2704582648668605
 21
48.3539198648338129
 31
0.0
  0
LINE
  5
132
100
AcDbEntity
100
AcDbLine
  8
0
 62
7
420
0
370
0
  6
ByLayer
 10
74.2704582648668605
 20
48.3539198648338129
 30
0.0
 11
72.8360250426608928
 21
49.2126010001605465
 31
0.0
  0
LINE
  5
133
100
AcDbEntity
100
AcDbLine
  8
0
 62
7
420
0
370
0
  6
ByLayer
 10
72.8360250426608928
 20
49.2126010001605465
 30
0.0
 11
72.1837095167074523
 21
49.8755166930601348
 31
0.0
  0
LINE
  5
134
100
AcDbEntity
100
AcDbLine
  8
0
 62
7
420
0
370
0
  6
ByLayer
 10
72.1837095167074523
 20
49.8755166930601348
 30
0.0
 11
71.8802854766048682
 21
50.3876627699152095
 31
0.0
  0
LINE
  5
135
100
AcDbEntity
100
AcDbLine
  8
0
 62
7
420
0
370
0
  6
ByLayer
 10
71.8802854766048682
 20
50.3876627699152095
 30
0.0
 11
70.3506786316831096
 21
49.6081360586379105
 31
0.0
  0
LINE
  5
136
100
AcDbEntity
100
AcDbLine
  8
0
 62
7
420
0
370
0
  6
ByLayer
 10
70.3506786316831096
 20
49.6081360586379105
 30
0.0
 11
70.5864924881383331
 21
49.0615951570709399
 31
0.0
  0
LINE
  5
137
100
AcDbEntity
100
AcDbLine
  8
0
 62
7
420
0
370
0
  6
ByLayer
 10
70.5864924881383331
 20
49.0615951570709399
 30
0.0
 11
70.7391469121964036
 21
48.1442554240745437
 31
0.0
  0
LINE
  5
138
100
AcDbEntity
100
AcDbLine
  8
0
 62
7
420
0
370
0
  6
ByLayer
 10
70.7391469121964036
 20
48.1442554240745437
 30
0.0
 11
70.590732888806599
 21
46.479191150088397
 31
0.0
  0
LINE
  5
139
100
AcDbEntity
100
AcDbLine
  8
0
 62
7
420
0
370
0
  6
ByLayer
 10
70.590732888806599
 20
46.479191150088397
 30
0.0
 11
69.5998923210770073
 21
46.1571560916196688
 31
0.0
  0
LINE
  5
13A
100
AcDbEntity
100
AcDbLine
  8
0
 62
7
420
0
370
0
  6
ByLayer
 10
69.5998923210770073
 20
46.1571560916196688
 30
0.0
 11
68.501157763351344
 21
47.4170267094645368
 31
0.0
  0
LINE
  5
13B
100
AcDbEntity
100
AcDbLine
  8
0
 62
7
420
0
370
0
  6
ByLayer
 10
68.501157763351344
 20
47.4170267094645368
 30
0.0
 11
68.0853622708148123
 21
48.2490876444541925
 31
0.0
  0
LINE
  5
13C
100
AcDbEntity
100
AcDbLine
  8
0
 62
7
420
0
370
0
  6
ByLayer
 10
68.0853622708148123
 20
48.2490876444541925
 30
0.0
 11
67.9550884811500424
 21
48.8297863089634347
 31
0.0
  0
LINE
  5
13D
100
AcDbEntity
100
AcDbLine
  8
0
 62
7
420
0
370
0
  6
ByLayer
 10
67.9550884811500424
 20
48.8297863089634347
 30
0.0
 11
66.2593989984791278
 21
48.5612278782138844
 31
0.0
  0
LINE
  5
13E
100
AcDbEntity
100
AcDbLine
  8
0
 62
7
420
0
370
0
  6
ByLayer
 10
66.2593989984791278
 20
48.5612278782138844
 30
0.0
 11
66.3149949918079074
 21
47.9685141886614588
 31
0.0
  0
LINE
  5
13F
100
AcDbEntity
100
AcDbLine
  8
0
 62
7
420
0
370
0
  6
ByLayer
 10
66.3149949918079074
 20
47.9685141886614588
 30
0.0
 11
66.1767111854476866
 21
47.0488180282858366
 31
0.0
  0
LINE
  5
140
100
AcDbEntity
100
AcDbLine
  8
0
 62
7
420
0
370
0
  6
ByLayer
 10
66.1767111854476866
 20
47.0488180282858366
 30
0.0
 11
65.5210984975572757
 21
45.5112020013932153
 31
0.0
  0
LINE
  5
141
100
AcDbEntity
100
AcDbLine
  8
0
 62
7
420
0
370
0
  6
ByLayer
 10
65.5210984975572757
 20
45.5112020013932153
 30
0.0
 11
64.4789015024426391
 21
45.5112020013932153
 31
0.0
  0
LINE
  5
142
100
AcDbEntity
100
AcDbLine
  8
0
 62
7
420
0
370
0
  6
ByLayer
 10
64.4789015024426391
 20
45.5112020013932153
 30
0.0
 11
63.8232888145522566
 21
47.0488180282858366
 31
0.0
  0
LINE
  5
143
100
AcDbEntity
100
AcDbLine
  8
0
 62
7
420
0
370
0
  6
ByLayer
 10
63.8232888145522566
 20
47.0488180282858366
 30
0.0
 11
63.6850050081920358
 21
47.9685141886614588
 31
0.0
  0
LINE
  5
144
100
AcDbEntity
100
AcDbLine
  8
0
 62
7
420
0
370
0
  6
ByLayer
 10
63.6850050081920358
 20
47.9685141886614588
 30
0.0
 11
63.7406010015208224
 21
48.5612278782138844
 31
0.0
  0
LINE
  5
145
100
AcDbEntity
100
AcDbLine
  8
0
 62
7
420
0
370
0
  6
ByLayer
 10
63.7406010015208224
 20
48.5612278782138844
 30
0.0
 11
62.0449115188499434
 21
48.8297863089634347
 31
0.0
  0
LINE
  5
146
100
AcDbEntity
100
AcDbLine
  8
0
 62
7
420
0
370
0
  6
ByLayer
 10
62.0449115188499434
 20
48.8297863089634347
 30
0.0
 11
61.9146377291851309
 21
48.2490876444541925
 31
0.0
  0
LINE
  5
147
100
AcDbEntity
100
AcDbLine
  8
0
 62
7
420
0
370
0
  6
ByLayer
 10
61.9146377291851309
 20
48.2490876444541925
 30
0.0
 11
61.4988422366486205
 21
47.4170267094645368
 31
0.0
  0
LINE
  5
148
100
AcDbEntity
100
AcDbLine
  8
0
 62
7
420
0
370
0
  6
ByLayer
 10
61.4988422366486205
 20
47.4170267094645368
 30
0.0
 11
60.4001076789229785
 21
46.1571560916196688
 31
0.0
  0
LINE
  5
149
100
AcDbEntity
100
AcDbLine
  8
0
 62
7
420
0
370
0
  6
ByLayer
 10
60.4001076789229785
 20
46.1571560916196688
 30
0.0
 11
59.4092671111933797
 21
46.479191150088397
 31
0.0
  0
LINE
  5
14A
100
AcDbEntity
100
AcDbLine
  8
0
 62
7
420
0
370
0
  6
ByLayer
 10
59.4092671111933797
 20
46.479191150088397
 30
0.0
 11
59.2608530878035538
 21
48.1442554240745437
 31
0.0
  0
LINE
  5
14B
100
AcDbEntity
100
AcDbLine
  8
0
 62
7
420
0
370
0
  6
ByLayer
 10
59.2608530878035538
 20
48.1442554240745437
 30
0.0
 11
59.4135075118616456
 21
49.061595157070947
 31
0.0
  0
LINE
  5
14C
100
AcDbEntity
100
AcDbLine
  8
0
 62
7
420
0
370
0
  6
ByLayer
 10
59.4135075118616456
 20
49.061595157070947
 30
0.0
 11
59.6493213683168619
 21
49.6081360586379105
 31
0.0
  0
LINE
  5
14D
100
AcDbEntity
100
AcDbLine
  8
0
 62
7
420
0
370
0
  6
ByLayer
 10
59.6493213683168619
 20
49.6081360586379105
 30
0.0
 11
58.1197145233951176
 21
50.3876627699152095
 31
0.0
  0
LINE
  5
14E
100
AcDbEntity
100
AcDbLine
  8
0
 62
7
420
0
370
0
  6
ByLayer
 10
58.1197145233951176
 20
50.3876627699152095
 30
0.0
 11
57.8162904832925335
 21
49.8755166930601348
 31
0.0
  0
LINE
  5
14F
100
AcDbEntity
100
AcDbLine
  8
0
 62
7
420
0
370
0
  6
ByLayer
 10
57.8162904832925335
 20
49.8755166930601348
 30
0.0
 11
57.163974957339093
 21
49.2126010001605536
 31
0.0
  0
LINE
  5
150
100
AcDbEntity
100
AcDbLine
  8
0
 62
7
420
0
370
0
  6
ByLayer
 10
57.163974957339093
 20
49.2126010001605536
 30
0.0
 11
55.7295417351331039
 21
48.3539198648338413
 31
0.0
  0
LINE
  5
151
100
AcDbEntity
100
AcDbLine
  8
0
 62
7
420
0
370
0
  6
ByLayer
 10
55.7295417351331039
 20
48.3539198648338413
 30
0.0
 11
54.8866444061521861
 21
48.9664215343551703
 31
0.0
  0
LINE
  5
152
100
AcDbEntity
100
AcDbLine
  8
0
 62
7
420
0
370
0
  6
ByLayer
 10
54.8866444061521861
 20
48.9664215343551703
 30
0.0
 11
55.2600350572813568
 21
50.5959131873020524
 31
0.0
  0
LINE
  5
153
100
AcDbEntity
100
AcDbLine
  8
0
 62
7
420
0
370
0
  6
ByLayer
 10
55.2600350572813568
 20
50.5959131873020524
 30
0.0
 11
55.6887871441433333
 21
51.4213781289687688
 31
0.0
  0
LINE
  5
154
100
AcDbEntity
100
AcDbLine
  8
0
 62
7
420
0
370
0
  6
ByLayer
 10
55.6887871441433333
 20
51.4213781289687688
 30
0.0
 11
56.0819666099660097
 21
51.868033387786042
 31
0.0
  0
LINE
  5
155
100
AcDbEntity
100
AcDbLine
  8
0
 62
7
420
0
370
0
  6
ByLayer
 10
56.0819666099660097
 20
51.868033387786042
 30
0.0
 11
54.8680333877860278
 21
53.0819666099660168
 31
0.0
  0
LINE
  5
156
100
AcDbEntity
100
AcDbLine
  8
0
 62
7
420
0
370
0
  6
ByLayer
 10
54.8680333877860278
 20
53.0819666099660168
 30
0.0
 11
54.421378128968712
 21
52.6887871441433546
 31
0.0
  0
LINE
  5
157
100
AcDbEntity
100
AcDbLine
  8
0
 62
7
420
0
370
0
  6
ByLayer
 10
54.421378128968712
 20
52.6887871441433546
 30
0.0
 11
53.5959131873020524
 21
52.2600350572813994
 31
0.0
  0
LINE
  5
158
100
AcDbEntity
100
AcDbLine
  8
0
 62
7
420
0
370
0
  6
ByLayer
 10
53.5959131873020524
 20
52.2600350572813994
 30
0.0
 11
51.9664215343551632
 21
51.8866444061522216
 31
0.0
  0
LINE
  5
159
100
AcDbEntity
100
AcDbLine
  8
0
 62
7
420
0
370
0
  6
ByLayer
 10
51.9664215343551632
 20
51.8866444061522216
 30
0.0
 11
51.3539198648338129
 21
52.7295417351331679
 31
0.0
  0
LINE
  5
15A
100
AcDbEntity
100
AcDbLine
  8
0
 62
7
420
0
370
0
  6
ByLayer
 10
51.3539198648338129
 20
52.7295417351331679
 30
0.0
 11
52.2126010001605394
 21
54.1639749573391214
 31
0.0
  0
LINE
  5
15B
100
AcDbEntity
100
AcDbLine
  8
0
 62
7
420
0
370
0
  6
ByLayer
 10
52.2126010001605394
 20
54.1639749573391214
 30
0.0
 11
52.8755166930601277
 21
54.8162904832925477
 31
0.0
  0
LINE
  5
15C
100
AcDbEntity
100
AcDbLine
  8
0
 62
7
420
0
370
0
  6
ByLayer
 10
52.8755166930601277
 20
54.8162904832925477
 30
0.0
 11
53.3876627699151882
 21
55.1197145233951247
 31
0.0
  0
LINE
  5
15D
100
AcDbEntity
100
AcDbLine
  8
0
 62
7
420
0
370
0
  6
ByLayer
 10
53.3876627699151882
 20
55.1197145233951247
 30
0.0
 11
52.6081360586379105
 21
56.6493213683168833
 31
0.0
  0
LINE
  5
15E
100
AcDbEntity
100
AcDbLine
  8
0
 62
7
420
0
370
0
  6
ByLayer
 10
52.6081360586379105
 20
56.6493213683168833
 30
0.0
 11
52.0615951570709186
 21
56.4135075118616953
 31
0.0
  0
LINE
  5
15F
100
AcDbEntity
100
AcDbLine
  8
0
 62
7
420
0
370
0
  6
ByLayer
 10
52.0615951570709186
 20
56.4135075118616953
 30
0.0
 11
51.1442554240745153
 21
56.2608530878036177
 31
0.0
  0
LINE
  5
160
100
AcDbEntity
100
AcDbLine
  8
0
 62
7
420
0
370
0
  6
ByLayer
 10
51.1442554240745153
 20
56.2608530878036177
 30
0.0
 11
49.4791911500883899
 21
56.4092671111933726
 31
0.0
  0
LINE
  5
161
100
AcDbEntity
100
AcDbLine
  8
0
 62
7
420
0
370
0
  6
ByLayer
 10
49.4791911500883899
 20
56.4092671111933726
 30
0.0
 11
49.1571560916196759
 21
57.4001076789229856
 31
0.0
  0
LINE
  5
162
100
AcDbEntity
100
AcDbLine
  8
0
 62
7
420
0
370
0
  6
ByLayer
 10
49.1571560916196759
 20
57.4001076789229856
 30
0.0
 11
50.4170267094645013
 21
58.4988422366486489
 31
0.0
  0
LINE
  5
163
100
AcDbEntity
100
AcDbLine
  8
0
 62
7
420
0
370
0
  6
ByLayer
 10
50.4170267094645013
 20
58.4988422366486489
 30
0.0
 11
51.2490876444541712
 21
58.9146377291852019
 31
0.0
  0
LINE
  5
164
100
AcDbEntity
100
AcDbLine
  8
0
 62
7
420
0
370
0
  6
ByLayer
 10
51.2490876444541712
 20
58.9146377291852019
 30
0.0
 11
51.8297863089634134
 21
59.0449115188500002
 31
0.0
  0
LINE
  5
165
100
AcDbEntity
100
AcDbLine
  8
0
 62
7
420
0
370
0
  6
ByLayer
 10
51.8297863089634134
 20
59.0449115188500002
 30
0.0
 11
51.5612278782138915
 21
60.7406010015208153
 31
0.0
  0
LINE
  5
166
100
AcDbEntity
100
AcDbLine
  8
0
 62
7
420
0
370
0
  6
ByLayer
 10
51.5612278782138915
 20
60.7406010015208153
 30
0.0
 11
50.9685141886614659
 21
60.6850050081921495
 31
0.0
  0
LINE
  5
167
100
AcDbEntity
100
AcDbLine
  8
0
 62
7
420
0
370
0
  6
ByLayer
 10
50.9685141886614659
 20
60.6850050081921495
 30
0.0
 11
50.0488180282858153
 21
60.8232888145523276
 31
0.0
  0
LINE
  5
168
100
AcDbEntity
100
AcDbLine
  8
0
 62
7
420
0
370
0
  6
ByLayer
 10
50.0488180282858153
 20
60.8232888145523276
 30
0.0
 11
48.5112020013932081
 21
61.4789015024426888
 31
0.0
  0
LINE
  5
169
100
AcDbEntity
100
AcDbLine
  8
0
 62
7
420
0
370
0
  6
ByLayer
 10
48.5112020013932081
 20
61.4789015024426888
 30
0.0
 11
48.5112020013932081
 21
62.5210984975573183
 31
0.0
  0
LINE
  5
16A
100
AcDbEntity
100
AcDbLine
  8
0
 62
7
420
0
370
0
  6
ByLayer
 10
48.5112020013932081
 20
62.5210984975573183
 30
0.0
 11
50.0488180282858153
 21
63.1767111854476724
 31
0.0
  0
LINE
  5
16B
100
AcDbEntity
100
AcDbLine
  8
0
 62
7
420
0
370
0
  6
ByLayer
 10
50.0488180282858153
 20
63.1767111854476724
 30
0.0
 11
50.9685141886614659
 21
63.3149949918079074
 31
0.0
  0
LINE
  5
16C
100
AcDbEntity
100
AcDbLine
  8
0
 62
7
420
0
370
0
  6
ByLayer
 10
50.9685141886614659
 20
63.3149949918079074
 30
0.0
 11
51.5612278782138915
 21
63.2593989984791847
 31
0.0
  0
LINE
  5
16D
100
AcDbEntity
100
AcDbLine
  8
0
 62
7
420
0
370
0
  6
ByLayer
 10
51.5612278782138915
 20
63.2593989984791847
 30
0.0
 11
51.8297863089634134
 21
64.9550884811499998
 31
0.0
  0
LINE
  5
16E
100
AcDbEntity
100
AcDbLine
  8
0
 62
7
420
0
370
0
  6
ByLayer
 10
51.8297863089634134
 20
64.9550884811499998
 30
0.0
 11
51.2490876444541712
 21
65.0853622708148123
 31
0.0
  0
LINE
  5
16F
100
AcDbEntity
100
AcDbLine
  8
0
 62
7
420
0
370
0
  6
ByLayer
 10
51.2490876444541712
 20
65.0853622708148123
 30
0.0
 11
50.4170267094645013
 21
65.5011577633513724
 31
0.0
  0
LINE
  5
170
100
AcDbEntity
100
AcDbLine
  8
0
 62
7
420
0
370
0
  6
ByLayer
 10
50.4170267094645013
 20
65.5011577633513724
 30
0.0
 11
49.1571560916196759
 21
66.5998923210770215
 31
0.0
  0
LINE
  5
171
100
AcDbEntity
100
AcDbLine
  8
0
 62
7
420
0
370
0
  6
ByLayer
 10
49.1571560916196759
 20
66.5998923210770215
 30
0.0
 11
49.4791911500883899
 21
67.5907328888066132
 31
0.0
  0
LINE
  5
172
100
AcDbEntity
100
AcDbLine
  8
0
 62
7
420
0
370
0
  6
ByLayer
 10
49.4791911500883899
 20
67.5907328888066132
 30
0.0
 11
51.1442554240745508
 21
67.7391469121964036
 31
0.0
  0
LINE
  5
173
100
AcDbEntity
100
AcDbLine
  8
0
 62
7
420
0
370
0
  6
ByLayer
 10
51.1442554240745508
 20
67.7391469121964036
 30
0.0
 11
52.0615951570709186
 21
67.5864924881383189
 31
0.0
  0
LINE
  5
174
100
AcDbEntity
100
AcDbLine
  8
0
 62
7
420
0
370
0
  6
ByLayer
 10
52.0615951570709186
 20
67.5864924881383189
 30
0.0
 11
52.6081360586379176
 21
67.3506786316831523
 31
0.0
  0
LINE
  5
175
100
AcDbEntity
100
AcDbLine
  8
0
 62
7
420
0
370
0
  6
ByLayer
 10
52.6081360586379176
 20
67.3506786316831523
 30
0.0
 11
53.3876627699151882
 21
68.8802854766048824
 31
0.0
  0
LINE
  5
176
100
AcDbEntity
100
AcDbLine
  8
0
 62
7
420
0
370
0
  6
ByLayer
 10
53.3876627699151882
 20
68.8802854766048824
 30
0.0
 11
52.8755166930601277
 21
69.1837095167074523
 31
0.0
  0
LINE
  5
177
100
AcDbEntity
100
AcDbLine
  8
0
 62
7
420
0
370
0
  6
ByLayer
 10
52.8755166930601277
 20
69.1837095167074523
 30
0.0
 11
52.2126010001605394
 21
69.8360250426608928
 31
0.0
  0
LINE
  5
178
100
AcDbEntity
100
AcDbLine
  8
0
 62
7
420
0
370
0
  6
ByLayer
 10
52.2126010001605394
 20
69.8360250426608928
 30
0.0
 11
51.35391986483382
 21
71.2704582648668463
 31
0.0
  0
LINE
  5
179
100
AcDbEntity
100
AcDbLine
  8
0
 62
7
420
0
370
0
  6
ByLayer
 10
51.35391986483382
 20
71.2704582648668463
 30
0.0
 11
51.9664215343551703
 21
72.1133555938477855
 31
0.0
  0
LINE
  5
17A
100
AcDbEntity
100
AcDbLine
  8
0
 62
7
420
0
370
0
  6
ByLayer
 10
51.9664215343551703
 20
72.1133555938477855
 30
0.0
 11
53.5959131873020524
 21
71.7399649427185864
 31
0.0
  0
LINE
  5
17B
100
AcDbEntity
100
AcDbLine
  8
0
 62
7
420
0
370
0
  6
ByLayer
 10
53.5959131873020524
 20
71.7399649427185864
 30
0.0
 11
54.4213781289687191
 21
71.3112128558566525
 31
0.0
  0
LINE
  5
17C
100
AcDbEntity
100
AcDbLine
  8
0
 62
7
420
0
370
0
  6
ByLayer
 10
54.4213781289687191
 20
71.3112128558566525
 30
0.0
 11
54.8680333877860633
 21
70.918033390033969
 31
0.0
  0
LINE
  5
17D
100
AcDbEntity
100
AcDbLine
  8
0
 62
7
420
0
370
0
  6
ByLayer
 10
54.8680333877860633
 20
70.918033390033969
 30
0.0
 11
56.0819666099660097
 21
72.1319666122139438
 31
0.0
  0
LINE
  5
17E
100
AcDbEntity
100
AcDbLine
  8
0
 62
7
420
0
370
0
  6
ByLayer
 10
56.0819666099660097
 20
72.1319666122139438
 30
0.0
 11
55.6887871441433404
 21
72.5786218710312312
 31
0.0
  0
LINE
  5
17F
100
AcDbEntity
100
AcDbLine
  8
0
 62
7
420
0
370
0
  6
ByLayer
 10
55.6887871441433404
 20
72.5786218710312312
 30
0.0
 11
55.2600350572813923
 21
73.4040868126979547
 31
0.0
  0
LINE
  5
180
100
AcDbEntity
100
AcDbLine
  8
0
 62
7
420
0
370
0
  6
ByLayer
 10
55.2600350572813923
 20
73.4040868126979547
 30
0.0
 11
54.8866444061521932
 21
75.0335784656448226
 31
0.0
  0
LINE
  5
181
100
AcDbEntity
100
AcDbLine
  8
0
 62
7
420
0
370
0
  6
ByLayer
 10
54.8866444061521932
 20
75.0335784656448226
 30
0.0
 11
55.7295417351331039
 21
75.6460801351661587
 31
0.0
  0
LINE
  5
182
100
AcDbEntity
100
AcDbLine
  8
0
 62
7
420
0
370
0
  6
ByLayer
 10
55.7295417351331039
 20
75.6460801351661587
 30
0.0
 11
57.1639749573391001
 21
74.7873989998394535
 31
0.0
  0
LINE
  5
183
100
AcDbEntity
100
AcDbLine
  8
0
 62
7
420
0
370
0
  6
ByLayer
 10
57.1639749573391001
 20
74.7873989998394535
 30
0.0
 11
57.8162904832925406
 21
74.1244833069398652
 31
0.0
  0
LINE
  5
184
100
AcDbEntity
100
AcDbLine
  8
0
 62
7
420
0
370
0
  6
ByLayer
 10
57.8162904832925406
 20
74.1244833069398652
 30
0.0
 11
58.1197145233951247
 21
73.6123372300847905
 31
0.0
  0
LINE
  5
185
100
AcDbEntity
100
AcDbLine
  8
0
 62
7
420
0
370
0
  6
ByLayer
 10
58.1197145233951247
 20
73.6123372300847905
 30
0.0
 11
59.649321368316869
 21
74.3918639413620895
 31
0.0
  0
LINE
  5
186
100
AcDbEntity
100
AcDbLine
  8
0
 62
7
420
0
370
0
  6
ByLayer
 10
59.649321368316869
 20
74.3918639413620895
 30
0.0
 11
59.4135075118616456
 21
74.9384048429290459
 31
0.0
  0
LINE
  5
187
100
AcDbEntity
100
AcDbLine
  8
0
 62
7
420
0
370
0
  6
ByLayer
 10
59.4135075118616456
 20
74.9384048429290459
 30
0.0
 11
59.2608530878035609
 21
75.8557445759254421
 31
0.0
  0
LINE
  5
188
100
AcDbEntity
100
AcDbLine
  8
0
 62
7
420
0
370
0
  6
ByLayer
 10
59.2608530878035609
 20
75.8557445759254421
 30
0.0
 11
59.4092671111933797
 21
77.5208088499115888
 31
0.0
  0
LINE
  5
189
100
AcDbEntity
100
AcDbLine
  8
0
 62
7
420
0
370
0
  6
ByLayer
 10
59.4092671111933797
 20
77.5208088499115888
 30
0.0
 11
60.4001076789229856
 21
77.8428439083803312
 31
0.0
  0
LINE
  5
18A
100
AcDbEntity
100
AcDbLine
  8
0
 62
7
420
0
370
0
  6
ByLayer
 10
60.4001076789229856
 20
77.8428439083803312
 30
0.0
 11
61.4988422366486205
 21
76.5829732905354632
 31
0.0
  0
LINE
  5
18B
100
AcDbEntity
100
AcDbLine
  8
0
 62
7
420
0
370
0
  6
ByLayer
 10
61.4988422366486205
 20
76.5829732905354632
 30
0.0
 11
61.914637729185138
 21
75.7509123555458075
 31
0.0
  0
LINE
  5
18C
100
AcDbEntity
100
AcDbLine
  8
0
 62
7
420
0
370
0
  6
ByLayer
 10
61.914637729185138
 20
75.7509123555458075
 30
0.0
 11
62.0449115188499505
 21
75.170213691036551
 31
0.0
  0
LINE
  5
18D
100
AcDbEntity
100
AcDbLine
  8
0
 62
7
420
0
370
0
  6
ByLayer
 10
62.0449115188499505
 20
75.170213691036551
 30
0.0
 11
63.7406010015208224
 21
75.4387721217861014
 31
0.0
  0
LINE
  5
18E
100
AcDbEntity
100
AcDbLine
  8
0
 62
7
420
0
370
0
  6
ByLayer
 10
63.7406010015208224
 20
75.4387721217861014
 30
0.0
 11
63.6850050081920429
 21
76.0314858113385412
 31
0.0
  0
LINE
  5
18F
100
AcDbEntity
100
AcDbLine
  8
0
 62
7
420
0
370
0
  6
ByLayer
 10
63.6850050081920429
 20
76.0314858113385412
 30
0.0
 11
63.8232888145522921
 21
76.9511819717141634
 31
0.0
  0
LINE
  5
190
100
AcDbEntity
100
AcDbLine
  8
0
 62
7
420
0
370
0
  6
ByLayer
 10
63.8232888145522921
 20
76.9511819717141634
 30
0.0
 11
64.4789015024426533
 21
78.4887979986067847
 31
0.0
  0
LINE
  5
191
100
AcDbEntity
100
AcDbLine
  8
0
 62
7
420
0
370
0
  6
ByLayer
 10
64.4789015024426533
 20
78.4887979986067847
 30
0.0
 11
65.5210984975572899
 21
78.4887979986067847
 31
0.0
  0
LINE
  5
192
100
AcDbEntity
100
AcDbLine
  8
0
 62
7
420
0
370
0
  6
ByLayer
 10
65.5210984975572899
 20
78.4887979986067847
 30
0.0
 11
66.1767111854477008
 21
76.9511819717141634
 31
0.0
  0
LINE
  5
193
100
AcDbEntity
100
AcDbLine
  8
0
 62
7
420
0
370
0
  6
ByLayer
 10
66.1767111854477008
 20
76.9511819717141634
 30
0.0
 11
66.3149949918079074
 21
76.0314858113385412
 31
0.0
  0
LINE
  5
194
100
AcDbEntity
100
AcDbLine
  8
0
 62
7
420
0
370
0
  6
ByLayer
 10
66.3149949918079074
 20
76.0314858113385412
 30
0.0
 11
66.2593989984791421
 21
75.4387721217861014
 31
0.0
  0
LINE
  5
195
100
AcDbEntity
100
AcDbLine
  8
0
 62
7
420
0
370
0
  6
ByLayer
 10
66.2593989984791421
 20
75.4387721217861014
 30
0.0
 11
67.9550884811500282
 21
75.170213691036551
 31
0.0
  0
LINE
  5
196
100
AcDbEntity
100
AcDbLine
  8
0
 62
7
420
0
370
0
  6
ByLayer
 10
67.9550884811500282
 20
75.170213691036551
 30
0.0
 11
68.0853622708147839
 21
75.7509123555458075
 31
0.0
  0
LINE
  5
197
100
AcDbEntity
100
AcDbLine
  8
0
 62
7
420
0
370
0
  6
ByLayer
 10
68.0853622708147839
 20
75.7509123555458075
 30
0.0
 11
68.5011577633513582
 21
76.5829732905354632
 31
0.0
  0
LINE
  5
198
100
AcDbEntity
100
AcDbLine
  8
0
 62
7
420
0
370
0
  6
ByLayer
 10
68.5011577633513582
 20
76.5829732905354632
 30
0.0
 11
69.5998923210770073
 21
77.8428439083803312
 31
0.0
  0
LINE
  5
199
100
AcDbEntity
100
AcDbLine
  8
0
 62
7
420
0
370
0
  6
ByLayer
 10
69.5998923210770073
 20
77.8428439083803312
 30
0.0
 11
70.590732888806599
 21
77.5208088499115888
 31
0.0
  0
LINE
  5
19A
100
AcDbEntity
100
AcDbLine
  8
0
 62
7
420
0
370
0
  6
ByLayer
 10
70.590732888806599
 20
77.5208088499115888
 30
0.0
 11
70.7391469121963894
 21
75.8557445759254421
 31
0.0
  0
LINE
  5
19B
100
AcDbEntity
100
AcDbLine
  8
0
 62
7
420
0
370
0
  6
ByLayer
 10
70.7391469121963894
 20
75.8557445759254421
 30
0.0
 11
70.5864924881383331
 21
74.9384048429290459
 31
0.0
  0
LINE
  5
19C
100
AcDbEntity
100
AcDbLine
  8
0
 62
7
420
0
370
0
  6
ByLayer
 10
70.5864924881383331
 20
74.9384048429290459
 30
0.0
 11
70.3506786316831096
 21
74.3918639413620895
 31
0.0
  0
LINE
  5
19D
100
AcDbEntity
100
AcDbLine
  8
0
 62
7
420
0
370
0
  6
ByLayer
 10
70.3506786316831096
 20
74.3918639413620895
 30
0.0
 11
71.8802854766048682
 21
73.6123372300847905
 31
0.0
  0
LINE
  5
19E
100
AcDbEntity
100
AcDbLine
  8
0
 62
7
420
0
370
0
  6
ByLayer
 10
71.8802854766048682
 20
73.6123372300847905
 30
0.0
 11
72.1837095167074523
 21
74.1244833069398652
 31
0.0
  0
LINE
  5
19F
100
AcDbEntity
100
AcDbLine
  8
0
 62
7
420
0
370
0
  6
ByLayer
 10
72.1837095167074523
 20
74.1244833069398652
 30
0.0
 11
72.8360250426608928
 21
74.7873989998394535
 31
0.0
  0
LINE
  5
1A0
100
AcDbEntity
100
AcDbLine
  8
0
 62
7
420
0
370
0
  6
ByLayer
 10
72.8360250426608928
 20
74.7873989998394535
 30
0.0
 11
74.2704582648668605
 21
75.6460801351661587
 31
0.0
  0
LINE
  5
1A1
100
AcDbEntity
100
AcDbLine
  8
0
 62
7
420
0
370
0
  6
ByLayer
 10
74.2704582648668605
 20
75.6460801351661587
 30
0.0
 11
75.1133555938477997
 21
75.0335784656448226
 31
0.0
  0
LINE
  5
1A2
100
AcDbEntity
100
AcDbLine
  8
0
 62
7
420
0
370
0
  6
ByLayer
 10
75.1133555938477997
 20
75.0335784656448226
 30
0.0
 11
74.7399649427185722
 21
73.4040868126979547
 31
0.0
  0
LINE
  5
1A3
100
AcDbEntity
100
AcDbLine
  8
0
 62
7
420
0
370
0
  6
ByLayer
 10
74.7399649427185722
 20
73.4040868126979547
 30
0.0
 11
74.3112128558566525
 21
72.5786218710312312
 31
0.0
  0
LINE
  5
1A4
100
AcDbEntity
100
AcDbLine
  8
0
 62
7
420
0
370
0
  6
ByLayer
 10
74.3112128558566525
 20
72.5786218710312312
 30
0.0
 11
73.9180333900339548
 21
72.1319666122139438
 31
0.0
  0
LINE
  5
1A5
100
AcDbEntity
100
AcDbLine
  8
0
 62
7
420
0
370
0
  6
ByLayer
 10
73.9180333900339548
 20
72.1319666122139438
 30
0.0
 11
75.1319666122139296
 21
70.918033390033969
 31
0.0
  0
LINE
  5
1A6
100
AcDbEntity
100
AcDbLine
  8
0
 62
7
420
0
370
0
  6
ByLayer
 10
75.1319666122139296
 20
70.918033390033969
 30
0.0
 11
75.5786218710312454
 21
71.3112128558566525
 31
0.0
  0
LINE
  5
1A7
100
AcDbEntity
100
AcDbLine
  8
0
 62
7
420
0
370
0
  6
ByLayer
 10
75.5786218710312454
 20
71.3112128558566525
 30
0.0
 11
76.404086812697912
 21
71.7399649427185864
 31
0.0
  0
LINE
  5
1A8
100
AcDbEntity
100
AcDbLine
  8
0
 62
7
420
0
370
0
  6
ByLayer
 10
76.404086812697912
 20
71.7399649427185864
 30
0.0
 11
78.0335784656447942
 21
72.1133555938477855
 31
0.0
  0
LINE
  5
1A9
100
AcDbEntity
100
AcDbLine
  8
0
 62
7
420
0
370
0
  6
ByLayer
 10
78.0335784656447942
 20
72.1133555938477855
 30
0.0
 11
78.6460801351661729
 21
71.2704582648668463
 31
0.0
  0
LINE
  5
1AA
100
AcDbEntity
100
AcDbLine
  8
0
 62
7
420
0
370
0
  6
ByLayer
 10
78.6460801351661729
 20
71.2704582648668463
 30
0.0
 11
77.7873989998394535
 21
69.8360250426608928
 31
0.0
  0
LINE
  5
1AB
100
AcDbEntity
100
AcDbLine
  8
0
 62
7
420
0
370
0
  6
ByLayer
 10
77.7873989998394535
 20
69.8360250426608928
 30
0.0
 11
77.1244833069398652
 21
69.1837095167074523
 31
0.0
  0
LINE
  5
1AC
100
AcDbEntity
100
AcDbLine
  8
0
 62
7
420
0
370
0
  6
ByLayer
 10
77.1244833069398652
 20
69.1837095167074523
 30
0.0
 11
76.6123372300847763
 21
68.8802854766048824
 31
0.0
  0
LINE
  5
1AD
100
AcDbEntity
100
AcDbLine
  8
0
 62
7
420
0
370
0
  6
ByLayer
 10
76.6123372300847763
 20
68.8802854766048824
 30
0.0
 11
77.3918639413620753
 21
67.3506786316831523
 31
0.0
  0
LINE
  5
1AE
100
AcDbEntity
100
AcDbLine
  8
0
 62
7
420
0
370
0
  6
ByLayer
 10
77.3918639413620753
 20
67.3506786316831523
 30
0.0
 11
77.9384048429290743
 21
67.5864924881383189
 31
0.0
  0
LINE
  5
1AF
100
AcDbEntity
100
AcDbLine
  8
0
 62
7
420
0
370
0
  6
ByLayer
 10
77.9384048429290743
 20
67.5864924881383189
 30
0.0
 11
78.8557445759254421
 21
67.7391469121964036
 31
0.0
  0
LINE
  5
1B0
100
AcDbEntity
100
AcDbLine
  8
0
 62
7
420
0
370
0
  6
ByLayer
 10
78.8557445759254421
 20
67.7391469121964036
 30
0.0
 11
80.5208088499115746
 21
67.5907328888066132
 31
0.0
  0
LINE
  5
1B1
100
AcDbEntity
100
AcDbLine
  8
0
 62
7
420
0
370
0
  6
ByLayer
 10
80.5208088499115746
 20
67.5907328888066132
 30
0.0
 11
80.8428439083802886
 21
66.5998923210770215
 31
0.0
  0
LINE
  5
1B2
100
AcDbEntity
100
AcDbLine
  8
0
 62
7
420
0
370
0
  6
ByLayer
 10
80.8428439083802886
 20
66.5998923210770215
 30
0.0
 11
79.5829732905354916
 21
65.5011577633513582
 31
0.0
  0
LINE
  5
1B3
100
AcDbEntity
100
AcDbLine
  8
0
 62
7
420
0
370
0
  6
ByLayer
 10
79.5829732905354916
 20
65.5011577633513582
 30
0.0
 11
78.7509123555457933
 21
65.0853622708147981
 31
0.0
  0
LINE
  5
1B4
100
AcDbEntity
100
AcDbLine
  8
0
 62
7
420
0
370
0
  6
ByLayer
 10
78.7509123555457933
 20
65.0853622708147981
 30
0.0
 11
78.170213691036551
 21
64.9550884811499998
 31
0.0
  0
LINE
  5
1B5
100
AcDbEntity
100
AcDbLine
  8
0
 62
7
420
0
370
0
  6
ByLayer
 10
78.170213691036551
 20
64.9550884811499998
 30
0.0
 11
78.4387721217861014
 21
63.2593989984791349
 31
0.0
  0
ARC
  5
1B6
100
AcDbEntity
  8
Extruder Mount Plate
 62
256
370
-1
  6
ByLayer
100
AcDbCircle
 10
189.1894335879706546
 20
40.4999999999999005
 30
0.0
 40
1.999999999999984
100
AcDbArc
 50
49.8535388083622948
 51
90.0
  0
CIRCLE
  5
1B7
100
AcDbEntity
100
AcDbCircle
  8
Extruder Mount Plate
 62
256
370
-1
  6
ByLayer
 10
125.3500000000001648
 20
45.9999999999997726
 30
0.0
 40
2.4249999999999869
  0
CIRCLE
  5
1B8
100
AcDbEntity
100
AcDbCircle
  8
Extruder Mount Plate
 62
256
370
-1
  6
ByLayer
 10
125.3500000000001933
 20
13.9999999999999893
 30
0.0
 40
2.4249999999999869
  0
ARC
  5
1B9
100
AcDbEntity
  8
Extruder Mount Plate
 62
256
370
-1
  6
ByLayer
100
AcDbCircle
 10
151.2500000000000853
 20
23.75
 30
0.0
 40
2.4999999999999858
100
AcDbArc
 50
0.0
 51
180.0
  0
LINE
  5
1BA
100
AcDbEntity
100
AcDbLine
  8
Extruder Mount Plate
 62
256
370
-1
  6
ByLayer
 10
153.7499999999999716
 20
16.0000000000001137
 30
0.0
 11
153.75
 21
23.75
 31
0.0
  0
LINE
  5
1BB
100
AcDbEntity
100
AcDbLine
  8
Extruder Mount Plate
 62
256
370
-1
  6
ByLayer
 10
159.2499999999999716
 20
13.9999999999999822
 30
0.0
 11
155.7499999999999716
 21
13.9999999999999858
 31
0.0
  0
LINE
  5
1BC
100
AcDbEntity
100
AcDbLine
  8
Extruder Mount Plate
 62
256
370
-1
  6
ByLayer
 10
161.2499999999999716
 20
23.7499999999999964
 30
0.0
 11
161.2499999999999716
 21
16.0000000000000995
 31
0.0
  0
ARC
  5
1BD
100
AcDbEntity
  8
Extruder Mount Plate
 62
256
370
-1
  6
ByLayer
100
AcDbCircle
 10
163.7499999999999716
 20
23.7499999999999964
 30
0.0
 40
2.4999999999999858
100
AcDbArc
 50
0.0
 51
180.0
  0
LINE
  5
1BE
100
AcDbEntity
100
AcDbLine
  8
Extruder Mount Plate
 62
256
370
-1
  6
ByLayer
 10
166.2499999999999716
 20
16.0000000000001066
 30
0.0
 11
166.2499999999999716
 21
23.7499999999999964
 31
0.0
  0
LINE
  5
1BF
100
AcDbEntity
100
AcDbLine
  8
Extruder Mount Plate
 62
256
370
-1
  6
ByLayer
 10
195.1499999999997499
 20
13.9999999999999503
 30
0.0
 11
191.6499999999998636
 21
13.9999999999999822
 31
0.0
  0
LINE
  5
1C0
100
AcDbEntity
100
AcDbLine
  8
Extruder Mount Plate
 62
256
370
-1
  6
ByLayer
 10
197.1499999999998067
 20
23.7500000000000071
 30
0.0
 11
197.1499999999997499
 21
16.0000000000001101
 31
0.0
  0
ARC
  5
1C1
100
AcDbEntity
  8
Extruder Mount Plate
 62
256
370
-1
  6
ByLayer
100
AcDbCircle
 10
199.6499999999998067
 20
23.7499999999999609
 30
0.0
 40
2.4999999999999858
100
AcDbArc
 50
0.0
 51
180.0
  0
LINE
  5
1C2
100
AcDbEntity
100
AcDbLine
  8
Extruder Mount Plate
 62
256
370
-1
  6
ByLayer
 10
202.1499999999998067
 20
16.0000000000000746
 30
0.0
 11
202.1499999999998067
 21
23.7499999999999645
 31
0.0
  0
LINE
  5
1C3
100
AcDbEntity
100
AcDbLine
  8
Extruder Mount Plate
 62
256
370
-1
  6
ByLayer
 10
210.1499999999997215
 20
14.0000000000000124
 30
0.0
 11
204.1499999999998067
 21
14.0000000000000071
 31
0.0
  0
LINE
  5
1C4
100
AcDbEntity
100
AcDbLine
  8
Extruder Mount Plate
 62
256
370
-1
  6
ByLayer
 10
212.1499999999998067
 20
22.8204948956288831
 30
0.0
 11
212.1499999999998067
 21
16.0000000000000568
 31
0.0
  0
LINE
  5
1C5
100
AcDbEntity
100
AcDbLine
  8
Extruder Mount Plate
 62
256
370
-1
  6
ByLayer
 10
190.4789209745111407
 20
42.0287976582768081
 30
0.0
 11
211.4394873865402928
 21
24.3492925539058405
 31
0.0
  0
ARC
  5
1C6
100
AcDbEntity
  8
Extruder Mount Plate
 62
256
370
-1
  6
ByLayer
100
AcDbCircle
 10
155.75
 20
16.0000000000000995
 30
0.0
 40
1.999999999999996
100
AcDbArc
 50
180.0
 51
270.0
  0
ARC
  5
1C7
100
AcDbEntity
  8
Extruder Mount Plate
 62
256
370
-1
  6
ByLayer
100
AcDbCircle
 10
159.25
 20
15.9999999999999858
 30
0.0
 40
1.999999999999986
100
AcDbArc
 50
270.0
 51
0.0
  0
ARC
  5
1C8
100
AcDbEntity
  8
Extruder Mount Plate
 62
256
370
-1
  6
ByLayer
100
AcDbCircle
 10
168.2499999999999716
 20
15.9999999999999964
 30
0.0
 40
1.999999999999984
100
AcDbArc
 50
179.9999999999989768
 51
270.0
  0
ARC
  5
1C9
100
AcDbEntity
  8
Extruder Mount Plate
 62
256
370
-1
  6
ByLayer
100
AcDbCircle
 10
195.1499999999998067
 20
16.0000000000001137
 30
0.0
 40
2.0
100
AcDbArc
 50
270.0
 51
0.0
  0
ARC
  5
1CA
100
AcDbEntity
  8
Extruder Mount Plate
 62
256
370
-1
  6
ByLayer
100
AcDbCircle
 10
204.1499999999998067
 20
15.9999999999999805
 30
0.0
 40
1.999999999999982
100
AcDbArc
 50
180.0
 51
270.0
  0
ARC
  5
1CB
100
AcDbEntity
  8
Extruder Mount Plate
 62
256
370
-1
  6
ByLayer
100
AcDbCircle
 10
210.149999999999693
 20
16.0000000000000071
 30
0.0
 40
1.999999999999982
100
AcDbArc
 50
270.0
 51
0.0
  0
ARC
  5
1CC
100
AcDbEntity
  8
Extruder Mount Plate
 62
256
370
-1
  6
ByLayer
100
AcDbCircle
 10
210.1499999999998067
 20
22.820494895628876
 30
0.0
 40
1.999999999999911
100
AcDbArc
 50
359.9999999999989768
 51
49.853538808363183
  0
CIRCLE
  5
1CD
100
AcDbEntity
100
AcDbCircle
  8
Extruder Mount Plate
 62
256
370
-1
  6
ByLayer
 10
141.2500000000001705
 20
30.0
 30
0.0
 40
2.1000000000000001
  0
CIRCLE
  5
1CE
100
AcDbEntity
100
AcDbCircle
  8
Extruder Mount Plate
 62
256
370
-1
  6
ByLayer
 10
111.2500000000001421
 20
12.679491924311229
 30
0.0
 40
2.1000000000000001
  0
CIRCLE
  5
1CF
100
AcDbEntity
100
AcDbCircle
  8
Extruder Mount Plate
 62
256
370
-1
  6
ByLayer
 10
111.2500000000001705
 20
47.3205080756887497
 30
0.0
 40
2.1000000000000001
  0
MTEXT
  5
1D0
100
AcDbEntity
100
AcDbMText
  8
Extruder Mount Plate Text
 62
256
370
-1
  6
ByLayer
 10
148.649999999999892
 20
34.0
 30
0.0
 40
3.0
 41
100.0
 71
1
 72
2
  1
Extruder\~Mount\~Plate
  7
standard
 50
0.0
 73
1
 44
1.0
  0
LINE
  5
1D1
100
AcDbEntity
100
AcDbLine
  8
Extruder Mount Plate
 62
256
370
-1
  6
ByLayer
 10
189.1894335879706546
 20
42.4999999999998863
 30
0.0
 11
148.5796542239380642
 21
42.4999999999998863
 31
0.0
  0
ARC
  5
1D2
100
AcDbEntity
  8
Extruder Mount Plate
 62
256
370
-1
  6
ByLayer
100
AcDbCircle
 10
148.5796542239380926
 20
52.4999999999998863
 30
0.0
 40
10.0
100
AcDbArc
 50
219.4639964087814974
 51
270.0
  0
ARC
  5
1D3
100
AcDbEntity
  8
Extruder Mount Plate
 62
256
370
-1
  6
ByLayer
100
AcDbCircle
 10
121.2500000000001847
 20
30.0000000000000036
 30
0.0
 40
25.3999999999999986
100
AcDbArc
 50
39.4639964087814619
 51
312.7381168620651692
  0
ARC
  5
1D4
100
AcDbEntity
  8
Extruder Mount Plate
 62
256
370
-1
  6
ByLayer
100
AcDbCircle
 10
145.2741545116577981
 20
3.9999999999999893
 30
0.0
 40
10.0
100
AcDbArc
 50
90.0
 51
132.7381168620651692
  0
LINE
  5
1D5
100
AcDbEntity
100
AcDbLine
  8
Extruder Mount Plate
 62
256
370
-1
  6
ByLayer
 10
181.649999999999892
 20
13.9999999999999929
 30
0.0
 11
168.2499999999999716
 21
13.9999999999999929
 31
0.0
  0
LINE
  5
1D6
100
AcDbEntity
100
AcDbLine
  8
Extruder Mount Plate
 62
256
370
-1
  6
ByLayer
 10
189.6499999999997499
 20
16.0000000000000959
 30
0.0
 11
189.6499999999997499
 21
23.750000000000032
 31
0.0
  0
ARC
  5
1D7
100
AcDbEntity
  8
Extruder Mount Plate
 62
256
370
-1
  6
ByLayer
100
AcDbCircle
 10
191.6499999999997499
 20
15.999999999999984
 30
0.0
 40
1.999999999999978
100
AcDbArc
 50
180.0
 51
270.0
  0
LINE
  5
1D8
100
AcDbEntity
100
AcDbLine
  8
Extruder Mount Plate
 62
256
370
-1
  6
ByLayer
 10
183.6499999999998636
 20
23.75
 30
0.0
 11
183.6499999999998636
 21
15.9999999999999716
 31
0.0
  0
ARC
  5
1D9
100
AcDbEntity
  8
Extruder Mount Plate
 62
256
370
-1
  6
ByLayer
100
AcDbCircle
 10
181.6499999999998636
 20
15.9999999999999645
 30
0.0
 40
2.0
100
AcDbArc
 50
270.0
 51
0.0
  0
ARC
  5
1DA
100
AcDbEntity
  8
Extruder Mount Plate
 62
256
370
-1
  6
ByLayer
100
AcDbCircle
 10
186.6499999999998636
 20
23.75
 30
0.0
 40
3.0
100
AcDbArc
 50
0.0
 51
180.0
  0
LINE
  5
1DB
100
AcDbEntity
100
AcDbLine
  8
Extruder Mount Plate
 62
256
370
-1
  6
ByLayer
 10
148.7500000000000853
 20
23.75
 30
0.0
 11
148.7500000000000853
 21
15.9999999999999876
 31
0.0
  0
LINE
  5
1DC
100
AcDbEntity
100
AcDbLine
  8
Extruder Mount Plate
 62
256
370
-1
  6
ByLayer
 10
146.7500000000000853
 20
13.9999999999999893
 30
0.0
 11
145.2741545116577981
 21
13.9999999999999858
 31
0.0
  0
ARC
  5
1DD
100
AcDbEntity
  8
Extruder Mount Plate
 62
256
370
-1
  6
ByLayer
100
AcDbCircle
 10
146.7500000000000853
 20
15.9999999999999858
 30
0.0
 40
2.0
100
AcDbArc
 50
270.0
 51
0.0
  0
CIRCLE
  5
1DE
100
AcDbEntity
100
AcDbCircle
  8
Extruder Mount Plate
 62
256
370
-1
  6
ByLayer
 10
121.2500000000001847
 20
30.0000000000000036
 30
0.0
 40
1.6499999999999999
  0
MTEXT
  5
1DF
100
AcDbEntity
100
AcDbMText
  8
Insulator Retainer Text
 62
256
370
-1
  6
ByLayer
 10
234.5190878119085767
 20
65.6000000000000938
 30
0.0
 40
3.0
 41
100.0
 71
1
 72
2
  1
Insulator\~Retainer
  7
standard
 50
180.0
 73
0
 44
1.0
  0
ARC
  5
1E0
100
AcDbEntity
  8
Insulator Retainer
 62
256
370
-1
  6
ByLayer
100
AcDbCircle
 10
148.5796542239380926
 20
44.4999999999999005
 30
0.0
 40
1.999999999999984
100
AcDbArc
 50
229.8535388083622877
 51
270.0
  0
CIRCLE
  5
1E1
100
AcDbEntity
100
AcDbCircle
  8
Insulator Retainer
 62
256
370
-1
  6
ByLayer
 10
212.4190878119085824
 20
39.0
 30
0.0
 40
2.4249999999999869
  0
CIRCLE
  5
1E2
100
AcDbEntity
100
AcDbCircle
  8
Insulator Retainer
 62
256
370
-1
  6
ByLayer
 10
212.4190878119085539
 20
70.9999999999997726
 30
0.0
 40
2.4249999999999869
  0
ARC
  5
1E3
100
AcDbEntity
  8
Insulator Retainer
 62
256
370
-1
  6
ByLayer
100
AcDbCircle
 10
186.5190878119086619
 20
61.2499999999997726
 30
0.0
 40
2.4999999999999858
100
AcDbArc
 50
180.0
 51
360.0
  0
LINE
  5
1E4
100
AcDbEntity
100
AcDbLine
  8
Insulator Retainer
 62
256
370
-1
  6
ByLayer
 10
184.0190878119087756
 20
68.9999999999996732
 30
0.0
 11
184.0190878119087756
 21
61.2499999999997584
 31
0.0
  0
LINE
  5
1E5
100
AcDbEntity
100
AcDbLine
  8
Insulator Retainer
 62
256
370
-1
  6
ByLayer
 10
178.5190878119087756
 20
70.9999999999998153
 30
0.0
 11
182.0190878119087756
 21
70.9999999999998153
 31
0.0
  0
LINE
  5
1E6
100
AcDbEntity
100
AcDbLine
  8
Insulator Retainer
 62
256
370
-1
  6
ByLayer
 10
176.5190878119087756
 20
61.2499999999997726
 30
0.0
 11
176.5190878119087472
 21
68.9999999999996732
 31
0.0
  0
ARC
  5
1E7
100
AcDbEntity
  8
Insulator Retainer
 62
256
370
-1
  6
ByLayer
100
AcDbCircle
 10
174.0190878119087756
 20
61.2499999999998295
 30
0.0
 40
2.4999999999999858
100
AcDbArc
 50
180.0
 51
360.0
  0
LINE
  5
1E8
100
AcDbEntity
100
AcDbLine
  8
Insulator Retainer
 62
256
370
-1
  6
ByLayer
 10
171.5190878119087756
 20
68.9999999999997158
 30
0.0
 11
171.5190878119087756
 21
61.2499999999997584
 31
0.0
  0
LINE
  5
1E9
100
AcDbEntity
100
AcDbLine
  8
Insulator Retainer
 62
256
370
-1
  6
ByLayer
 10
142.6190878119089973
 20
70.9999999999998153
 30
0.0
 11
146.1190878119088836
 21
70.9999999999999289
 31
0.0
  0
LINE
  5
1EA
100
AcDbEntity
100
AcDbLine
  8
Insulator Retainer
 62
256
370
-1
  6
ByLayer
 10
140.6190878119089689
 20
61.2499999999997868
 30
0.0
 11
140.6190878119089973
 21
68.9999999999996874
 31
0.0
  0
ARC
  5
1EB
100
AcDbEntity
  8
Insulator Retainer
 62
256
370
-1
  6
ByLayer
100
AcDbCircle
 10
138.1190878119089405
 20
61.2499999999998153
 30
0.0
 40
2.4999999999999858
100
AcDbArc
 50
180.0
 51
360.0
  0
LINE
  5
1EC
100
AcDbEntity
100
AcDbLine
  8
Insulator Retainer
 62
256
370
-1
  6
ByLayer
 10
135.6190878119089405
 20
68.9999999999996589
 30
0.0
 11
135.6190878119089405
 21
61.2499999999998721
 31
0.0
  0
LINE
  5
1ED
100
AcDbEntity
100
AcDbLine
  8
Insulator Retainer
 62
256
370
-1
  6
ByLayer
 10
127.6190878119090542
 20
70.9999999999998295
 30
0.0
 11
133.619087811908912
 21
70.9999999999997016
 31
0.0
  0
LINE
  5
1EE
100
AcDbEntity
100
AcDbLine
  8
Insulator Retainer
 62
256
370
-1
  6
ByLayer
 10
125.6190878119089689
 20
62.1795051043710316
 30
0.0
 11
125.6190878119089689
 21
68.9999999999997726
 31
0.0
  0
LINE
  5
1EF
100
AcDbEntity
100
AcDbLine
  8
Insulator Retainer
 62
256
370
-1
  6
ByLayer
 10
147.2901668373976065
 20
42.9712023417229574
 30
0.0
 11
126.3296004253684544
 21
60.6507074460941453
 31
0.0
  0
ARC
  5
1F0
100
AcDbEntity
  8
Insulator Retainer
 62
256
370
-1
  6
ByLayer
100
AcDbCircle
 10
182.0190878119087756
 20
68.9999999999996874
 30
0.0
 40
1.999999999999996
100
AcDbArc
 50
360.0
 51
90.0
  0
ARC
  5
1F1
100
AcDbEntity
  8
Insulator Retainer
 62
256
370
-1
  6
ByLayer
100
AcDbCircle
 10
178.5190878119087756
 20
68.9999999999998579
 30
0.0
 40
1.999999999999986
100
AcDbArc
 50
90.0
 51
180.0
  0
ARC
  5
1F2
100
AcDbEntity
  8
Insulator Retainer
 62
256
370
-1
  6
ByLayer
100
AcDbCircle
 10
169.519087811908804
 20
68.9999999999997868
 30
0.0
 40
1.999999999999984
100
AcDbArc
 50
359.9999999999989768
 51
90.0
  0
ARC
  5
1F3
100
AcDbEntity
  8
Insulator Retainer
 62
256
370
-1
  6
ByLayer
100
AcDbCircle
 10
142.6190878119089405
 20
68.9999999999997442
 30
0.0
 40
2.0
100
AcDbArc
 50
90.0
 51
180.0
  0
ARC
  5
1F4
100
AcDbEntity
  8
Insulator Retainer
 62
256
370
-1
  6
ByLayer
100
AcDbCircle
 10
133.6190878119089405
 20
68.999999999999801
 30
0.0
 40
1.999999999999982
100
AcDbArc
 50
360.0
 51
90.0
  0
ARC
  5
1F5
100
AcDbEntity
  8
Insulator Retainer
 62
256
370
-1
  6
ByLayer
100
AcDbCircle
 10
127.6190878119090826
 20
68.9999999999999574
 30
0.0
 40
1.999999999999982
100
AcDbArc
 50
90.0
 51
180.0
  0
ARC
  5
1F6
100
AcDbEntity
  8
Insulator Retainer
 62
256
370
-1
  6
ByLayer
100
AcDbCircle
 10
127.6190878119089405
 20
62.1795051043709748
 30
0.0
 40
1.999999999999911
100
AcDbArc
 50
179.9999999999989768
 51
229.8535388083631688
  0
CIRCLE
  5
1F7
100
AcDbEntity
100
AcDbCircle
  8
Insulator Retainer
 62
256
370
-1
  6
ByLayer
 10
196.5190878119085767
 20
54.9999999999997726
 30
0.0
 40
2.1000000000000001
  0
CIRCLE
  5
1F8
100
AcDbEntity
100
AcDbCircle
  8
Insulator Retainer
 62
256
370
-1
  6
ByLayer
 10
226.5190878119086051
 20
72.3205080756885081
 30
0.0
 40
2.1000000000000001
  0
CIRCLE
  5
1F9
100
AcDbEntity
100
AcDbCircle
  8
Insulator Retainer
 62
256
370
-1
  6
ByLayer
 10
226.5190878119085767
 20
37.6794919243110229
 30
0.0
 40
2.1000000000000001
  0
LINE
  5
1FA
100
AcDbEntity
100
AcDbLine
  8
Insulator Retainer
 62
256
370
-1
  6
ByLayer
 10
148.5796542239380926
 20
42.4999999999998863
 30
0.0
 11
189.189433587970683
 21
42.4999999999998863
 31
0.0
  0
ARC
  5
1FB
100
AcDbEntity
  8
Insulator Retainer
 62
256
370
-1
  6
ByLayer
100
AcDbCircle
 10
189.1894335879706546
 20
32.4999999999998863
 30
0.0
 40
10.0
100
AcDbArc
 50
39.4639964087814903
 51
90.0
  0
ARC
  5
1FC
100
AcDbEntity
  8
Insulator Retainer
 62
256
370
-1
  6
ByLayer
100
AcDbCircle
 10
216.5190878119085767
 20
54.9999999999997726
 30
0.0
 40
25.3999999999999986
100
AcDbArc
 50
219.463996408781469
 51
132.7381168620652545
  0
ARC
  5
1FD
100
AcDbEntity
  8
Insulator Retainer
 62
256
370
-1
  6
ByLayer
100
AcDbCircle
 10
192.4949333002510059
 20
80.999999999999801
 30
0.0
 40
10.0
100
AcDbArc
 50
270.0
 51
312.7381168620651692
  0
LINE
  5
1FE
100
AcDbEntity
100
AcDbLine
  8
Insulator Retainer
 62
256
370
-1
  6
ByLayer
 10
156.1190878119088836
 20
70.9999999999997868
 30
0.0
 11
169.519087811908804
 21
70.999999999999801
 31
0.0
  0
LINE
  5
1FF
100
AcDbEntity
100
AcDbLine
  8
Insulator Retainer
 62
256
370
-1
  6
ByLayer
 10
148.1190878119089973
 20
68.9999999999996447
 30
0.0
 11
148.1190878119089973
 21
61.2499999999997158
 31
0.0
  0
ARC
  5
200
100
AcDbEntity
  8
Insulator Retainer
 62
256
370
-1
  6
ByLayer
100
AcDbCircle
 10
146.1190878119089973
 20
68.9999999999997442
 30
0.0
 40
1.999999999999978
100
AcDbArc
 50
360.0
 51
90.0
  0
LINE
  5
201
100
AcDbEntity
100
AcDbLine
  8
Insulator Retainer
 62
256
370
-1
  6
ByLayer
 10
154.1190878119088836
 20
61.2499999999998153
 30
0.0
 11
154.1190878119088836
 21
68.999999999999801
 31
0.0
  0
ARC
  5
202
100
AcDbEntity
  8
Insulator Retainer
 62
256
370
-1
  6
ByLayer
100
AcDbCircle
 10
156.1190878119088836
 20
68.9999999999998437
 30
0.0
 40
2.0
100
AcDbArc
 50
90.0
 51
180.0
  0
ARC
  5
203
100
AcDbEntity
  8
Insulator Retainer
 62
256
370
-1
  6
ByLayer
100
AcDbCircle
 10
151.1190878119088836
 20
61.2499999999997442
 30
0.0
 40
3.0
100
AcDbArc
 50
180.0
 51
360.0
  0
LINE
  5
204
100
AcDbEntity
100
AcDbLine
  8
Insulator Retainer
 62
256
370
-1
  6
ByLayer
 10
189.0190878119086619
 20
61.2499999999997868
 30
0.0
 11
189.0190878119086619
 21
68.9999999999997584
 31
0.0
  0
LINE
  5
205
100
AcDbEntity
100
AcDbLine
  8
Insulator Retainer
 62
256
370
-1
  6
ByLayer
 10
191.0190878119086619
 20
70.9999999999997584
 30
0.0
 11
192.4949333002509775
 21
70.9999999999998295
 31
0.0
  0
ARC
  5
206
100
AcDbEntity
  8
Insulator Retainer
 62
256
370
-1
  6
ByLayer
100
AcDbCircle
 10
191.0190878119086619
 20
68.999999999999801
 30
0.0
 40
2.0
100
AcDbArc
 50
90.0
 51
180.0
  0
CIRCLE
  5
207
100
AcDbEntity
100
AcDbCircle
  8
Insulator Retainer
 62
256
370
-1
  6
ByLayer
 10
216.5190878119085767
 20
54.9999999999997726
 30
0.0
 40
8.0
  0
LINE
  5
208
100
AcDbEntity
100
AcDbLine
  8
0
 62
256
370
-1
  6
ByLayer
 10
246.8499999999998522
 20
35.0000000000000284
 30
0.0
 11
246.8499999999998806
 21
79.3999999999999915
 31
0.0
  0
ARC
  5
209
100
AcDbEntity
  8
0
 62
256
370
-1
  6
ByLayer
100
AcDbCircle
 10
250.3499999999999659
 20
79.4000000000000483
 30
0.0
 40
3.5
100
AcDbArc
 50
90.0
 51
180.0
  0
LINE
  5
20A
100
AcDbEntity
100
AcDbLine
  8
0
 62
256
370
-1
  6
ByLayer
 10
250.3500000000000227
 20
82.9000000000000199
 30
0.0
 11
288.1550125628933756
 21
82.8999999999999631
 31
0.0
  0
ARC
  5
20B
100
AcDbEntity
  8
0
 62
256
370
-1
  6
ByLayer
100
AcDbCircle
 10
289.1499999999999204
 20
77.9999999999999858
 30
0.0
 40
5.0000000000000089
100
AcDbArc
 50
43.9829631303585202
 51
101.4783409545338628
  0
LINE
  5
20C
100
AcDbEntity
100
AcDbLine
  8
0
 62
256
370
-1
  6
ByLayer
 10
292.7477316241635208
 20
81.4722222222221859
 30
0.0
 11
301.7420606845722091
 21
72.1527777777777288
 31
0.0
  0
CIRCLE
  5
20D
100
AcDbEntity
100
AcDbCircle
  8
0
 62
256
370
-1
  6
ByLayer
 10
289.1499999999999204
 20
77.9999999999999858
 30
0.0
 40
2.4249999999999989
  0
CIRCLE
  5
20E
100
AcDbEntity
100
AcDbCircle
  8
0
 62
256
370
-1
  6
ByLayer
 10
289.1499999999999204
 20
42.0000000000000142
 30
0.0
 40
2.4249999999999989
  0
ARC
  5
20F
100
AcDbEntity
  8
0
 62
256
370
-1
  6
ByLayer
100
AcDbCircle
 10
279.9611086364040489
 20
36.0000000000000142
 30
0.0
 40
2.0000000000000049
100
AcDbArc
 50
90.0
 51
180.0
  0
ARC
  5
210
100
AcDbEntity
  8
0
 62
256
370
-1
  6
ByLayer
100
AcDbCircle
 10
275.9611086364040489
 20
35.0000000000000284
 30
0.0
 40
2.0000000000000062
100
AcDbArc
 50
270.0
 51
359.9999999999994884
  0
ARC
  5
211
100
AcDbEntity
  8
0
 62
256
370
-1
  6
ByLayer
100
AcDbCircle
 10
248.8499999999998522
 20
35.0000000000000426
 30
0.0
 40
2.0000000000000102
100
AcDbArc
 50
180.0000000000005116
 51
270.0
  0
LINE
  5
212
100
AcDbEntity
100
AcDbLine
  8
0
 62
256
370
-1
  6
ByLayer
 10
277.9611086364040489
 20
34.9999999999999716
 30
0.0
 11
277.9611086364040489
 21
35.9999999999999574
 31
0.0
  0
CIRCLE
  5
213
100
AcDbEntity
100
AcDbCircle
  8
0
 62
256
370
-1
  6
ByLayer
 10
259.1499999999999773
 20
60.0
 30
0.0
 40
4.8499999999999996
  0
LINE
  5
214
100
AcDbEntity
100
AcDbLine
  8
Notes
 62
256
370
-1
  6
ByLayer
 10
248.8499999999998806
 20
33.0000000000000284
 30
0.0
 11
275.9611086364039352
 21
33.0000000000000284
 31
0.0
  0
MTEXT
  5
215
100
AcDbEntity
100
AcDbMText
  8
Text
 62
256
370
-1
  6
ByLayer
 10
268.5750476264984741
 20
72.1868191497322158
 30
0.0
 40
4.0
 41
100.0
 71
3
 72
2
  1
Motor\~Mount
  7
standard
 50
90.0
 73
1
 44
1.0
  0
CIRCLE
  5
216
100
AcDbEntity
100
AcDbCircle
  8
0
 62
256
370
-1
  6
ByLayer
 10
289.1499999999999204
 20
60.0
 30
0.0
 40
4.0999999999999996
  0
LINE
  5
217
100
AcDbEntity
100
AcDbLine
  8
0
 62
256
370
-1
  6
ByLayer
 10
292.7477316241634071
 20
38.5277777777777857
 30
0.0
 11
301.7420606845721522
 21
47.8472222222222143
 31
0.0
  0
ARC
  5
218
100
AcDbEntity
  8
0
 62
256
370
-1
  6
ByLayer
100
AcDbCircle
 10
289.1499999999999204
 20
42.0000000000000142
 30
0.0
 40
5.0
100
AcDbArc
 50
270.0
 51
316.0170368696413448
  0
ARC
  5
219
100
AcDbEntity
  8
0
 62
256
370
-1
  6
ByLayer
100
AcDbCircle
 10
289.1499999999999204
 20
60.0
 30
0.0
 40
17.5
100
AcDbArc
 50
316.0170368696412879
 51
43.9829631303583639
  0
CIRCLE
  5
21A
100
AcDbEntity
100
AcDbCircle
  8
0
 62
256
370
-1
  6
ByLayer
 10
250.3499999999998522
 20
79.5000000000000426
 30
0.0
 40
1.425
  0
CIRCLE
  5
21B
100
AcDbEntity
100
AcDbCircle
  8
0
 62
256
370
-1
  6
ByLayer
 10
267.9499999999998749
 20
79.5000000000000426
 30
0.0
 40
1.425
  0
ARC
  5
21C
100
AcDbEntity
  8
0
 62
256
370
-1
  6
ByLayer
100
AcDbCircle
 10
284.9001612207885046
 20
45.9664065552803152
 30
0.0
 40
2.5
100
AcDbArc
 50
0.5499406159400959
 51
180.0000000000008527
  0
LINE
  5
21D
100
AcDbEntity
100
AcDbLine
  8
0
 62
256
370
-1
  6
ByLayer
 10
288.1411518296787904
 20
37.2703200525231608
 30
0.0
 11
289.1499999999999204
 21
37.0000000000000142
 31
0.0
  0
LINE
  5
21E
100
AcDbEntity
100
AcDbLine
  8
0
 62
256
370
-1
  6
ByLayer
 10
287.4000460630824136
 20
45.990401872937241
 30
0.0
 11
287.399970874828341
 21
38.2362555753347522
 31
0.0
  0
ARC
  5
21F
100
AcDbEntity
  8
0
 62
256
370
-1
  6
ByLayer
100
AcDbCircle
 10
288.3999708747812747
 20
38.2362458788122552
 30
0.0
 40
1.0
100
AcDbArc
 50
179.9994444301845533
 51
255.0000000000005116
  0
LINE
  5
220
100
AcDbEntity
100
AcDbLine
  8
0
 62
256
370
-1
  6
ByLayer
 10
282.4001612207885046
 20
45.9664065552802583
 30
0.0
 11
282.4000202371701675
 21
38.9999797624201392
 31
0.0
  0
LINE
  5
221
100
AcDbEntity
100
AcDbLine
  8
0
 62
256
370
-1
  6
ByLayer
 10
279.961108636403992
 20
37.9999999999999858
 30
0.0
 11
281.4000202373749175
 21
37.9999999999999858
 31
0.0
  0
ARC
  5
222
100
AcDbEntity
  8
0
 62
256
370
-1
  6
ByLayer
100
AcDbCircle
 10
281.4000202373749175
 20
38.9999999999999858
 30
0.0
 40
1.0
100
AcDbArc
 50
270.0
 51
359.998840472088375
  0
ARC
  5
223
100
AcDbEntity
  8
Spring Plate
 62
256
370
-1
  6
ByLayer
100
AcDbCircle
 10
250.8085295541509936
 20
27.4629172134260102
 30
0.0
 40
5.0
100
AcDbArc
 50
90.0000000000009805
 51
180.0
  0
LINE
  5
224
100
AcDbEntity
100
AcDbLine
  8
Spring Plate
 62
256
370
-1
  6
ByLayer
 10
245.8085295541513062
 20
6.4629172134259676
 30
0.0
 11
245.8085295541509936
 21
27.4629172134259534
 31
0.0
  0
ARC
  5
225
100
AcDbEntity
  8
Spring Plate
 62
256
370
-1
  6
ByLayer
100
AcDbCircle
 10
250.8085295541512778
 20
6.4629172134260244
 30
0.0
 40
5.0
100
AcDbArc
 50
180.0
 51
270.0000000000009663
  0
LINE
  5
226
100
AcDbEntity
100
AcDbLine
  8
Spring Plate
 62
256
370
-1
  6
ByLayer
 10
250.8085295541513915
 20
1.4629172134260315
 30
0.0
 11
298.3085295541513915
 21
1.4629172134267918
 31
0.0
  0
ARC
  5
227
100
AcDbEntity
  8
Spring Plate
 62
256
370
-1
  6
ByLayer
100
AcDbCircle
 10
298.3085295541513347
 20
6.4629172134267847
 30
0.0
 40
5.0
100
AcDbArc
 50
270.0000000000009663
 51
0.0
  0
LINE
  5
228
100
AcDbEntity
100
AcDbLine
  8
Spring Plate
 62
256
370
-1
  6
ByLayer
 10
250.8085295541508799
 20
32.4629172134260244
 30
0.0
 11
298.3085295541509367
 21
32.4629172134267918
 31
0.0
  0
LINE
  5
229
100
AcDbEntity
100
AcDbLine
  8
Spring Plate
 62
256
370
-1
  6
ByLayer
 10
303.3085295541513347
 20
6.4629172134268558
 30
0.0
 11
303.3085295541509936
 21
27.4629172134268629
 31
0.0
  0
ARC
  5
22A
100
AcDbEntity
  8
Spring Plate
 62
256
370
-1
  6
ByLayer
100
AcDbCircle
 10
298.3085295541509936
 20
27.4629172134267918
 30
0.0
 40
5.0
100
AcDbArc
 50
0.0
 51
90.0000000000009805
  0
CIRCLE
  5
22B
100
AcDbEntity
100
AcDbCircle
  8
Spring Plate
 62
256
370
-1
  6
ByLayer
 10
293.308529554151221
 20
11.4629172134267066
 30
0.0
 40
1.4199999999999999
  0
CIRCLE
  5
22C
100
AcDbEntity
100
AcDbCircle
  8
Spring Plate
 62
256
370
-1
  6
ByLayer
 10
293.3085295541510504
 20
22.4629172134267208
 30
0.0
 40
1.4199999999999999
  0
MTEXT
  5
22D
100
AcDbEntity
100
AcDbMText
  8
Spring Plate Text
 62
256
370
-1
  6
ByLayer
 10
260.4684282390223302
 20
28.4588924128143788
 30
0.0
 40
3.0
 41
100.0
 71
5
 72
2
  1
Spring
  7
standard
 50
0.0
 73
1
 44
1.0
  0
MTEXT
  5
22E
100
AcDbEntity
100
AcDbMText
  8
Spring Plate Text
 62
256
370
-1
  6
ByLayer
 10
289.4684282390223302
 20
28.4588924128143788
 30
0.0
 40
3.0
 41
100.0
 71
5
 72
2
  1
Plate
  7
standard
 50
0.0
 73
1
 44
1.0
  0
ARC
  5
22F
100
AcDbEntity
  8
Spring Plate
 62
256
370
-1
  6
ByLayer
100
AcDbCircle
 10
268.90852955415113
 20
27.9629172134263371
 30
0.0
 40
0.5
100
AcDbArc
 50
90.0000000000016342
 51
180.0
  0
LINE
  5
230
100
AcDbEntity
100
AcDbLine
  8
Spring Plate
 62
256
370
-1
  6
ByLayer
 10
268.9085295541510732
 20
28.4629172134263371
 30
0.0
 11
275.9085295541510732
 21
28.4629172134264508
 31
0.0
  0
ARC
  5
231
100
AcDbEntity
  8
Spring Plate
 62
256
370
-1
  6
ByLayer
100
AcDbCircle
 10
275.90852955415113
 20
27.9629172134264508
 30
0.0
 40
0.5
100
AcDbArc
 50
0.0
 51
90.0000000000016342
  0
LINE
  5
232
100
AcDbEntity
100
AcDbLine
  8
Spring Plate
 62
256
370
-1
  6
ByLayer
 10
276.4085295541514711
 20
5.962917213426465
 30
0.0
 11
276.40852955415113
 21
27.962917213426465
 31
0.0
  0
ARC
  5
233
100
AcDbEntity
  8
Spring Plate
 62
256
370
-1
  6
ByLayer
100
AcDbCircle
 10
275.9085295541514711
 20
5.9629172134264508
 30
0.0
 40
0.5
100
AcDbArc
 50
270.0000000000016485
 51
0.0
  0
LINE
  5
234
100
AcDbEntity
100
AcDbLine
  8
Spring Plate
 62
256
370
-1
  6
ByLayer
 10
268.4085295541514711
 20
5.9629172134263229
 30
0.0
 11
268.40852955415113
 21
27.9629172134263229
 31
0.0
  0
LINE
  5
235
100
AcDbEntity
100
AcDbLine
  8
Spring Plate
 62
256
370
-1
  6
ByLayer
 10
268.9085295541514711
 20
5.4629172134263371
 30
0.0
 11
275.9085295541514711
 21
5.4629172134264508
 31
0.0
  0
ARC
  5
236
100
AcDbEntity
  8
Spring Plate
 62
256
370
-1
  6
ByLayer
100
AcDbCircle
 10
268.9085295541514711
 20
5.9629172134263371
 30
0.0
 40
0.5
100
AcDbArc
 50
180.0
 51
270.0000000000016485
  0
CIRCLE
  5
237
100
AcDbEntity
100
AcDbCircle
  8
Spring Plate
 62
256
370
-1
  6
ByLayer
 10
253.4085295541511869
 20
22.4629172134260813
 30
0.0
 40
1.4199999999999999
  0
CIRCLE
  5
238
100
AcDbEntity
100
AcDbCircle
  8
Spring Plate
 62
256
370
-1
  6
ByLayer
 10
253.4085295541513574
 20
11.4629172134260955
 30
0.0
 40
1.4199999999999999
  0
CIRCLE
  5
239
100
AcDbEntity
100
AcDbCircle
  8
0
 62
256
370
0
  6
ByLayer
 10
17.0
 20
7.0
 30
0.0
 40
1.5
  0
CIRCLE
  5
23A
100
AcDbEntity
100
AcDbCircle
  8
0
 62
256
370
0
  6
ByLayer
 10
17.0
 20
7.0
 30
0.0
 40
4.0
  0
CIRCLE
  5
23B
100
AcDbEntity
100
AcDbCircle
  8
0
 62
256
370
0
  6
ByLayer
 10
17.0
 20
17.0
 30
0.0
 40
1.5
  0
CIRCLE
  5
23C
100
AcDbEntity
100
AcDbCircle
  8
0
 62
256
370
0
  6
ByLayer
 10
17.0
 20
17.0
 30
0.0
 40
4.0
  0
CIRCLE
  5
23D
100
AcDbEntity
100
AcDbCircle
  8
0
 62
256
370
0
  6
ByLayer
 10
17.0
 20
27.0
 30
0.0
 40
1.5
  0
CIRCLE
  5
23E
100
AcDbEntity
100
AcDbCircle
  8
0
 62
256
370
0
  6
ByLayer
 10
17.0
 20
27.0
 30
0.0
 40
4.0
  0
CIRCLE
  5
23F
100
AcDbEntity
100
AcDbCircle
  8
0
 62
256
370
0
  6
ByLayer
 10
17.0
 20
37.0
 30
0.0
 40
1.5
  0
CIRCLE
  5
240
100
AcDbEntity
100
AcDbCircle
  8
0
 62
256
370
0
  6
ByLayer
 10
17.0
 20
37.0
 30
0.0
 40
4.0
  0
ENDSEC
  0
SECTION
  2
OBJECTS
  0
DICTIONARY
  5
C
100
AcDbDictionary
280
0
281
1
  3
ACAD_GROUP
350
D
  3
ACAD_LAYOUT
350
1A
  3
ACAD_MLINESTYLE
350
17
  3
ACAD_PLOTSETTINGS
350
19
  3
ACAD_PLOTSTYLENAME
350
E
  3
AcDbVariableDictionary
350
241
  0
DICTIONARY
  5
D
100
AcDbDictionary
280
0
281
1
  0
ACDBDICTIONARYWDFLT
  5
E
100
AcDbDictionary
281
1
  3
Normal
350
F
100
AcDbDictionaryWithDefault
340
F
  0
ACDBPLACEHOLDER
  5
F
  0
DICTIONARY
  5
17
100
AcDbDictionary
280
0
281
1
  3
Standard
350
18
  0
MLINESTYLE
  5
18
100
AcDbMlineStyle
  2
STANDARD
 70
0
  3

 62
256
 51
90.0
 52
90.0
 71
2
 49
0.5
 62
256
  6
BYLAYER
 49
-0.5
 62
256
  6
BYLAYER
  0
DICTIONARY
  5
19
100
AcDbDictionary
280
0
281
1
  0
DICTIONARY
  5
1A
100
AcDbDictionary
281
1
  3
Layout1
350
1E
  3
Layout2
350
26
  3
Model
350
22
  0
LAYOUT
  5
1E
100
AcDbPlotSettings
  1

  2
C:\Program Files\AutoCAD 2002\plotters\DWF ePlot (optimized for plotting).pc3
  4

  6

 40
0.0
 41
0.0
 42
0.0
 43
0.0
 44
0.0
 45
0.0
 46
0.0
 47
0.0
 48
0.0
 49
0.0
140
0.0
141
0.0
142
1.0
143
1.0
 70
688
 72
0
 73
0
 74
5
  7

 75
16
147
1.0
148
0.0
149
0.0
100
AcDbLayout
  1
Layout1
 70
1
 71
1
 10
0.0
 20
0.0
 11
420.0
 21
297.0
 12
0.0
 22
0.0
 32
0.0
 14
100000000000000000000.0
 24
100000000000000000000.0
 34
100000000000000000000.0
 15
-100000000000000000000.0
 25
-100000000000000000000.0
 35
-100000000000000000000.0
146
0.0
 13
0.0
 23
0.0
 33
0.0
 16
1.0
 26
0.0
 36
0.0
 17
0.0
 27
1.0
 37
0.0
 76
0
330
1B
  0
LAYOUT
  5
22
100
AcDbPlotSettings
  1

  2
C:\Program Files\AutoCAD 2002\plotters\DWF ePlot (optimized for plotting).pc3
  4

  6

 40
0.0
 41
0.0
 42
0.0
 43
0.0
 44
0.0
 45
0.0
 46
0.0
 47
0.0
 48
0.0
 49
0.0
140
0.0
141
0.0
142
1.0
143
1.0
 70
1712
 72
0
 73
0
 74
0
  7

 75
0
147
1.0
148
0.0
149
0.0
100
AcDbLayout
  1
Model
 70
1
 71
0
 10
0.0
 20
0.0
 11
12.0
 21
9.0
 12
0.0
 22
0.0
 32
0.0
 14
0.0
 24
0.0
 34
0.0
 15
0.0
 25
0.0
 35
0.0
146
0.0
 13
0.0
 23
0.0
 33
0.0
 16
1.0
 26
0.0
 36
0.0
 17
0.0
 27
1.0
 37
0.0
 76
0
330
1F
  0
LAYOUT
  5
26
100
AcDbPlotSettings
  1

  2
C:\Program Files\AutoCAD 2002\plotters\DWF ePlot (optimized for plotting).pc3
  4

  6

 40
0.0
 41
0.0
 42
0.0
 43
0.0
 44
0.0
 45
0.0
 46
0.0
 47
0.0
 48
0.0
 49
0.0
140
0.0
141
0.0
142
1.0
143
1.0
 70
688
 72
0
 73
0
 74
5
  7

 75
16
147
1.0
148
0.0
149
0.0
100
AcDbLayout
  1
Layout2
 70
1
 71
2
 10
0.0
 20
0.0
 11
12.0
 21
9.0
 12
0.0
 22
0.0
 32
0.0
 14
0.0
 24
0.0
 34
0.0
 15
0.0
 25
0.0
 35
0.0
146
0.0
 13
0.0
 23
0.0
 33
0.0
 16
1.0
 26
0.0
 36
0.0
 17
0.0
 27
1.0
 37
0.0
 76
0
330
23
  0
DICTIONARY
  5
241
100
AcDbDictionary
281
1
  3
DIMASSOC
350
243
  3
HIDETEXT
350
242
  0
DICTIONARYVAR
  5
242
100
DictionaryVariables
280
0
  1
2
  0
DICTIONARYVAR
  5
243
100
DictionaryVariables
280
0
  1
1
  0
ENDSEC
  0
EOF
