999
dxflib 2.2.0.0
  0
SECTION
  2
HEADER
  9
$ACADVER
  1
AC1015
  9
$HANDSEED
  5
FFFF
  9
$DIMASZ
 40
2.5
  9
$PLIMMIN
 10
0.0
 20
0.0
  9
$DIMEXE
 40
1.25
  9
$DIMGAP
 40
0.625
  9
$PLIMMAX
 10
210.0
 20
297.0
  9
$INSUNITS
 70
4
  9
$DIMSTYLE
  2
Standard
  9
$CLAYER
  8
0
  9
$DIMEXO
 40
0.625
  9
$DIMTXT
 40
2.5
  9
$CLAYER
  8
0
  0
ENDSEC
  0
SECTION
  2
TABLES
  0
TABLE
  2
VPORT
  5
8
100
AcDbSymbolTable
 70
1
  0
VPORT
  5
30
100
AcDbSymbolTableRecord
100
AcDbViewportTableRecord
  2
*Active
 70
0
 10
0.0
 20
0.0
 11
1.0
 21
1.0
 12
286.3055555555554861
 22
148.5
 13
0.0
 23
0.0
 14
10.0
 24
10.0
 15
10.0
 25
10.0
 16
0.0
 26
0.0
 36
1.0
 17
0.0
 27
0.0
 37
0.0
 40
297.0
 41
1.92798353909465
 42
50.0
 43
0.0
 44
0.0
 50
0.0
 51
0.0
 71
0
 72
100
 73
1
 74
3
 75
1
 76
1
 77
0
 78
0
281
0
 65
1
110
0.0
120
0.0
130
0.0
111
1.0
121
0.0
131
0.0
112
0.0
122
1.0
132
0.0
 79
0
146
0.0
  0
ENDTAB
  0
TABLE
  2
LTYPE
  5
5
100
AcDbSymbolTable
 70
21
  0
LTYPE
  5
14
100
AcDbSymbolTableRecord
100
AcDbLinetypeTableRecord
  2
ByBlock
 70
0
  3

 72
65
 73
0
 40
0.0
  0
LTYPE
  5
15
100
AcDbSymbolTableRecord
100
AcDbLinetypeTableRecord
  2
ByLayer
 70
0
  3

 72
65
 73
0
 40
0.0
  0
LTYPE
  5
16
100
AcDbSymbolTableRecord
100
AcDbLinetypeTableRecord
  2
CONTINUOUS
 70
0
  3
Solid line
 72
65
 73
0
 40
0.0
  0
LTYPE
  5
31
100
AcDbSymbolTableRecord
100
AcDbLinetypeTableRecord
  2
DOT
 70
0
  3
Dot . . . . . . . . . . . . . . . . . . . . . .
 72
65
 73
2
 40
6.3499999999999996
 49
0.0
 74
0
 49
-6.3499999999999996
 74
0
  0
LTYPE
  5
32
100
AcDbSymbolTableRecord
100
AcDbLinetypeTableRecord
  2
DOT2
 70
0
  3
Dot (.5x) .....................................
 72
65
 73
2
 40
3.1749999999999998
 49
0.0
 74
0
 49
-3.1749999999999998
 74
0
  0
LTYPE
  5
33
100
AcDbSymbolTableRecord
100
AcDbLinetypeTableRecord
  2
DOTX2
 70
0
  3
Dot (2x) .  .  .  .  .  .  .  .  .  .  .  .  .
 72
65
 73
2
 40
12.6999999999999993
 49
0.0
 74
0
 49
-12.6999999999999993
 74
0
  0
LTYPE
  5
34
100
AcDbSymbolTableRecord
100
AcDbLinetypeTableRecord
  2
DASHED
 70
0
  3
Dashed __ __ __ __ __ __ __ __ __ __ __ __ __ _
 72
65
 73
2
 40
19.0500000000000007
 49
12.6999999999999993
 74
0
 49
-6.3499999999999996
 74
0
  0
LTYPE
  5
35
100
AcDbSymbolTableRecord
100
AcDbLinetypeTableRecord
  2
DASHED2
 70
0
  3
Dashed (.5x) _ _ _ _ _ _ _ _ _ _ _ _ _ _ _ _ _
 72
65
 73
2
 40
9.5250000000000004
 49
6.3499999999999996
 74
0
 49
-3.1749999999999998
 74
0
  0
LTYPE
  5
36
100
AcDbSymbolTableRecord
100
AcDbLinetypeTableRecord
  2
DASHEDX2
 70
0
  3
Dashed (2x) ____  ____  ____  ____  ____  ___
 72
65
 73
2
 40
38.1000000000000014
 49
25.3999999999999986
 74
0
 49
-12.6999999999999993
 74
0
  0
LTYPE
  5
37
100
AcDbSymbolTableRecord
100
AcDbLinetypeTableRecord
  2
DASHDOT
 70
0
  3
Dash dot __ . __ . __ . __ . __ . __ . __ . __
 72
65
 73
4
 40
25.3999999999999986
 49
12.6999999999999993
 74
0
 49
-6.3499999999999996
 74
0
 49
0.0
 74
0
 49
-6.3499999999999996
 74
0
  0
LTYPE
  5
38
100
AcDbSymbolTableRecord
100
AcDbLinetypeTableRecord
  2
DASHDOT2
 70
0
  3
Dash dot (.5x) _._._._._._._._._._._._._._._.
 72
65
 73
4
 40
12.6999999999999993
 49
6.3499999999999996
 74
0
 49
-3.1749999999999998
 74
0
 49
0.0
 74
0
 49
-3.1749999999999998
 74
0
  0
LTYPE
  5
39
100
AcDbSymbolTableRecord
100
AcDbLinetypeTableRecord
  2
DASHDOTX2
 70
0
  3
Dash dot (2x) ____  .  ____  .  ____  .  ___
 72
65
 73
4
 40
50.7999999999999972
 49
25.3999999999999986
 74
0
 49
-12.6999999999999993
 74
0
 49
0.0
 74
0
 49
-12.6999999999999993
 74
0
  0
LTYPE
  5
3A
100
AcDbSymbolTableRecord
100
AcDbLinetypeTableRecord
  2
DIVIDE
 70
0
  3
Divide ____ . . ____ . . ____ . . ____ . . ____
 72
65
 73
6
 40
31.75
 49
12.6999999999999993
 74
0
 49
-6.3499999999999996
 74
0
 49
0.0
 74
0
 49
-6.3499999999999996
 74
0
 49
0.0
 74
0
 49
-6.3499999999999996
 74
0
  0
LTYPE
  5
3B
100
AcDbSymbolTableRecord
100
AcDbLinetypeTableRecord
  2
DIVIDE2
 70
0
  3
Divide (.5x) __..__..__..__..__..__..__..__.._
 72
65
 73
6
 40
15.875
 49
6.3499999999999996
 74
0
 49
-3.1749999999999998
 74
0
 49
0.0
 74
0
 49
-3.1749999999999998
 74
0
 49
0.0
 74
0
 49
-3.1749999999999998
 74
0
  0
LTYPE
  5
3C
100
AcDbSymbolTableRecord
100
AcDbLinetypeTableRecord
  2
DIVIDEX2
 70
0
  3
Divide (2x) ________  .  .  ________  .  .  _
 72
65
 73
6
 40
63.5
 49
25.3999999999999986
 74
0
 49
-12.6999999999999993
 74
0
 49
0.0
 74
0
 49
-12.6999999999999993
 74
0
 49
0.0
 74
0
 49
-12.6999999999999993
 74
0
  0
LTYPE
  5
3D
100
AcDbSymbolTableRecord
100
AcDbLinetypeTableRecord
  2
CENTER
 70
0
  3
Center ____ _ ____ _ ____ _ ____ _ ____ _ ____
 72
65
 73
4
 40
50.7999999999999972
 49
31.75
 74
0
 49
-6.3499999999999996
 74
0
 49
6.3499999999999996
 74
0
 49
-6.3499999999999996
 74
0
  0
LTYPE
  5
3E
100
AcDbSymbolTableRecord
100
AcDbLinetypeTableRecord
  2
CENTER2
 70
0
  3
Center (.5x) ___ _ ___ _ ___ _ ___ _ ___ _ ___
 72
65
 73
4
 40
28.5749999999999993
 49
19.0500000000000007
 74
0
 49
-3.1749999999999998
 74
0
 49
3.1749999999999998
 74
0
 49
-3.1749999999999998
 74
0
  0
LTYPE
  5
3F
100
AcDbSymbolTableRecord
100
AcDbLinetypeTableRecord
  2
CENTERX2
 70
0
  3
Center (2x) ________  __  ________  __  _____
 72
65
 73
4
 40
101.5999999999999943
 49
63.5
 74
0
 49
-12.6999999999999993
 74
0
 49
12.6999999999999993
 74
0
 49
-12.6999999999999993
 74
0
  0
LTYPE
  5
40
100
AcDbSymbolTableRecord
100
AcDbLinetypeTableRecord
  2
BORDER
 70
0
  3
Border __ __ . __ __ . __ __ . __ __ . __ __ .
 72
65
 73
6
 40
44.4500000000000028
 49
12.6999999999999993
 74
0
 49
-6.3499999999999996
 74
0
 49
12.6999999999999993
 74
0
 49
-6.3499999999999996
 74
0
 49
0.0
 74
0
 49
-6.3499999999999996
 74
0
  0
LTYPE
  5
41
100
AcDbSymbolTableRecord
100
AcDbLinetypeTableRecord
  2
BORDER2
 70
0
  3
Border (.5x) __.__.__.__.__.__.__.__.__.__.__.
 72
65
 73
6
 40
22.2250000000000014
 49
6.3499999999999996
 74
0
 49
-3.1749999999999998
 74
0
 49
6.3499999999999996
 74
0
 49
-3.1749999999999998
 74
0
 49
0.0
 74
0
 49
-3.1749999999999998
 74
0
  0
LTYPE
  5
42
100
AcDbSymbolTableRecord
100
AcDbLinetypeTableRecord
  2
BORDERX2
 70
0
  3
Border (2x) ____  ____  .  ____  ____  .  ___
 72
65
 73
6
 40
88.9000000000000057
 49
25.3999999999999986
 74
0
 49
-12.6999999999999993
 74
0
 49
25.3999999999999986
 74
0
 49
-12.6999999999999993
 74
0
 49
0.0
 74
0
 49
-12.6999999999999993
 74
0
  0
ENDTAB
  0
TABLE
  2
LAYER
  5
2
100
AcDbSymbolTable
 70
14
  0
LAYER
  5
10
100
AcDbSymbolTableRecord
100
AcDbLayerTableRecord
  2
0
 70
0
 62
7
420
16777215
  6
CONTINUOUS
370
0
390
F
  0
LAYER
  5
43
100
AcDbSymbolTableRecord
100
AcDbLayerTableRecord
  2
Middle Layer
 70
0
 62
7
420
16777215
  6
CONTINUOUS
370
0
390
F
  0
LAYER
  5
44
100
AcDbSymbolTableRecord
100
AcDbLayerTableRecord
  2
Top Layer
 70
0
 62
7
420
16777215
  6
CONTINUOUS
370
0
390
F
  0
LAYER
  5
45
100
AcDbSymbolTableRecord
100
AcDbLayerTableRecord
  2
Middle Text
 70
0
 62
4
420
65535
  6
CONTINUOUS
370
0
390
F
  0
LAYER
  5
46
100
AcDbSymbolTableRecord
100
AcDbLayerTableRecord
  2
Notes
 70
0
 62
7
420
16777215
  6
CONTINUOUS
370
0
390
F
  0
LAYER
  5
47
100
AcDbSymbolTableRecord
100
AcDbLayerTableRecord
  2
Bottom
 70
0
 62
7
420
16777215
  6
CONTINUOUS
370
0
390
F
  0
LAYER
  5
48
100
AcDbSymbolTableRecord
100
AcDbLayerTableRecord
  2
Bottom Text
 70
0
 62
4
420
65535
  6
CONTINUOUS
370
0
390
F
  0
LAYER
  5
49
100
AcDbSymbolTableRecord
100
AcDbLayerTableRecord
  2
Top Text
 70
0
 62
4
420
65535
  6
CONTINUOUS
370
0
390
F
  0
LAYER
  5
4A
100
AcDbSymbolTableRecord
100
AcDbLayerTableRecord
  2
Main Plate Bottom Layer
 70
0
 62
7
420
0
  6
CONTINUOUS
370
0
390
F
  0
LAYER
  5
4B
100
AcDbSymbolTableRecord
100
AcDbLayerTableRecord
  2
Main Plate Bottom Text
 70
0
 62
4
420
65535
  6
CONTINUOUS
370
0
390
F
  0
LAYER
  5
4C
100
AcDbSymbolTableRecord
100
AcDbLayerTableRecord
  2
Top Plate Bottom Layer
 70
0
 62
7
420
0
  6
CONTINUOUS
370
0
390
F
  0
LAYER
  5
4D
100
AcDbSymbolTableRecord
100
AcDbLayerTableRecord
  2
Top Plate Bottom Text
 70
0
 62
4
420
65535
  6
CONTINUOUS
370
0
390
F
  0
LAYER
  5
4E
100
AcDbSymbolTableRecord
100
AcDbLayerTableRecord
  2
Top Plate Middle Layer
 70
0
 62
7
420
0
  6
CONTINUOUS
370
0
390
F
  0
LAYER
  5
4F
100
AcDbSymbolTableRecord
100
AcDbLayerTableRecord
  2
Top Plate Middle Layer Text
 70
0
 62
4
420
65535
  6
CONTINUOUS
370
0
390
F
  0
ENDTAB
  0
TABLE
  2
STYLE
  5
3
100
AcDbSymbolTable
 70
1
  0
STYLE
  5
11
100
AcDbSymbolTableRecord
100
AcDbTextStyleTableRecord
  2
Standard
 70
0
 40
0.0
 41
0.75
 50
0.0
 71
0
 42
2.5
  3
txt
  4

  0
ENDTAB
  0
TABLE
  2
VIEW
  5
6
100
AcDbSymbolTable
 70
0
  0
ENDTAB
  0
TABLE
  2
UCS
  5
7
100
AcDbSymbolTable
 70
0
  0
ENDTAB
  0
TABLE
  2
APPID
  5
9
100
AcDbSymbolTable
 70
1
  0
APPID
  5
12
100
AcDbSymbolTableRecord
100
AcDbRegAppTableRecord
  2
ACAD
 70
0
  0
ENDTAB
  0
TABLE
  2
DIMSTYLE
  5
A
100
AcDbSymbolTable
 70
1
100
AcDbDimStyleTable
 71
0
  0
DIMSTYLE
105
27
100
AcDbSymbolTableRecord
100
AcDbDimStyleTableRecord
  2
Standard
 41
2.5
 42
0.625
 43
3.75
 44
1.25
 70
0
 73
0
 74
0
 77
1
 78
8
140
2.5
141
2.5
143
0.03937007874016
147
0.625
171
3
172
1
271
2
272
2
274
3
278
44
283
0
284
8
340
11
  0
ENDTAB
  0
TABLE
  2
BLOCK_RECORD
  5
1
100
AcDbSymbolTable
 70
1
  0
BLOCK_RECORD
  5
1F
100
AcDbSymbolTableRecord
100
AcDbBlockTableRecord
  2
*Model_Space
340
22
  0
BLOCK_RECORD
  5
1B
100
AcDbSymbolTableRecord
100
AcDbBlockTableRecord
  2
*Paper_Space
340
1E
  0
BLOCK_RECORD
  5
23
100
AcDbSymbolTableRecord
100
AcDbBlockTableRecord
  2
*Paper_Space0
340
26
  0
ENDTAB
  0
ENDSEC
  0
SECTION
  2
BLOCKS
  0
BLOCK
  5
20
100
AcDbEntity
  8
0
100
AcDbBlockBegin
  2
*Model_Space
 70
0
 10
0.0
 20
0.0
 30
0.0
  3
*Model_Space
  1

  0
ENDBLK
  5
21
100
AcDbEntity
  8
0
100
AcDbBlockEnd
  0
BLOCK
  5
1C
100
AcDbEntity
 67
1
  8
0
100
AcDbBlockBegin
  2
*Paper_Space
 70
0
 10
0.0
 20
0.0
 30
0.0
  3
*Paper_Space
  1

  0
ENDBLK
  5
1D
100
AcDbEntity
 67
1
  8
0
100
AcDbBlockEnd
  0
BLOCK
  5
24
100
AcDbEntity
  8
0
100
AcDbBlockBegin
  2
*Paper_Space0
 70
0
 10
0.0
 20
0.0
 30
0.0
  3
*Paper_Space0
  1

  0
ENDBLK
  5
25
100
AcDbEntity
  8
0
100
AcDbBlockEnd
  0
ENDSEC
  0
SECTION
  2
ENTITIES
  0
CIRCLE
  5
50
100
AcDbEntity
100
AcDbCircle
  8
Middle Layer
 62
256
370
-1
  6
ByLayer
 10
15.9117904306132338
 20
8.2895337296601426
 30
0.0
 40
2.4249999999999998
  0
CIRCLE
  5
51
100
AcDbEntity
100
AcDbCircle
  8
Middle Layer
 62
256
370
-1
  6
ByLayer
 10
22.8112826842040306
 20
43.6221957669683533
 30
0.0
 40
2.4249999999999998
  0
LINE
  5
52
100
AcDbEntity
100
AcDbLine
  8
Middle Layer
 62
256
370
-1
  6
ByLayer
 10
20.6393896574161744
 20
3.9386222675946385
 30
0.0
 11
31.0241743387045403
 21
15.2224878341138936
 31
0.0
  0
ARC
  5
53
100
AcDbEntity
  8
Middle Layer
 62
256
370
-1
  6
ByLayer
100
AcDbCircle
 10
19.3615365574085985
 20
25.9558647483141627
 30
0.0
 40
15.8499999999999996
100
AcDbArc
 50
317.3759674952219143
 51
20.5255493212028064
  0
LINE
  5
54
100
AcDbEntity
100
AcDbLine
  8
Middle Layer
 62
256
370
-1
  6
ByLayer
 10
34.2053140753341722
 20
31.5132714275424135
 30
0.0
 11
28.8283975455712351
 21
45.8749615659614918
 31
0.0
  0
ARC
  5
55
100
AcDbEntity
  8
Middle Layer
 62
256
370
-1
  6
ByLayer
100
AcDbCircle
 10
22.8112826842040306
 20
43.6221957669683533
 30
0.0
 40
6.424999999999998
100
AcDbArc
 50
20.5255493212025897
 51
137.3759674952218575
  0
LINE
  5
56
100
AcDbEntity
100
AcDbLine
  8
Middle Layer
 62
256
370
-1
  6
ByLayer
 10
18.0836834574011505
 20
47.9731072290337508
 30
0.0
 11
7.698898776112669
 21
36.6892416625145188
 31
0.0
  0
ARC
  5
57
100
AcDbEntity
  8
Middle Layer
 62
256
370
-1
  6
ByLayer
100
AcDbCircle
 10
19.3615365574085985
 20
25.9558647483141627
 30
0.0
 40
15.8499999999999996
100
AcDbArc
 50
137.3759674952218575
 51
200.5255493212027318
  0
LINE
  5
58
100
AcDbEntity
100
AcDbLine
  8
Middle Layer
 62
256
370
-1
  6
ByLayer
 10
4.5177590394831491
 20
20.3984580690860042
 30
0.0
 11
9.8946755692459583
 21
6.0367679306669757
 31
0.0
  0
ARC
  5
59
100
AcDbEntity
  8
Middle Layer
 62
256
370
-1
  6
ByLayer
100
AcDbCircle
 10
15.9117904306132338
 20
8.2895337296601426
 30
0.0
 40
6.4249999999999998
100
AcDbArc
 50
200.5255493212027886
 51
317.3759674952219143
  0
CIRCLE
  5
5A
100
AcDbEntity
100
AcDbCircle
  8
Middle Layer
 62
256
370
-1
  6
ByLayer
 10
19.3615365574085985
 20
25.9558647483141627
 30
0.0
 40
11.0500000000000007
  0
MTEXT
  5
5B
100
AcDbEntity
100
AcDbMText
  8
Middle Text
 62
256
370
-1
  6
ByLayer
 10
21.9961376423517123
 20
40.3559564682719483
 30
0.0
 40
2.0
 41
100.0
 71
3
 72
2
  1
Middle
  7
standard
 50
337.9015168164245893
 73
0
 44
1.0
  0
ELLIPSE
  5
5C
100
AcDbEntity
100
AcDbEllipse
  8
Middle Layer
 62
256
370
-1
  6
ByLayer
 10
27.1857065294522613
 20
45.7238245208649232
 30
0.0
 11
2.7143808825784235
 21
4.9128980974757255
 31
0.0
 40
0.5285119960717111
 41
0.0
 42
6.2831853071795862
  0
LINE
  5
5D
100
AcDbEntity
100
AcDbLine
  8
Top Plate Middle Layer
 62
256
370
-1
  6
ByLayer
 10
32.939912724571883
 20
45.3114808005717506
 30
0.0
 11
38.1848713559381991
 21
30.9010753949195873
 31
0.0
  0
LINE
  5
5E
100
AcDbEntity
100
AcDbLine
  8
Top Plate Middle Layer
 62
256
370
-1
  6
ByLayer
 10
30.095298523130694
 20
53.1269940860913579
 30
0.0
 11
43.3919491072511931
 21
57.9665791141497877
 31
0.0
  0
LINE
  5
5F
100
AcDbEntity
100
AcDbLine
  8
Top Plate Middle Layer
 62
256
370
-1
  6
ByLayer
 10
37.0077357089914258
 20
34.1352290045411451
 30
0.0
 11
30.095298523130694
 21
53.1269940860913579
 31
0.0
  0
LINE
  5
60
100
AcDbEntity
100
AcDbLine
  8
Top Plate Middle Layer
 62
256
370
-1
  6
ByLayer
 10
42.4353998382598689
 20
1.4211108667107197
 30
0.0
 11
42.4353998382598832
 21
3.3534161052310765
 31
0.0
  0
LINE
  5
61
100
AcDbEntity
100
AcDbLine
  8
Top Plate Middle Layer
 62
256
370
-1
  6
ByLayer
 10
65.8353998382597183
 20
1.4211108667106984
 30
0.0
 11
42.4353998382598689
 21
1.4211108667107197
 31
0.0
  0
LINE
  5
62
100
AcDbEntity
100
AcDbLine
  8
Top Plate Middle Layer
 62
256
370
-1
  6
ByLayer
 10
92.4353998382595989
 20
1.4211108667107055
 30
0.0
 11
69.0353998382596927
 21
1.4211108667106984
 31
0.0
  0
LINE
  5
63
100
AcDbEntity
100
AcDbLine
  8
Top Plate Middle Layer
 62
256
370
-1
  6
ByLayer
 10
92.4353998382594568
 20
12.1697651406546328
 30
0.0
 11
92.4353998382595989
 21
1.4211108667107055
 31
0.0
  0
LINE
  5
64
100
AcDbEntity
100
AcDbLine
  8
Top Plate Middle Layer
 62
256
370
-1
  6
ByLayer
 10
77.0799295624257041
 20
70.2280012523751225
 30
0.0
 11
87.007735708991035
 21
42.9515780399646943
 31
0.0
  0
LINE
  5
65
100
AcDbEntity
100
AcDbLine
  8
Top Plate Middle Layer
 62
256
370
-1
  6
ByLayer
 10
69.0353998382592522
 20
67.3000318841087619
 30
0.0
 11
77.0799295624257041
 21
70.2280012523751225
 31
0.0
  0
ARC
  5
66
100
AcDbEntity
  8
Top Plate Middle Layer
 62
256
370
-1
  6
ByLayer
100
AcDbCircle
 10
-47.5646001617394063
 20
3.3534161052298401
 30
0.0
 40
89.9999999999994458
100
AcDbArc
 50
360.0
 51
20.0000000000005862
  0
ARC
  5
67
100
AcDbEntity
  8
Top Plate Middle Layer
 62
256
370
-1
  6
ByLayer
100
AcDbCircle
 10
2.4353998382607642
 20
12.1697651406538583
 30
0.0
 40
89.9999999999989058
100
AcDbArc
 50
360.0
 51
20.0000000000006892
  0
LINE
  5
68
100
AcDbEntity
100
AcDbLine
  8
Top Plate Middle Layer
 62
256
370
-1
  6
ByLayer
 10
30.095298523130694
 20
53.1269940860913579
 30
0.0
 11
45.9761038144124683
 21
58.9071345082954281
 31
0.0
  0
LINE
  5
69
100
AcDbEntity
100
AcDbLine
  8
Top Plate Middle Layer
 62
256
370
-1
  6
ByLayer
 10
45.9761038144124683
 20
58.9071345082954281
 30
0.0
 11
50.4223656776460842
 21
46.6911304380785523
 31
0.0
  0
LINE
  5
6A
100
AcDbEntity
100
AcDbLine
  8
Top Plate Middle Layer
 62
256
370
-1
  6
ByLayer
 10
50.4223656776460842
 20
46.6911304380785523
 30
0.0
 11
65.8353998382593062
 21
52.3010160922701175
 31
0.0
  0
LINE
  5
6B
100
AcDbEntity
100
AcDbLine
  8
Top Plate Middle Layer
 62
256
370
-1
  6
ByLayer
 10
65.8353998382594341
 20
32.6310188867033872
 30
0.0
 11
65.8353998382593062
 21
52.3010160922701175
 31
0.0
  0
LINE
  5
6C
100
AcDbEntity
100
AcDbLine
  8
Top Plate Middle Layer
 62
256
370
-1
  6
ByLayer
 10
65.8353998382597183
 20
1.4211108667106984
 30
0.0
 11
65.8353998382596473
 21
14.6310188867033801
 31
0.0
  0
MTEXT
  5
6D
100
AcDbEntity
100
AcDbMText
  8
Top Plate Middle Layer Text
 62
256
370
-1
  6
ByLayer
 10
41.095298523130694
 20
39.126994086091365
 30
0.0
 40
2.0
 41
100.0
 71
1
 72
2
  1
Top\~Plate\PMiddle
  7
standard
 50
0.0
 73
1
 44
1.0
  0
MTEXT
  5
6E
100
AcDbEntity
100
AcDbMText
  8
Top Plate Middle Layer Text
 62
256
370
-1
  6
ByLayer
 10
72.095298523130694
 20
39.126994086091365
 30
0.0
 40
2.0
 41
100.0
 71
1
 72
2
  1
Top\~Plate\PMiddle
  7
standard
 50
0.0
 73
1
 44
1.0
  0
LINE
  5
6F
100
AcDbEntity
100
AcDbLine
  8
Top Plate Middle Layer
 62
256
370
-1
  6
ByLayer
 10
47.6353998382596799
 20
13.4211108667103218
 30
0.0
 11
55.2353998382596529
 21
13.4211108667103076
 31
0.0
  0
LINE
  5
70
100
AcDbEntity
100
AcDbLine
  8
Top Plate Middle Layer
 62
256
370
-1
  6
ByLayer
 10
55.2353998382596529
 20
13.4211108667103076
 30
0.0
 11
55.235399838259795
 21
9.4211108667103645
 31
0.0
  0
LINE
  5
71
100
AcDbEntity
100
AcDbLine
  8
Top Plate Middle Layer
 62
256
370
-1
  6
ByLayer
 10
55.235399838259795
 20
9.4211108667103645
 30
0.0
 11
47.6353998382598007
 21
9.4211108667103076
 31
0.0
  0
LINE
  5
72
100
AcDbEntity
100
AcDbLine
  8
Top Plate Middle Layer
 62
256
370
-1
  6
ByLayer
 10
47.6353998382598007
 20
9.4211108667103076
 30
0.0
 11
47.6353998382596799
 21
13.4211108667103218
 31
0.0
  0
LINE
  5
73
100
AcDbEntity
100
AcDbLine
  8
Top Plate Middle Layer
 62
256
370
-1
  6
ByLayer
 10
79.6353998382594881
 20
13.4211108667106345
 30
0.0
 11
87.2353998382594966
 21
13.4211108667106345
 31
0.0
  0
LINE
  5
74
100
AcDbEntity
100
AcDbLine
  8
Top Plate Middle Layer
 62
256
370
-1
  6
ByLayer
 10
87.2353998382594966
 20
13.4211108667106345
 30
0.0
 11
87.2353998382595393
 21
9.4211108667106984
 31
0.0
  0
LINE
  5
75
100
AcDbEntity
100
AcDbLine
  8
Top Plate Middle Layer
 62
256
370
-1
  6
ByLayer
 10
79.6353998382595734
 20
9.4211108667106345
 30
0.0
 11
79.6353998382594881
 21
13.4211108667106345
 31
0.0
  0
LINE
  5
76
100
AcDbEntity
100
AcDbLine
  8
Top Plate Middle Layer
 62
256
370
-1
  6
ByLayer
 10
87.2353998382595393
 20
9.4211108667106984
 30
0.0
 11
79.6353998382595734
 21
9.4211108667106345
 31
0.0
  0
LINE
  5
77
100
AcDbEntity
100
AcDbLine
  8
Top Plate Middle Layer
 62
256
370
-1
  6
ByLayer
 10
76.1250340358648856
 20
63.4953810690176041
 30
0.0
 11
77.4931146091676055
 21
59.7366105858740397
 31
0.0
  0
LINE
  5
78
100
AcDbEntity
100
AcDbLine
  8
Top Plate Middle Layer
 62
256
370
-1
  6
ByLayer
 10
77.4931146091676055
 20
59.7366105858740397
 30
0.0
 11
70.3514506911946995
 21
57.1372574965988278
 31
0.0
  0
LINE
  5
79
100
AcDbEntity
100
AcDbLine
  8
Top Plate Middle Layer
 62
256
370
-1
  6
ByLayer
 10
68.983370117892008
 20
60.8960279797425628
 30
0.0
 11
76.1250340358648856
 21
63.4953810690176041
 31
0.0
  0
LINE
  5
7A
100
AcDbEntity
100
AcDbLine
  8
Top Plate Middle Layer
 62
256
370
-1
  6
ByLayer
 10
70.3514506911946995
 20
57.1372574965988278
 30
0.0
 11
68.983370117892008
 21
60.8960279797425628
 31
0.0
  0
LINE
  5
7B
100
AcDbEntity
100
AcDbLine
  8
Top Plate Middle Layer
 62
256
370
-1
  6
ByLayer
 10
35.1544357695995018
 20
48.5833028200180976
 30
0.0
 11
42.2960996875723225
 21
51.1826559092932314
 31
0.0
  0
LINE
  5
7C
100
AcDbEntity
100
AcDbLine
  8
Top Plate Middle Layer
 62
256
370
-1
  6
ByLayer
 10
36.5225163429023993
 20
44.8245323368744621
 30
0.0
 11
35.1544357695995018
 21
48.5833028200180976
 31
0.0
  0
LINE
  5
7D
100
AcDbEntity
100
AcDbLine
  8
Top Plate Middle Layer
 62
256
370
-1
  6
ByLayer
 10
42.2960996875723225
 20
51.1826559092932314
 30
0.0
 11
43.6641802608752982
 21
47.4238854261497238
 31
0.0
  0
LINE
  5
7E
100
AcDbEntity
100
AcDbLine
  8
Top Plate Middle Layer
 62
256
370
-1
  6
ByLayer
 10
43.6641802608752982
 20
47.4238854261497238
 30
0.0
 11
36.5225163429023993
 21
44.8245323368744621
 31
0.0
  0
LINE
  5
7F
100
AcDbEntity
100
AcDbLine
  8
Top Plate Middle Layer
 62
256
370
-1
  6
ByLayer
 10
62.0353998382594796
 20
14.6310188867033304
 30
0.0
 11
62.0353998382594796
 21
32.6310188867033304
 31
0.0
  0
LINE
  5
80
100
AcDbEntity
100
AcDbLine
  8
Top Plate Middle Layer
 62
256
370
-1
  6
ByLayer
 10
62.0353998382594796
 20
32.6310188867033304
 30
0.0
 11
65.8353998382594341
 21
32.6310188867033872
 31
0.0
  0
LINE
  5
81
100
AcDbEntity
100
AcDbLine
  8
Top Plate Middle Layer
 62
256
370
-1
  6
ByLayer
 10
62.0353998382594796
 20
14.6310188867033304
 30
0.0
 11
65.8353998382596473
 21
14.6310188867033801
 31
0.0
  0
LINE
  5
82
100
AcDbEntity
100
AcDbLine
  8
Top Plate Middle Layer
 62
256
370
-1
  6
ByLayer
 10
69.0353998382592522
 20
67.3000318841087619
 30
0.0
 11
69.0353998382596927
 21
1.4211108667106984
 31
0.0
  0
CIRCLE
  5
83
100
AcDbEntity
100
AcDbCircle
  8
Top Plate Middle Layer
 62
256
370
-1
  6
ByLayer
 10
80.0952985231306798
 20
23.1269940860913579
 30
0.0
 40
1.45
  0
CIRCLE
  5
84
100
AcDbEntity
100
AcDbCircle
  8
Top Plate Middle Layer
 62
256
370
-1
  6
ByLayer
 10
53.8173220971292778
 20
23.6310188867031989
 30
0.0
 40
1.45
  0
CIRCLE
  5
85
100
AcDbEntity
100
AcDbCircle
  8
Top Plate Middle Layer
 62
256
370
-1
  6
ByLayer
 10
46.0353998382597069
 20
18.1310188867030675
 30
0.0
 40
1.45
  0
CIRCLE
  5
86
100
AcDbEntity
100
AcDbCircle
  8
Top Plate Middle Layer
 62
256
370
-1
  6
ByLayer
 10
46.0353998382595364
 20
29.1310188867030746
 30
0.0
 40
1.45
  0
CIRCLE
  5
87
100
AcDbEntity
100
AcDbCircle
  8
Top Plate Middle Layer
 62
256
370
-1
  6
ByLayer
 10
85.9353998382596131
 20
18.1310188867037141
 30
0.0
 40
1.45
  0
CIRCLE
  5
88
100
AcDbEntity
100
AcDbCircle
  8
Top Plate Middle Layer
 62
256
370
-1
  6
ByLayer
 10
85.9353998382594284
 20
29.131018886703707
 30
0.0
 40
1.45
  0
CIRCLE
  5
89
100
AcDbEntity
100
AcDbCircle
  8
Top Plate Middle Layer
 62
256
370
-1
  6
ByLayer
 10
77.0952985231305519
 20
47.1269940860921892
 30
0.0
 40
1.45
  0
CIRCLE
  5
8A
100
AcDbEntity
100
AcDbCircle
  8
Top Plate Middle Layer
 62
256
370
-1
  6
ByLayer
 10
75.0952985231306798
 20
6.1269940860913721
 30
0.0
 40
1.45
  0
CIRCLE
  5
8B
100
AcDbEntity
100
AcDbCircle
  8
Top Plate Middle Layer
 62
256
370
-1
  6
ByLayer
 10
60.0952985231309214
 20
6.1269940860917629
 30
0.0
 40
1.45
  0
CIRCLE
  5
8C
100
AcDbEntity
100
AcDbCircle
  8
Top Plate Middle Layer
 62
256
370
-1
  6
ByLayer
 10
48.0952985231307082
 20
40.6769940860914261
 30
0.0
 40
1.45
  0
LINE
  5
8D
100
AcDbEntity
100
AcDbLine
  8
Top Plate Bottom Layer
 62
256
370
-1
  6
ByLayer
 10
86.9733512313748491
 20
45.2304613216337614
 30
0.0
 11
92.2183098627411653
 21
30.8200559159815946
 31
0.0
  0
LINE
  5
8E
100
AcDbEntity
100
AcDbLine
  8
Top Plate Bottom Layer
 62
256
370
-1
  6
ByLayer
 10
91.0411742157943706
 20
34.0542095256031558
 30
0.0
 11
84.1287370299336459
 21
53.0459746071533687
 31
0.0
  0
LINE
  5
8F
100
AcDbEntity
100
AcDbLine
  8
Top Plate Bottom Layer
 62
256
370
-1
  6
ByLayer
 10
96.4688383450628208
 20
1.3400913877727305
 30
0.0
 11
96.4688383450628351
 21
3.2723966262930873
 31
0.0
  0
LINE
  5
90
100
AcDbEntity
100
AcDbLine
  8
Top Plate Bottom Layer
 62
256
370
-1
  6
ByLayer
 10
119.8688383450626702
 20
1.3400913877727092
 30
0.0
 11
96.4688383450628208
 21
1.3400913877727305
 31
0.0
  0
LINE
  5
91
100
AcDbEntity
100
AcDbLine
  8
Top Plate Bottom Layer
 62
256
370
-1
  6
ByLayer
 10
146.4688383450625508
 20
1.3400913877727163
 30
0.0
 11
123.0688383450626446
 21
1.3400913877727092
 31
0.0
  0
LINE
  5
92
100
AcDbEntity
100
AcDbLine
  8
Top Plate Bottom Layer
 62
256
370
-1
  6
ByLayer
 10
146.4688383450624087
 20
12.0887456617166436
 30
0.0
 11
146.4688383450625508
 21
1.3400913877727163
 31
0.0
  0
LINE
  5
93
100
AcDbEntity
100
AcDbLine
  8
Top Plate Bottom Layer
 62
256
370
-1
  6
ByLayer
 10
131.1133680692286703
 20
70.1469817734371333
 30
0.0
 11
141.0411742157940012
 21
42.8705585610267264
 31
0.0
  0
ARC
  5
94
100
AcDbEntity
  8
Top Plate Bottom Layer
 62
256
370
-1
  6
ByLayer
100
AcDbCircle
 10
6.4688383450635456
 20
3.2723966262918509
 30
0.0
 40
89.9999999999994458
100
AcDbArc
 50
360.0
 51
20.0000000000005862
  0
ARC
  5
95
100
AcDbEntity
  8
Top Plate Bottom Layer
 62
256
370
-1
  6
ByLayer
100
AcDbCircle
 10
56.4688383450637161
 20
12.0887456617158691
 30
0.0
 40
89.9999999999989058
100
AcDbArc
 50
360.0
 51
20.0000000000006892
  0
LINE
  5
96
100
AcDbEntity
100
AcDbLine
  8
Top Plate Bottom Layer
 62
256
370
-1
  6
ByLayer
 10
100.0095423212154202
 20
58.8261150293574389
 30
0.0
 11
104.4558041844490361
 21
46.6101109591405631
 31
0.0
  0
LINE
  5
97
100
AcDbEntity
100
AcDbLine
  8
Top Plate Bottom Layer
 62
256
370
-1
  6
ByLayer
 10
104.4558041844490361
 20
46.6101109591405631
 30
0.0
 11
109.4831597056536339
 21
48.4399187259329125
 31
0.0
  0
LINE
  5
98
100
AcDbEntity
100
AcDbLine
  8
Top Plate Bottom Layer
 62
256
370
-1
  6
ByLayer
 10
84.1287370299336459
 20
53.0459746071533687
 30
0.0
 11
87.8875075130766703
 21
54.4140551804558896
 31
0.0
  0
LINE
  5
99
100
AcDbEntity
100
AcDbLine
  8
Top Plate Bottom Layer
 62
256
370
-1
  6
ByLayer
 10
87.8875075130766703
 20
54.4140551804558896
 30
0.0
 11
89.9396283730311268
 21
48.7758994557406282
 31
0.0
  0
LINE
  5
9A
100
AcDbEntity
100
AcDbLine
  8
Top Plate Bottom Layer
 62
256
370
-1
  6
ByLayer
 10
93.5256632377920312
 20
56.466176040410204
 30
0.0
 11
100.0095423212154202
 21
58.8261150293574389
 31
0.0
  0
LINE
  5
9B
100
AcDbEntity
100
AcDbLine
  8
Top Plate Bottom Layer
 62
256
370
-1
  6
ByLayer
 10
93.5256632377920312
 20
56.466176040410204
 30
0.0
 11
95.5777840977465587
 21
50.8280203156946939
 31
0.0
  0
LINE
  5
9C
100
AcDbEntity
100
AcDbLine
  8
Top Plate Bottom Layer
 62
256
370
-1
  6
ByLayer
 10
127.3545975860850774
 20
68.778901200134456
 30
0.0
 11
131.1133680692286703
 21
70.1469817734371333
 31
0.0
  0
LINE
  5
9D
100
AcDbEntity
100
AcDbLine
  8
Top Plate Bottom Layer
 62
256
370
-1
  6
ByLayer
 10
127.3545975860850774
 20
68.778901200134456
 30
0.0
 11
129.4067184460391502
 21
63.1407454754191022
 31
0.0
  0
LINE
  5
9E
100
AcDbEntity
100
AcDbLine
  8
Top Plate Bottom Layer
 62
256
370
-1
  6
ByLayer
 10
119.8688383450626702
 20
1.3400913877727092
 30
0.0
 11
119.8688383450625849
 21
15.5499994077653909
 31
0.0
  0
LINE
  5
9F
100
AcDbEntity
100
AcDbLine
  8
Top Plate Bottom Layer
 62
256
370
-1
  6
ByLayer
 10
131.5265531159705574
 20
59.6555911069360505
 30
0.0
 11
123.0688383450622752
 21
56.5772346804116992
 31
0.0
  0
LINE
  5
A0
100
AcDbEntity
100
AcDbLine
  8
Top Plate Bottom Layer
 62
256
370
-1
  6
ByLayer
 10
130.1584725426678233
 20
63.4143615900796149
 30
0.0
 11
131.5265531159705574
 21
59.6555911069360505
 31
0.0
  0
LINE
  5
A1
100
AcDbEntity
100
AcDbLine
  8
Top Plate Bottom Layer
 62
256
370
-1
  6
ByLayer
 10
129.4067184460391502
 20
63.1407454754191022
 30
0.0
 11
130.1584725426678233
 21
63.4143615900796149
 31
0.0
  0
LINE
  5
A2
100
AcDbEntity
100
AcDbLine
  8
Top Plate Bottom Layer
 62
256
370
-1
  6
ByLayer
 10
89.1878742764024537
 20
48.5022833410801084
 30
0.0
 11
89.9396283730311268
 21
48.7758994557406282
 31
0.0
  0
LINE
  5
A3
100
AcDbEntity
100
AcDbLine
  8
Top Plate Bottom Layer
 62
256
370
-1
  6
ByLayer
 10
90.5559548497053584
 20
44.7435128579364729
 30
0.0
 11
89.1878742764024537
 21
48.5022833410801084
 31
0.0
  0
LINE
  5
A4
100
AcDbEntity
100
AcDbLine
  8
Top Plate Bottom Layer
 62
256
370
-1
  6
ByLayer
 10
97.6976187676782502
 20
47.3428659472117346
 30
0.0
 11
90.5559548497053584
 21
44.7435128579364729
 31
0.0
  0
LINE
  5
A5
100
AcDbEntity
100
AcDbLine
  8
Top Plate Bottom Layer
 62
256
370
-1
  6
ByLayer
 10
95.5777840977465587
 20
50.8280203156946939
 30
0.0
 11
96.3295381943752744
 21
51.1016364303552422
 31
0.0
  0
LINE
  5
A6
100
AcDbEntity
100
AcDbLine
  8
Top Plate Bottom Layer
 62
256
370
-1
  6
ByLayer
 10
96.3295381943752744
 20
51.1016364303552422
 30
0.0
 11
97.6976187676782502
 21
47.3428659472117346
 31
0.0
  0
LINE
  5
A7
100
AcDbEntity
100
AcDbLine
  8
Top Plate Bottom Layer
 62
256
370
-1
  6
ByLayer
 10
101.6688383450627526
 20
9.3400913877723113
 30
0.0
 11
101.6688383450626247
 21
13.3400913877723326
 31
0.0
  0
LINE
  5
A8
100
AcDbEntity
100
AcDbLine
  8
Top Plate Bottom Layer
 62
256
370
-1
  6
ByLayer
 10
109.2688383450627612
 20
9.3400913877724463
 30
0.0
 11
101.6688383450627526
 21
9.3400913877723113
 31
0.0
  0
LINE
  5
A9
100
AcDbEntity
100
AcDbLine
  8
Top Plate Bottom Layer
 62
256
370
-1
  6
ByLayer
 10
109.2688383450626048
 20
13.3400913877723113
 30
0.0
 11
109.2688383450627612
 21
9.3400913877724463
 31
0.0
  0
LINE
  5
AA
100
AcDbEntity
100
AcDbLine
  8
Top Plate Bottom Layer
 62
256
370
-1
  6
ByLayer
 10
101.6688383450626247
 20
13.3400913877723326
 30
0.0
 11
109.2688383450626048
 21
13.3400913877723113
 31
0.0
  0
LINE
  5
AB
100
AcDbEntity
100
AcDbLine
  8
Top Plate Bottom Layer
 62
256
370
-1
  6
ByLayer
 10
133.6688383450625395
 20
9.3400913877726452
 30
0.0
 11
133.6688383450624258
 21
13.3400913877726452
 31
0.0
  0
LINE
  5
AC
100
AcDbEntity
100
AcDbLine
  8
Top Plate Bottom Layer
 62
256
370
-1
  6
ByLayer
 10
141.2688383450624769
 20
9.3400913877727092
 30
0.0
 11
133.6688383450625395
 21
9.3400913877726452
 31
0.0
  0
LINE
  5
AD
100
AcDbEntity
100
AcDbLine
  8
Top Plate Bottom Layer
 62
256
370
-1
  6
ByLayer
 10
141.2688383450624485
 20
13.3400913877726452
 30
0.0
 11
141.2688383450624769
 21
9.3400913877727092
 31
0.0
  0
LINE
  5
AE
100
AcDbEntity
100
AcDbLine
  8
Top Plate Bottom Layer
 62
256
370
-1
  6
ByLayer
 10
133.6688383450624258
 20
13.3400913877726452
 30
0.0
 11
141.2688383450624485
 21
13.3400913877726452
 31
0.0
  0
LINE
  5
AF
100
AcDbEntity
100
AcDbLine
  8
Top Plate Bottom Layer
 62
256
370
-1
  6
ByLayer
 10
116.0688383450624315
 20
15.5499994077653412
 30
0.0
 11
119.8688383450625849
 21
15.5499994077653909
 31
0.0
  0
LINE
  5
B0
100
AcDbEntity
100
AcDbLine
  8
Top Plate Bottom Layer
 62
256
370
-1
  6
ByLayer
 10
123.0688383450624457
 20
31.5499994077654478
 30
0.0
 11
123.0688383450624741
 21
27.1944976370864353
 31
0.0
  0
LINE
  5
B1
100
AcDbEntity
100
AcDbLine
  8
Top Plate Bottom Layer
 62
256
370
-1
  6
ByLayer
 10
116.0688383450624315
 20
30.3459153723722004
 30
0.0
 11
116.0688383450624315
 21
15.5499994077653412
 31
0.0
  0
LINE
  5
B2
100
AcDbEntity
100
AcDbLine
  8
Top Plate Bottom Layer
 62
256
370
-1
  6
ByLayer
 10
116.0688383450624315
 20
30.3459153723722004
 30
0.0
 11
109.4831597056536339
 21
48.4399187259329125
 31
0.0
  0
MTEXT
  5
B3
100
AcDbEntity
100
AcDbMText
  8
Top Plate Bottom Text
 62
256
370
-1
  6
ByLayer
 10
95.1287370299336459
 20
39.0459746071533758
 30
0.0
 40
2.0
 41
100.0
 71
1
 72
2
  1
Top\~Plate\PBottom
  7
standard
 50
0.0
 73
0
 44
1.0
  0
MTEXT
  5
B4
100
AcDbEntity
100
AcDbMText
  8
Top Plate Bottom Text
 62
256
370
-1
  6
ByLayer
 10
126.1287370299336459
 20
39.0459746071533758
 30
0.0
 40
2.0
 41
100.0
 71
1
 72
2
  1
Top\~Plate\PBottom
  7
standard
 50
0.0
 73
0
 44
1.0
  0
LINE
  5
B5
100
AcDbEntity
100
AcDbLine
  8
Top Plate Bottom Layer
 62
256
370
-1
  6
ByLayer
 10
123.0688383450622752
 20
56.5772346804116992
 30
0.0
 11
123.0688383450624883
 21
24.2706932369232433
 31
0.0
  0
LINE
  5
B6
100
AcDbEntity
100
AcDbLine
  8
Top Plate Bottom Layer
 62
256
370
-1
  6
ByLayer
 10
123.0688383450624883
 20
24.2706932369232433
 30
0.0
 11
128.0766225188679357
 21
10.5119192978902092
 31
0.0
  0
LINE
  5
B7
100
AcDbEntity
100
AcDbLine
  8
Top Plate Bottom Layer
 62
256
370
-1
  6
ByLayer
 10
123.0688383450626446
 20
14.0373778363523627
 30
0.0
 11
123.0688383450626446
 21
1.3400913877727092
 31
0.0
  0
LINE
  5
B8
100
AcDbEntity
100
AcDbLine
  8
Top Plate Bottom Layer
 62
256
370
-1
  6
ByLayer
 10
124.7876983461172671
 20
9.3148487962503381
 30
0.0
 11
123.0688383450626446
 21
14.0373778363523627
 31
0.0
  0
LINE
  5
B9
100
AcDbEntity
100
AcDbLine
  8
Top Plate Bottom Layer
 62
256
370
-1
  6
ByLayer
 10
128.0766225188679357
 20
10.5119192978902092
 30
0.0
 11
124.7876983461172671
 21
9.3148487962503381
 31
0.0
  0
CIRCLE
  5
BA
100
AcDbEntity
100
AcDbCircle
  8
Top Plate Bottom Layer
 62
256
370
-1
  6
ByLayer
 10
134.1287370299336317
 20
23.0459746071533687
 30
0.0
 40
1.45
  0
CIRCLE
  5
BB
100
AcDbEntity
100
AcDbCircle
  8
Top Plate Bottom Layer
 62
256
370
-1
  6
ByLayer
 10
107.8507606039322297
 20
23.5499994077652097
 30
0.0
 40
1.45
  0
CIRCLE
  5
BC
100
AcDbEntity
100
AcDbCircle
  8
Top Plate Bottom Layer
 62
256
370
-1
  6
ByLayer
 10
100.0688383450626588
 20
18.0499994077650783
 30
0.0
 40
1.45
  0
CIRCLE
  5
BD
100
AcDbEntity
100
AcDbCircle
  8
Top Plate Bottom Layer
 62
256
370
-1
  6
ByLayer
 10
100.0688383450624883
 20
29.0499994077650854
 30
0.0
 40
1.45
  0
CIRCLE
  5
BE
100
AcDbEntity
100
AcDbCircle
  8
Top Plate Bottom Layer
 62
256
370
-1
  6
ByLayer
 10
139.9688383450625508
 20
18.0499994077657249
 30
0.0
 40
1.45
  0
CIRCLE
  5
BF
100
AcDbEntity
100
AcDbCircle
  8
Top Plate Bottom Layer
 62
256
370
-1
  6
ByLayer
 10
139.9688383450623803
 20
29.0499994077657178
 30
0.0
 40
1.45
  0
CIRCLE
  5
C0
100
AcDbEntity
100
AcDbCircle
  8
Top Plate Bottom Layer
 62
256
370
-1
  6
ByLayer
 10
131.1287370299334896
 20
47.0459746071542
 30
0.0
 40
1.45
  0
CIRCLE
  5
C1
100
AcDbEntity
100
AcDbCircle
  8
Top Plate Bottom Layer
 62
256
370
-1
  6
ByLayer
 10
129.1287370299336317
 20
6.0459746071533829
 30
0.0
 40
1.45
  0
CIRCLE
  5
C2
100
AcDbEntity
100
AcDbCircle
  8
Top Plate Bottom Layer
 62
256
370
-1
  6
ByLayer
 10
114.1287370299338733
 20
6.0459746071537737
 30
0.0
 40
1.45
  0
CIRCLE
  5
C3
100
AcDbEntity
100
AcDbCircle
  8
Top Plate Bottom Layer
 62
256
370
-1
  6
ByLayer
 10
102.1287370299336601
 20
40.5959746071534369
 30
0.0
 40
1.45
  0
LINE
  5
C4
100
AcDbEntity
100
AcDbLine
  8
Main Plate Bottom Layer
 62
256
370
-1
  6
ByLayer
 10
184.5267213436616203
 20
11.1936036946235369
 30
0.0
 11
177.0091803773743493
 21
8.4574425480181468
 31
0.0
  0
LINE
  5
C5
100
AcDbEntity
100
AcDbLine
  8
Main Plate Bottom Layer
 62
256
370
-1
  6
ByLayer
 10
195.3769646438191216
 20
42.7826976352769179
 30
0.0
 11
185.4491584972539044
 21
70.059120847687538
 31
0.0
  0
LINE
  5
C6
100
AcDbEntity
100
AcDbLine
  8
Main Plate Bottom Layer
 62
256
370
-1
  6
ByLayer
 10
200.8046287730873303
 20
1.2522304620227374
 30
0.0
 11
200.8046287730872734
 21
12.0008847359666753
 31
0.0
  0
LINE
  5
C7
100
AcDbEntity
100
AcDbLine
  8
Main Plate Bottom Layer
 62
256
370
-1
  6
ByLayer
 10
150.8046287730873871
 20
3.1845357005434636
 30
0.0
 11
150.8046287730873587
 21
1.2522304620227729
 31
0.0
  0
LINE
  5
C8
100
AcDbEntity
100
AcDbLine
  8
Main Plate Bottom Layer
 62
256
370
-1
  6
ByLayer
 10
138.4645274579586101
 20
52.958113681404086
 30
0.0
 11
145.3769646438191785
 21
33.9663485998536387
 31
0.0
  0
ARC
  5
C9
100
AcDbEntity
  8
Main Plate Bottom Layer
 62
256
370
-1
  6
ByLayer
100
AcDbCircle
 10
176.8039682913789648
 20
9.0212581204896907
 30
0.0
 40
0.599999999999996
100
AcDbArc
 50
199.9999999999997158
 51
289.9999999999998863
  0
ARC
  5
CA
100
AcDbEntity
  8
Main Plate Bottom Layer
 62
256
370
-1
  6
ByLayer
100
AcDbCircle
 10
184.3215092576662073
 20
11.7574192670950488
 30
0.0
 40
0.5999999999999983
100
AcDbArc
 50
289.9999999999998295
 51
20.000000000000103
  0
ARC
  5
CB
100
AcDbEntity
  8
Main Plate Bottom Layer
 62
256
370
-1
  6
ByLayer
100
AcDbCircle
 10
110.8046287730879271
 20
12.000884735966963
 30
0.0
 40
89.9999999999993463
100
AcDbArc
 50
0.0
 51
20.000000000000103
  0
ARC
  5
CC
100
AcDbEntity
  8
Main Plate Bottom Layer
 62
256
370
-1
  6
ByLayer
100
AcDbCircle
 10
60.8046287730876287
 20
3.1845357005453749
 30
0.0
 40
89.9999999999996447
100
AcDbArc
 50
0.0
 51
20.000000000000103
  0
MTEXT
  5
CD
100
AcDbEntity
100
AcDbMText
  8
Main Plate Bottom Text
 62
256
370
-1
  6
ByLayer
 10
191.505777063779135
 20
43.9364645425297056
 30
0.0
 40
2.0
 41
100.0
 71
3
 72
2
  1
Main\~Plate\PBottom
  7
standard
 50
360.0
 73
0
 44
1.0
  0
LINE
  5
CE
100
AcDbEntity
100
AcDbLine
  8
Main Plate Bottom Layer
 62
256
370
-1
  6
ByLayer
 10
169.5683532059721017
 20
64.2789804254837094
 30
0.0
 11
174.0146150692057745
 21
52.0629763552668692
 31
0.0
  0
LINE
  5
CF
100
AcDbEntity
100
AcDbLine
  8
Main Plate Bottom Layer
 62
256
370
-1
  6
ByLayer
 10
154.345332749240356
 20
58.7382541036079004
 30
0.0
 11
158.7915946124740572
 21
46.5222500333910745
 31
0.0
  0
LINE
  5
D0
100
AcDbEntity
100
AcDbLine
  8
Main Plate Bottom Layer
 62
256
370
-1
  6
ByLayer
 10
174.0146150692057745
 20
52.0629763552668692
 30
0.0
 11
170.7256908964551201
 21
50.8659058536270408
 31
0.0
  0
LINE
  5
D1
100
AcDbEntity
100
AcDbLine
  8
Main Plate Bottom Layer
 62
256
370
-1
  6
ByLayer
 10
162.08051878522474
 20
47.7193205350308887
 30
0.0
 11
158.7915946124740572
 21
46.5222500333910745
 31
0.0
  0
LINE
  5
D2
100
AcDbEntity
100
AcDbLine
  8
Main Plate Bottom Layer
 62
256
370
-1
  6
ByLayer
 10
185.4491584972539044
 20
70.059120847687538
 30
0.0
 11
169.5683532059721017
 21
64.2789804254837094
 31
0.0
  0
LINE
  5
D3
100
AcDbEntity
100
AcDbLine
  8
Main Plate Bottom Layer
 62
256
370
-1
  6
ByLayer
 10
154.345332749240356
 20
58.7382541036079004
 30
0.0
 11
138.4645274579586101
 21
52.958113681404086
 31
0.0
  0
LINE
  5
D4
100
AcDbEntity
100
AcDbLine
  8
Main Plate Bottom Layer
 62
256
370
-1
  6
ByLayer
 10
183.1032506713320913
 20
16.8588398642026007
 30
0.0
 11
184.8853248301377903
 21
11.9626313530904866
 31
0.0
  0
LINE
  5
D5
100
AcDbEntity
100
AcDbLine
  8
Main Plate Bottom Layer
 62
256
370
-1
  6
ByLayer
 10
174.4580785601017681
 20
13.7122545456063989
 30
0.0
 11
176.2401527189074102
 21
8.8160460344942777
 31
0.0
  0
ARC
  5
D6
100
AcDbEntity
  8
Main Plate Bottom Layer
 62
256
370
-1
  6
ByLayer
100
AcDbCircle
 10
176.542065047149265
 20
21.4360489707451478
 30
0.0
 40
8.0
100
AcDbArc
 50
325.0996321953934398
 51
74.9003678046064749
  0
LINE
  5
D7
100
AcDbEntity
100
AcDbLine
  8
Main Plate Bottom Layer
 62
256
370
-1
  6
ByLayer
 10
170.7256908964551201
 20
50.8659058536270408
 30
0.0
 11
178.6260515341967334
 21
29.1598433958838399
 31
0.0
  0
ARC
  5
D8
100
AcDbEntity
  8
Main Plate Bottom Layer
 62
256
370
-1
  6
ByLayer
100
AcDbCircle
 10
176.542065047149265
 20
21.4360489707451478
 30
0.0
 40
8.0
100
AcDbArc
 50
145.0996321953935819
 51
254.9003678046064749
  0
LINE
  5
D9
100
AcDbEntity
100
AcDbLine
  8
Main Plate Bottom Layer
 62
256
370
-1
  6
ByLayer
 10
162.08051878522474
 20
47.7193205350308887
 30
0.0
 11
169.9808794229663818
 21
26.0132580772876736
 31
0.0
  0
LINE
  5
DA
100
AcDbEntity
100
AcDbLine
  8
Main Plate Bottom Layer
 62
256
370
-1
  6
ByLayer
 10
150.8046287730873587
 20
1.2522304620227729
 30
0.0
 11
200.8046287730873303
 21
1.2522304620227374
 31
0.0
  0
LINE
  5
DB
100
AcDbEntity
100
AcDbLine
  8
Main Plate Bottom Layer
 62
256
370
-1
  6
ByLayer
 10
143.4296954423489296
 20
48.3802204009981978
 30
0.0
 11
150.7592978844789684
 21
51.0479775189381755
 31
0.0
  0
LINE
  5
DC
100
AcDbEntity
100
AcDbLine
  8
Main Plate Bottom Layer
 62
256
370
-1
  6
ByLayer
 10
150.7592978844789684
 20
51.0479775189381755
 30
0.0
 11
152.1273784577814752
 21
47.2892070357950587
 31
0.0
  0
LINE
  5
DD
100
AcDbEntity
100
AcDbLine
  8
Main Plate Bottom Layer
 62
256
370
-1
  6
ByLayer
 10
152.1273784577814752
 20
47.2892070357950587
 30
0.0
 11
144.7977760156515785
 21
44.6214499178544699
 31
0.0
  0
LINE
  5
DE
100
AcDbEntity
100
AcDbLine
  8
Main Plate Bottom Layer
 62
256
370
-1
  6
ByLayer
 10
144.7977760156515785
 20
44.6214499178544699
 30
0.0
 11
143.4296954423489296
 21
48.3802204009981978
 31
0.0
  0
LINE
  5
DF
100
AcDbEntity
100
AcDbLine
  8
Main Plate Bottom Layer
 62
256
370
-1
  6
ByLayer
 10
177.2586297906415211
 20
60.6929455607222508
 30
0.0
 11
184.5882322327715599
 21
63.3607026786625482
 31
0.0
  0
LINE
  5
E0
100
AcDbEntity
100
AcDbLine
  8
Main Plate Bottom Layer
 62
256
370
-1
  6
ByLayer
 10
184.5882322327715599
 20
63.3607026786625482
 30
0.0
 11
185.9563128060742656
 21
59.6019321955189554
 31
0.0
  0
LINE
  5
E1
100
AcDbEntity
100
AcDbLine
  8
Main Plate Bottom Layer
 62
256
370
-1
  6
ByLayer
 10
185.9563128060742656
 20
59.6019321955189554
 30
0.0
 11
178.6267103639442553
 21
56.9341750775786579
 31
0.0
  0
LINE
  5
E2
100
AcDbEntity
100
AcDbLine
  8
Main Plate Bottom Layer
 62
256
370
-1
  6
ByLayer
 10
178.6267103639442553
 20
56.9341750775786579
 30
0.0
 11
177.2586297906415211
 21
60.6929455607222508
 31
0.0
  0
LINE
  5
E3
100
AcDbEntity
100
AcDbLine
  8
Main Plate Bottom Layer
 62
256
370
-1
  6
ByLayer
 10
155.9046287730873246
 20
13.2522304620225029
 30
0.0
 11
163.704628773087336
 21
13.2522304620228688
 31
0.0
  0
LINE
  5
E4
100
AcDbEntity
100
AcDbLine
  8
Main Plate Bottom Layer
 62
256
370
-1
  6
ByLayer
 10
163.704628773087336
 20
13.2522304620228688
 30
0.0
 11
163.704628773087336
 21
9.2522304620228972
 31
0.0
  0
LINE
  5
E5
100
AcDbEntity
100
AcDbLine
  8
Main Plate Bottom Layer
 62
256
370
-1
  6
ByLayer
 10
163.704628773087336
 20
9.2522304620228972
 30
0.0
 11
155.904628773087353
 21
9.2522304620224318
 31
0.0
  0
LINE
  5
E6
100
AcDbEntity
100
AcDbLine
  8
Main Plate Bottom Layer
 62
256
370
-1
  6
ByLayer
 10
155.904628773087353
 20
9.2522304620224318
 30
0.0
 11
155.9046287730873246
 21
13.2522304620225029
 31
0.0
  0
LINE
  5
E7
100
AcDbEntity
100
AcDbLine
  8
Main Plate Bottom Layer
 62
256
370
-1
  6
ByLayer
 10
187.9046287730873814
 20
13.2522304620227551
 30
0.0
 11
195.704628773087336
 21
13.2522304620228581
 31
0.0
  0
LINE
  5
E8
100
AcDbEntity
100
AcDbLine
  8
Main Plate Bottom Layer
 62
256
370
-1
  6
ByLayer
 10
195.704628773087336
 20
13.2522304620228581
 30
0.0
 11
195.7046287730873928
 21
9.2522304620228333
 31
0.0
  0
LINE
  5
E9
100
AcDbEntity
100
AcDbLine
  8
Main Plate Bottom Layer
 62
256
370
-1
  6
ByLayer
 10
195.7046287730873928
 20
9.2522304620228333
 30
0.0
 11
187.9046287730872677
 21
9.2522304620228084
 31
0.0
  0
LINE
  5
EA
100
AcDbEntity
100
AcDbLine
  8
Main Plate Bottom Layer
 62
256
370
-1
  6
ByLayer
 10
187.9046287730872677
 20
9.2522304620228084
 30
0.0
 11
187.9046287730873814
 21
13.2522304620227551
 31
0.0
  0
CIRCLE
  5
EB
100
AcDbEntity
100
AcDbCircle
  8
Main Plate Bottom Layer
 62
256
370
-1
  6
ByLayer
 10
162.1865510319571797
 20
23.4621384820159093
 30
0.0
 40
1.45
  0
CIRCLE
  5
EC
100
AcDbEntity
100
AcDbCircle
  8
Main Plate Bottom Layer
 62
256
370
-1
  6
ByLayer
 10
188.4645274579585816
 20
22.9581136814040718
 30
0.0
 40
1.45
  0
CIRCLE
  5
ED
100
AcDbEntity
100
AcDbCircle
  8
Main Plate Bottom Layer
 62
256
370
-1
  6
ByLayer
 10
154.4046287730876088
 20
17.9621384820157814
 30
0.0
 40
1.45
  0
CIRCLE
  5
EE
100
AcDbEntity
100
AcDbCircle
  8
Main Plate Bottom Layer
 62
256
370
-1
  6
ByLayer
 10
154.4046287730874383
 20
28.9621384820157743
 30
0.0
 40
1.45
  0
CIRCLE
  5
EF
100
AcDbEntity
100
AcDbCircle
  8
Main Plate Bottom Layer
 62
256
370
-1
  6
ByLayer
 10
194.3046287730870745
 20
17.9621384820157637
 30
0.0
 40
1.45
  0
CIRCLE
  5
F0
100
AcDbEntity
100
AcDbCircle
  8
Main Plate Bottom Layer
 62
256
370
-1
  6
ByLayer
 10
194.3046287730869039
 20
28.9621384820157566
 30
0.0
 40
1.45
  0
CIRCLE
  5
F1
100
AcDbEntity
100
AcDbCircle
  8
Main Plate Bottom Layer
 62
256
370
-1
  6
ByLayer
 10
185.4645274579585816
 20
46.9581136814044697
 30
0.0
 40
1.45
  0
CIRCLE
  5
F2
100
AcDbEntity
100
AcDbCircle
  8
Main Plate Bottom Layer
 62
256
370
-1
  6
ByLayer
 10
183.4645274579583827
 20
5.9581136814036739
 30
0.0
 40
1.45
  0
CIRCLE
  5
F3
100
AcDbEntity
100
AcDbCircle
  8
Main Plate Bottom Layer
 62
256
370
-1
  6
ByLayer
 10
168.4645274579585816
 20
5.9581136814040718
 30
0.0
 40
1.45
  0
CIRCLE
  5
F4
100
AcDbEntity
100
AcDbCircle
  8
Main Plate Bottom Layer
 62
256
370
-1
  6
ByLayer
 10
156.4645274579585248
 20
40.5081136814039411
 30
0.0
 40
1.45
  0
ENDSEC
  0
SECTION
  2
OBJECTS
  0
DICTIONARY
  5
C
100
AcDbDictionary
280
0
281
1
  3
ACAD_GROUP
350
D
  3
ACAD_LAYOUT
350
1A
  3
ACAD_MLINESTYLE
350
17
  3
ACAD_PLOTSETTINGS
350
19
  3
ACAD_PLOTSTYLENAME
350
E
  3
AcDbVariableDictionary
350
F5
  0
DICTIONARY
  5
D
100
AcDbDictionary
280
0
281
1
  0
ACDBDICTIONARYWDFLT
  5
E
100
AcDbDictionary
281
1
  3
Normal
350
F
100
AcDbDictionaryWithDefault
340
F
  0
ACDBPLACEHOLDER
  5
F
  0
DICTIONARY
  5
17
100
AcDbDictionary
280
0
281
1
  3
Standard
350
18
  0
MLINESTYLE
  5
18
100
AcDbMlineStyle
  2
STANDARD
 70
0
  3

 62
256
 51
90.0
 52
90.0
 71
2
 49
0.5
 62
256
  6
BYLAYER
 49
-0.5
 62
256
  6
BYLAYER
  0
DICTIONARY
  5
19
100
AcDbDictionary
280
0
281
1
  0
DICTIONARY
  5
1A
100
AcDbDictionary
281
1
  3
Layout1
350
1E
  3
Layout2
350
26
  3
Model
350
22
  0
LAYOUT
  5
1E
100
AcDbPlotSettings
  1

  2
C:\Program Files\AutoCAD 2002\plotters\DWF ePlot (optimized for plotting).pc3
  4

  6

 40
0.0
 41
0.0
 42
0.0
 43
0.0
 44
0.0
 45
0.0
 46
0.0
 47
0.0
 48
0.0
 49
0.0
140
0.0
141
0.0
142
1.0
143
1.0
 70
688
 72
0
 73
0
 74
5
  7

 75
16
147
1.0
148
0.0
149
0.0
100
AcDbLayout
  1
Layout1
 70
1
 71
1
 10
0.0
 20
0.0
 11
420.0
 21
297.0
 12
0.0
 22
0.0
 32
0.0
 14
100000000000000000000.0
 24
100000000000000000000.0
 34
100000000000000000000.0
 15
-100000000000000000000.0
 25
-100000000000000000000.0
 35
-100000000000000000000.0
146
0.0
 13
0.0
 23
0.0
 33
0.0
 16
1.0
 26
0.0
 36
0.0
 17
0.0
 27
1.0
 37
0.0
 76
0
330
1B
  0
LAYOUT
  5
22
100
AcDbPlotSettings
  1

  2
C:\Program Files\AutoCAD 2002\plotters\DWF ePlot (optimized for plotting).pc3
  4

  6

 40
0.0
 41
0.0
 42
0.0
 43
0.0
 44
0.0
 45
0.0
 46
0.0
 47
0.0
 48
0.0
 49
0.0
140
0.0
141
0.0
142
1.0
143
1.0
 70
1712
 72
0
 73
0
 74
0
  7

 75
0
147
1.0
148
0.0
149
0.0
100
AcDbLayout
  1
Model
 70
1
 71
0
 10
0.0
 20
0.0
 11
12.0
 21
9.0
 12
0.0
 22
0.0
 32
0.0
 14
0.0
 24
0.0
 34
0.0
 15
0.0
 25
0.0
 35
0.0
146
0.0
 13
0.0
 23
0.0
 33
0.0
 16
1.0
 26
0.0
 36
0.0
 17
0.0
 27
1.0
 37
0.0
 76
0
330
1F
  0
LAYOUT
  5
26
100
AcDbPlotSettings
  1

  2
C:\Program Files\AutoCAD 2002\plotters\DWF ePlot (optimized for plotting).pc3
  4

  6

 40
0.0
 41
0.0
 42
0.0
 43
0.0
 44
0.0
 45
0.0
 46
0.0
 47
0.0
 48
0.0
 49
0.0
140
0.0
141
0.0
142
1.0
143
1.0
 70
688
 72
0
 73
0
 74
5
  7

 75
16
147
1.0
148
0.0
149
0.0
100
AcDbLayout
  1
Layout2
 70
1
 71
2
 10
0.0
 20
0.0
 11
12.0
 21
9.0
 12
0.0
 22
0.0
 32
0.0
 14
0.0
 24
0.0
 34
0.0
 15
0.0
 25
0.0
 35
0.0
146
0.0
 13
0.0
 23
0.0
 33
0.0
 16
1.0
 26
0.0
 36
0.0
 17
0.0
 27
1.0
 37
0.0
 76
0
330
23
  0
DICTIONARY
  5
F5
100
AcDbDictionary
281
1
  3
DIMASSOC
350
F7
  3
HIDETEXT
350
F6
  0
DICTIONARYVAR
  5
F6
100
DictionaryVariables
280
0
  1
2
  0
DICTIONARYVAR
  5
F7
100
DictionaryVariables
280
0
  1
1
  0
ENDSEC
  0
EOF
