  0
SECTION
  2
HEADER
  9
$ACADVER
  1
AC1015
  9
$ACADMAINTVER
 70
    18
  9
$DWGCODEPAGE
  3
ANSI_1252
  9
$INSBASE
 10
0.0
 20
0.0
 30
0.0
  9
$EXTMIN
 10
0.0
 20
0.0
 30
0.0
  9
$EXTMAX
 10
420.0
 20
297.0
 30
0.0
  9
$LIMMIN
 10
0.0
 20
0.0
  9
$LIMMAX
 10
420.0
 20
297.0
  9
$ORTHOMODE
 70
     0
  9
$REGENMODE
 70
     1
  9
$FILLMODE
 70
     1
  9
$QTEXTMODE
 70
     0
  9
$MIRRTEXT
 70
     0
  9
$LTSCALE
 40
1.0
  9
$ATTMODE
 70
     1
  9
$TEXTSIZE
 40
0.2
  9
$TRACEWID
 40
0.05
  9
$TEXTSTYLE
  7
Standard
  9
$CLAYER
  8
0
  9
$CELTYPE
  6
ByLayer
  9
$CECOLOR
 62
   256
  9
$CELTSCALE
 40
1.0
  9
$DISPSILH
 70
     0
  9
$DIMSCALE
 40
1.0
  9
$DIMASZ
 40
1.799999999999999
  9
$DIMEXO
 40
0.0625
  9
$DIMDLI
 40
0.38
  9
$DIMRND
 40
0.0
  9
$DIMDLE
 40
0.0
  9
$DIMEXE
 40
0.18
  9
$DIMTP
 40
0.0
  9
$DIMTM
 40
0.0
  9
$DIMTXT
 40
0.3499999940395355
  9
$DIMCEN
 40
0.09
  9
$DIMTSZ
 40
0.0
  9
$DIMTOL
 70
     0
  9
$DIMLIM
 70
     0
  9
$DIMTIH
 70
     1
  9
$DIMTOH
 70
     1
  9
$DIMSE1
 70
     0
  9
$DIMSE2
 70
     0
  9
$DIMTAD
 70
     0
  9
$DIMZIN
 70
     0
  9
$DIMBLK
  1

  9
$DIMASO
 70
     1
  9
$DIMSHO
 70
     1
  9
$DIMPOST
  1

  9
$DIMAPOST
  1

  9
$DIMALT
 70
     0
  9
$DIMALTD
 70
     2
  9
$DIMALTF
 40
25.4
  9
$DIMLFAC
 40
1.0
  9
$DIMTOFL
 70
     0
  9
$DIMTVP
 40
0.0
  9
$DIMTIX
 70
     0
  9
$DIMSOXD
 70
     0
  9
$DIMSAH
 70
     0
  9
$DIMBLK1
  1

  9
$DIMBLK2
  1

  9
$DIMSTYLE
  2
Standard
  9
$DIMCLRD
 70
     0
  9
$DIMCLRE
 70
     0
  9
$DIMCLRT
 70
     0
  9
$DIMTFAC
 40
1.0
  9
$DIMGAP
 40
0.09
  9
$DIMJUST
 70
     0
  9
$DIMSD1
 70
     0
  9
$DIMSD2
 70
     0
  9
$DIMTOLJ
 70
     1
  9
$DIMTZIN
 70
     0
  9
$DIMALTZ
 70
     0
  9
$DIMALTTZ
 70
     0
  9
$DIMUPT
 70
     0
  9
$DIMDEC
 70
     4
  9
$DIMTDEC
 70
     4
  9
$DIMALTU
 70
     2
  9
$DIMALTTD
 70
     2
  9
$DIMTXSTY
  7
Standard
  9
$DIMAUNIT
 70
     0
  9
$DIMADEC
 70
     0
  9
$DIMALTRND
 40
0.0
  9
$DIMAZIN
 70
     0
  9
$DIMDSEP
 70
    46
  9
$DIMATFIT
 70
     3
  9
$DIMFRAC
 70
     0
  9
$DIMLDRBLK
  1

  9
$DIMLUNIT
 70
     2
  9
$DIMLWD
 70
    -2
  9
$DIMLWE
 70
    -2
  9
$DIMTMOVE
 70
     0
  9
$LUNITS
 70
     2
  9
$LUPREC
 70
     4
  9
$SKETCHINC
 40
0.1
  9
$FILLETRAD
 40
0.0
  9
$AUNITS
 70
     0
  9
$AUPREC
 70
     0
  9
$MENU
  1
.
  9
$ELEVATION
 40
0.0
  9
$PELEVATION
 40
0.0
  9
$THICKNESS
 40
0.0
  9
$LIMCHECK
 70
     0
  9
$CHAMFERA
 40
0.0
  9
$CHAMFERB
 40
0.0
  9
$CHAMFERC
 40
0.0
  9
$CHAMFERD
 40
0.0
  9
$SKPOLY
 70
     0
  9
$TDCREATE
 40
2454670.452518183
  9
$TDUCREATE
 40
2454670.410851516
  9
$TDUPDATE
 40
2454670.452518183
  9
$TDUUPDATE
 40
2454670.410851516
  9
$TDINDWG
 40
0.0000119097
  9
$TDUSRTIMER
 40
0.0000119097
  9
$USRTIMER
 70
     1
  9
$ANGBASE
 50
0.0
  9
$ANGDIR
 70
     0
  9
$PDMODE
 70
     0
  9
$PDSIZE
 40
0.0
  9
$PLINEWID
 40
0.0
  9
$SPLFRAME
 70
     0
  9
$SPLINETYPE
 70
     6
  9
$SPLINESEGS
 70
     8
  9
$HANDSEED
  5
1C1
  9
$SURFTAB1
 70
     6
  9
$SURFTAB2
 70
     6
  9
$SURFTYPE
 70
     6
  9
$SURFU
 70
     6
  9
$SURFV
 70
     6
  9
$UCSBASE
  2

  9
$UCSNAME
  2

  9
$UCSORG
 10
0.0
 20
0.0
 30
0.0
  9
$UCSXDIR
 10
1.0
 20
0.0
 30
0.0
  9
$UCSYDIR
 10
0.0
 20
1.0
 30
0.0
  9
$UCSORTHOREF
  2

  9
$UCSORTHOVIEW
 70
     0
  9
$UCSORGTOP
 10
0.0
 20
0.0
 30
0.0
  9
$UCSORGBOTTOM
 10
0.0
 20
0.0
 30
0.0
  9
$UCSORGLEFT
 10
0.0
 20
0.0
 30
0.0
  9
$UCSORGRIGHT
 10
0.0
 20
0.0
 30
0.0
  9
$UCSORGFRONT
 10
0.0
 20
0.0
 30
0.0
  9
$UCSORGBACK
 10
0.0
 20
0.0
 30
0.0
  9
$PUCSBASE
  2

  9
$PUCSNAME
  2

  9
$PUCSORG
 10
0.0
 20
0.0
 30
0.0
  9
$PUCSXDIR
 10
1.0
 20
0.0
 30
0.0
  9
$PUCSYDIR
 10
0.0
 20
1.0
 30
0.0
  9
$PUCSORTHOREF
  2

  9
$PUCSORTHOVIEW
 70
     0
  9
$PUCSORGTOP
 10
0.0
 20
0.0
 30
0.0
  9
$PUCSORGBOTTOM
 10
0.0
 20
0.0
 30
0.0
  9
$PUCSORGLEFT
 10
0.0
 20
0.0
 30
0.0
  9
$PUCSORGRIGHT
 10
0.0
 20
0.0
 30
0.0
  9
$PUCSORGFRONT
 10
0.0
 20
0.0
 30
0.0
  9
$PUCSORGBACK
 10
0.0
 20
0.0
 30
0.0
  9
$USERI1
 70
     0
  9
$USERI2
 70
     0
  9
$USERI3
 70
     0
  9
$USERI4
 70
     0
  9
$USERI5
 70
     0
  9
$USERR1
 40
0.0
  9
$USERR2
 40
0.0
  9
$USERR3
 40
0.0
  9
$USERR4
 40
0.0
  9
$USERR5
 40
0.0
  9
$WORLDVIEW
 70
     1
  9
$SHADEDGE
 70
     3
  9
$SHADEDIF
 70
    70
  9
$TILEMODE
 70
     1
  9
$MAXACTVP
 70
    64
  9
$PINSBASE
 10
0.0
 20
0.0
 30
0.0
  9
$PLIMCHECK
 70
     0
  9
$PEXTMIN
 10
0.0
 20
0.0
 30
0.0
  9
$PEXTMAX
 10
420.0
 20
297.0
 30
0.0
  9
$PLIMMIN
 10
0.0
 20
0.0
  9
$PLIMMAX
 10
420.0
 20
297.0
  9
$UNITMODE
 70
     0
  9
$VISRETAIN
 70
     1
  9
$PLINEGEN
 70
     0
  9
$PSLTSCALE
 70
     1
  9
$TREEDEPTH
 70
  3020
  9
$CMLSTYLE
  2
Standard
  9
$CMLJUST
 70
     0
  9
$CMLSCALE
 40
1.0
  9
$PROXYGRAPHICS
 70
     1
  9
$MEASUREMENT
 70
     1
  9
$CELWEIGHT
370
    -1
  9
$ENDCAPS
280
     0
  9
$JOINSTYLE
280
     0
  9
$LWDISPLAY
290
     0
  9
$INSUNITS
 70
     4
  9
$HYPERLINKBASE
  1

  9
$STYLESHEET
  1

  9
$XEDIT
290
     1
  9
$CEPSNTYPE
380
     0
  9
$PSTYLEMODE
290
     1
  9
$FINGERPRINTGUID
  2
{F8A56241-3C01-4058-AA9A-88488BABAF29}
  9
$VERSIONGUID
  2
{1FD27F6A-6438-455C-BDFE-47A8C3C063EE}
  9
$EXTNAMES
290
     1
  9
$PSVPSCALE
 40
0.0
  9
$OLESTARTUP
290
     0
  0
ENDSEC
  0
SECTION
  2
CLASSES
  0
CLASS
  1
ACDBDICTIONARYWDFLT
  2
AcDbDictionaryWithDefault
  3
ObjectDBX Classes
 90
        0
280
     0
281
     0
  0
CLASS
  1
MATERIAL
  2
AcDbMaterial
  3
ObjectDBX Classes
 90
     1153
280
     0
281
     0
  0
CLASS
  1
VISUALSTYLE
  2
AcDbVisualStyle
  3
ObjectDBX Classes
 90
     4095
280
     0
281
     0
  0
CLASS
  1
SCALE
  2
AcDbScale
  3
ObjectDBX Classes
 90
     1153
280
     0
281
     0
  0
CLASS
  1
TABLESTYLE
  2
AcDbTableStyle
  3
ObjectDBX Classes
 90
     4095
280
     0
281
     0
  0
CLASS
  1
MLEADERSTYLE
  2
AcDbMLeaderStyle
  3
ACDB_MLEADERSTYLE_CLASS
 90
     4095
280
     0
281
     0
  0
CLASS
  1
DICTIONARYVAR
  2
AcDbDictionaryVar
  3
ObjectDBX Classes
 90
        0
280
     0
281
     0
  0
CLASS
  1
CELLSTYLEMAP
  2
AcDbCellStyleMap
  3
ObjectDBX Classes
 90
     1152
280
     0
281
     0
  0
CLASS
  1
ACDBPLACEHOLDER
  2
AcDbPlaceHolder
  3
ObjectDBX Classes
 90
        0
280
     0
281
     0
  0
CLASS
  1
LAYOUT
  2
AcDbLayout
  3
ObjectDBX Classes
 90
        0
280
     0
281
     0
  0
ENDSEC
  0
SECTION
  2
TABLES
  0
TABLE
  2
VPORT
  5
8
330
0
100
AcDbSymbolTable
 70
     1
  0
VPORT
  5
5F
330
8
100
AcDbSymbolTableRecord
100
AcDbViewportTableRecord
  2
*Active
 70
     0
 10
0.0
 20
0.0
 11
1.0
 21
1.0
 12
210.0
 22
148.5
 13
0.0
 23
0.0
 14
1.0
 24
1.0
 15
0.0
 25
0.0
 16
0.0
 26
0.0
 36
1.0
 17
0.0
 27
0.0
 37
0.0
 40
297.0
 41
1.414141414141414
 42
50.0
 43
0.0
 44
0.0
 50
0.0
 51
0.0
 71
     0
 72
   100
 73
     1
 74
     1
 75
     0
 76
     0
 77
     0
 78
     0
281
     0
 65
     1
110
0.0
120
0.0
130
0.0
111
1.0
121
0.0
131
0.0
112
0.0
122
1.0
132
0.0
 79
     0
146
0.0
  0
ENDTAB
  0
TABLE
  2
LTYPE
  5
5
330
0
100
AcDbSymbolTable
 70
    59
  0
LTYPE
  5
63
330
5
100
AcDbSymbolTableRecord
100
AcDbLinetypeTableRecord
  2
ByBlock
 70
     0
  3

 72
    65
 73
     0
 40
0.0
  0
LTYPE
  5
64
330
5
100
AcDbSymbolTableRecord
100
AcDbLinetypeTableRecord
  2
ByLayer
 70
     0
  3

 72
    65
 73
     0
 40
0.0
  0
LTYPE
  5
65
330
5
100
AcDbSymbolTableRecord
100
AcDbLinetypeTableRecord
  2
Continuous
 70
     0
  3
Solid line
 72
    65
 73
     0
 40
0.0
  0
LTYPE
  5
7D
330
5
100
AcDbSymbolTableRecord
100
AcDbLinetypeTableRecord
  2
Section_View_Lines
 70
     0
  3
Section View Lines
 72
    65
 73
     4
 40
0.8406
 49
0.6614
 74
     0
 49
-0.0827
 74
     0
 49
0.0138
 74
     0
 49
-0.0827
 74
     0
  0
LTYPE
  5
7E
330
5
100
AcDbSymbolTableRecord
100
AcDbLinetypeTableRecord
  2
CHAIN
 70
     0
  3
Chain ____ _ ____ _ ____ _ ____ _ ____ _ ____
 72
    65
 73
     4
 40
0.3543
 49
0.2362
 74
     0
 49
-0.0295
 74
     0
 49
0.0591
 74
     0
 49
-0.0295
 74
     0
  0
LTYPE
  5
7F
330
5
100
AcDbSymbolTableRecord
100
AcDbLinetypeTableRecord
  2
DASH_DOT
 70
     0
  3
Dash dot _._._._._._._._._._._._._._._.
 72
    65
 73
     4
 40
0.182
 49
0.1181
 74
     0
 49
-0.0295
 74
     0
 49
0.0049
 74
     0
 49
-0.0295
 74
     0
  0
LTYPE
  5
80
330
5
100
AcDbSymbolTableRecord
100
AcDbLinetypeTableRecord
  2
DASH_DOUBLE_DOT
 70
     0
  3
Dash Double Dot __ __ . __ __ . __ __ . __ _
 72
    65
 73
     6
 40
0.2164
 49
0.1181
 74
     0
 49
-0.0295
 74
     0
 49
0.0049
 74
     0
 49
-0.0295
 74
     0
 49
0.0049
 74
     0
 49
-0.0295
 74
     0
  0
LTYPE
  5
81
330
5
100
AcDbSymbolTableRecord
100
AcDbLinetypeTableRecord
  2
DASH_TRIPLE_DOT
 70
     0
  3
Dash Triple-Dot _ . . . _ . . . _ . . . _
 72
    65
 73
     8
 40
0.2508
 49
0.1181
 74
     0
 49
-0.0295
 74
     0
 49
0.0049
 74
     0
 49
-0.0295
 74
     0
 49
0.0049
 74
     0
 49
-0.0295
 74
     0
 49
0.0049
 74
     0
 49
-0.0295
 74
     0
  0
LTYPE
  5
82
330
5
100
AcDbSymbolTableRecord
100
AcDbLinetypeTableRecord
  2
DASHED
 70
     0
  3
Dashed __ __ __ __ __ __ __ __ __ __ __ __ __ _
 72
    65
 73
     2
 40
0.2068
 49
0.1655
 74
     0
 49
-0.0413
 74
     0
  0
LTYPE
  5
83
330
5
100
AcDbSymbolTableRecord
100
AcDbLinetypeTableRecord
  2
DASHED_SPACE
 70
     0
  3
Dashed Space __ __ __ __ __ __ __ __ __ __ __ _
 72
    65
 73
     2
 40
0.2067
 49
0.1654
 74
     0
 49
-0.0413
 74
     0
  0
LTYPE
  5
84
330
5
100
AcDbSymbolTableRecord
100
AcDbLinetypeTableRecord
  2
DOTTED
 70
     0
  3
Dotted . . . . . . . . . . . . . . . . . . . . 
 72
    65
 73
     2
 40
0.0481
 49
0.0068
 74
     0
 49
-0.0413
 74
     0
  0
LTYPE
  5
85
330
5
100
AcDbSymbolTableRecord
100
AcDbLinetypeTableRecord
  2
DOUBLE_DASH_CHAIN
 70
     0
  3
Double Dash Chain ___ _ _ ___ _ _ ___ _ _ ___ _
 72
    65
 73
     6
 40
1.240299999999999
 49
0.6614
 74
     0
 49
-0.0827
 74
     0
 49
0.1654
 74
     0
 49
-0.0827
 74
     0
 49
0.1654
 74
     0
 49
-0.0827
 74
     0
  0
LTYPE
  5
86
330
5
100
AcDbSymbolTableRecord
100
AcDbLinetypeTableRecord
  2
DOUBLE_DASH_DOT
 70
     0
  3
Double Dash Dot __ __ . __ __ . __ __ . __ _
 72
    65
 73
     6
 40
0.3296
 49
0.1181
 74
     0
 49
-0.0295
 74
     0
 49
0.1181
 74
     0
 49
-0.0295
 74
     0
 49
0.0049
 74
     0
 49
-0.0295
 74
     0
  0
LTYPE
  5
87
330
5
100
AcDbSymbolTableRecord
100
AcDbLinetypeTableRecord
  2
DOUBLE_DASH_DOUBLE_DOT
 70
     0
  3
Double Dash Double Dot _ _ . . _ _ . . _ _
 72
    65
 73
     8
 40
0.364
 49
0.1181
 74
     0
 49
-0.0295
 74
     0
 49
0.1181
 74
     0
 49
-0.0295
 74
     0
 49
0.0049
 74
     0
 49
-0.0295
 74
     0
 49
0.0049
 74
     0
 49
-0.0295
 74
     0
  0
LTYPE
  5
88
330
5
100
AcDbSymbolTableRecord
100
AcDbLinetypeTableRecord
  2
DOUBLE_DASH_TRIPLE_DOT
 70
     0
  3
Double Dash Triple Dot __ __ . . . __ __ . . .
 72
    65
 73
    10
 40
0.3984
 49
0.1181
 74
     0
 49
-0.0295
 74
     0
 49
0.1181
 74
     0
 49
-0.0295
 74
     0
 49
0.0049
 74
     0
 49
-0.0295
 74
     0
 49
0.0049
 74
     0
 49
-0.0295
 74
     0
 49
0.0049
 74
     0
 49
-0.0295
 74
     0
  0
LTYPE
  5
89
330
5
100
AcDbSymbolTableRecord
100
AcDbLinetypeTableRecord
  2
LONG_DASH_DOTTED
 70
     0
  3
Long Dash Dotted ____ . ____ . ____ . ____ . _
 72
    65
 73
     4
 40
0.3001
 49
0.2362
 74
     0
 49
-0.0295
 74
     0
 49
0.0049
 74
     0
 49
-0.0295
 74
     0
  0
LTYPE
  5
8A
330
5
100
AcDbSymbolTableRecord
100
AcDbLinetypeTableRecord
  2
LONG_DASH_DOUBLE_DOT
 70
     0
  3
Long Dash Double Dot ____ . . ____ . . ____ . .
 72
    65
 73
     6
 40
0.3345
 49
0.2362
 74
     0
 49
-0.0295
 74
     0
 49
0.0049
 74
     0
 49
-0.0295
 74
     0
 49
0.0049
 74
     0
 49
-0.0295
 74
     0
  0
LTYPE
  5
8B
330
5
100
AcDbSymbolTableRecord
100
AcDbLinetypeTableRecord
  2
LONG_DASH_TRIPLE_DOT
 70
     0
  3
Long Dash Triple Dot ____ ... ____ ... ____
 72
    65
 73
     8
 40
0.3689
 49
0.2362
 74
     0
 49
-0.0295
 74
     0
 49
0.0049
 74
     0
 49
-0.0295
 74
     0
 49
0.0049
 74
     0
 49
-0.0295
 74
     0
 49
0.0049
 74
     0
 49
-0.0295
 74
     0
  0
LTYPE
  5
8C
330
5
100
AcDbSymbolTableRecord
100
AcDbLinetypeTableRecord
  2
BORDER
 70
     0
  3
Border __ __ . __ __ . __ __ . __ __ . __ __ .
 72
    65
 73
     6
 40
44.45
 49
12.7
 74
     0
 49
-6.349999999999999
 74
     0
 49
12.7
 74
     0
 49
-6.349999999999999
 74
     0
 49
0.0
 74
     0
 49
-6.349999999999999
 74
     0
  0
LTYPE
  5
8D
330
5
100
AcDbSymbolTableRecord
100
AcDbLinetypeTableRecord
  2
BORDER2
 70
     0
  3
Border (.5x) __.__.__.__.__.__.__.__.__.__.__.
 72
    65
 73
     6
 40
22.225
 49
6.349999999999999
 74
     0
 49
-3.174999999999999
 74
     0
 49
6.349999999999999
 74
     0
 49
-3.174999999999999
 74
     0
 49
0.0
 74
     0
 49
-3.174999999999999
 74
     0
  0
LTYPE
  5
8E
330
5
100
AcDbSymbolTableRecord
100
AcDbLinetypeTableRecord
  2
BORDERX2
 70
     0
  3
Border (2x) ____  ____  .  ____  ____  .  ___
 72
    65
 73
     6
 40
88.9
 49
25.4
 74
     0
 49
-12.7
 74
     0
 49
25.4
 74
     0
 49
-12.7
 74
     0
 49
0.0
 74
     0
 49
-12.7
 74
     0
  0
LTYPE
  5
8F
330
5
100
AcDbSymbolTableRecord
100
AcDbLinetypeTableRecord
  2
CENTER
 70
     0
  3
Center ____ _ ____ _ ____ _ ____ _ ____ _ ____
 72
    65
 73
     4
 40
50.8
 49
31.75
 74
     0
 49
-6.349999999999999
 74
     0
 49
6.349999999999999
 74
     0
 49
-6.349999999999999
 74
     0
  0
LTYPE
  5
90
330
5
100
AcDbSymbolTableRecord
100
AcDbLinetypeTableRecord
  2
CENTER2
 70
     0
  3
Center (.5x) ___ _ ___ _ ___ _ ___ _ ___ _ ___
 72
    65
 73
     4
 40
28.575
 49
19.05
 74
     0
 49
-3.174999999999999
 74
     0
 49
3.174999999999999
 74
     0
 49
-3.174999999999999
 74
     0
  0
LTYPE
  5
91
330
5
100
AcDbSymbolTableRecord
100
AcDbLinetypeTableRecord
  2
CENTERX2
 70
     0
  3
Center (2x) ________  __  ________  __  _____
 72
    65
 73
     4
 40
101.6
 49
63.5
 74
     0
 49
-12.7
 74
     0
 49
12.7
 74
     0
 49
-12.7
 74
     0
  0
LTYPE
  5
92
330
5
100
AcDbSymbolTableRecord
100
AcDbLinetypeTableRecord
  2
DASHDOT2
 70
     0
  3
Dash dot (.5x) _._._._._._._._._._._._._._._.
 72
    65
 73
     4
 40
12.7
 49
6.349999999999999
 74
     0
 49
-3.174999999999999
 74
     0
 49
0.0
 74
     0
 49
-3.174999999999999
 74
     0
  0
LTYPE
  5
93
330
5
100
AcDbSymbolTableRecord
100
AcDbLinetypeTableRecord
  2
DASHDOTX2
 70
     0
  3
Dash dot (2x) ____  .  ____  .  ____  .  ___
 72
    65
 73
     4
 40
50.8
 49
25.4
 74
     0
 49
-12.7
 74
     0
 49
0.0
 74
     0
 49
-12.7
 74
     0
  0
LTYPE
  5
94
330
5
100
AcDbSymbolTableRecord
100
AcDbLinetypeTableRecord
  2
DASHED2
 70
     0
  3
Dashed (.5x) _ _ _ _ _ _ _ _ _ _ _ _ _ _ _ _ _
 72
    65
 73
     2
 40
9.524999999999998
 49
6.349999999999999
 74
     0
 49
-3.174999999999999
 74
     0
  0
LTYPE
  5
95
330
5
100
AcDbSymbolTableRecord
100
AcDbLinetypeTableRecord
  2
DASHEDX2
 70
     0
  3
Dashed (2x) ____  ____  ____  ____  ____  ___
 72
    65
 73
     2
 40
38.1
 49
25.4
 74
     0
 49
-12.7
 74
     0
  0
LTYPE
  5
96
330
5
100
AcDbSymbolTableRecord
100
AcDbLinetypeTableRecord
  2
DIVIDE
 70
     0
  3
Divide ____ . . ____ . . ____ . . ____ . . ____
 72
    65
 73
     6
 40
31.75
 49
12.7
 74
     0
 49
-6.349999999999999
 74
     0
 49
0.0
 74
     0
 49
-6.349999999999999
 74
     0
 49
0.0
 74
     0
 49
-6.349999999999999
 74
     0
  0
LTYPE
  5
97
330
5
100
AcDbSymbolTableRecord
100
AcDbLinetypeTableRecord
  2
DIVIDE2
 70
     0
  3
Divide (.5x) __..__..__..__..__..__..__..__.._
 72
    65
 73
     6
 40
15.875
 49
6.349999999999999
 74
     0
 49
-3.174999999999999
 74
     0
 49
0.0
 74
     0
 49
-3.174999999999999
 74
     0
 49
0.0
 74
     0
 49
-3.174999999999999
 74
     0
  0
LTYPE
  5
98
330
5
100
AcDbSymbolTableRecord
100
AcDbLinetypeTableRecord
  2
DIVIDEX2
 70
     0
  3
Divide (2x) ________  .  .  ________  .  .  _
 72
    65
 73
     6
 40
63.49999999999999
 49
25.4
 74
     0
 49
-12.7
 74
     0
 49
0.0
 74
     0
 49
-12.7
 74
     0
 49
0.0
 74
     0
 49
-12.7
 74
     0
  0
LTYPE
  5
99
330
5
100
AcDbSymbolTableRecord
100
AcDbLinetypeTableRecord
  2
DOT
 70
     0
  3
Dot . . . . . . . . . . . . . . . . . . . . . .
 72
    65
 73
     2
 40
6.349999999999999
 49
0.0
 74
     0
 49
-6.349999999999999
 74
     0
  0
LTYPE
  5
9A
330
5
100
AcDbSymbolTableRecord
100
AcDbLinetypeTableRecord
  2
DOT2
 70
     0
  3
Dot (.5x) .....................................
 72
    65
 73
     2
 40
3.174999999999999
 49
0.0
 74
     0
 49
-3.174999999999999
 74
     0
  0
LTYPE
  5
9B
330
5
100
AcDbSymbolTableRecord
100
AcDbLinetypeTableRecord
  2
DOTX2
 70
     0
  3
Dot (2x) .  .  .  .  .  .  .  .  .  .  .  .  . 
 72
    65
 73
     2
 40
12.7
 49
0.0
 74
     0
 49
-12.7
 74
     0
  0
LTYPE
  5
9C
330
5
100
AcDbSymbolTableRecord
100
AcDbLinetypeTableRecord
  2
HIDDEN
 70
     0
  3
Hidden __ __ __ __ __ __ __ __ __ __ __ __ __ _
 72
    65
 73
     2
 40
9.524999999999998
 49
6.349999999999999
 74
     0
 49
-3.174999999999999
 74
     0
  0
LTYPE
  5
9D
330
5
100
AcDbSymbolTableRecord
100
AcDbLinetypeTableRecord
  2
HIDDEN2
 70
     0
  3
Hidden (.5x) _ _ _ _ _ _ _ _ _ _ _ _ _ _ _ _ _
 72
    65
 73
     2
 40
4.762499999999999
 49
3.174999999999999
 74
     0
 49
-1.587499999999999
 74
     0
  0
LTYPE
  5
9E
330
5
100
AcDbSymbolTableRecord
100
AcDbLinetypeTableRecord
  2
HIDDENX2
 70
     0
  3
Hidden (2x) ____ ____ ____ ____ ____ ____ ____
 72
    65
 73
     2
 40
19.05
 49
12.7
 74
     0
 49
-6.349999999999999
 74
     0
  0
LTYPE
  5
9F
330
5
100
AcDbSymbolTableRecord
100
AcDbLinetypeTableRecord
  2
PHANTOM
 70
     0
  3
Phantom ______  __  __  ______  __  __  ______
 72
    65
 73
     6
 40
63.5
 49
31.75
 74
     0
 49
-6.349999999999999
 74
     0
 49
6.349999999999999
 74
     0
 49
-6.349999999999999
 74
     0
 49
6.349999999999999
 74
     0
 49
-6.349999999999999
 74
     0
  0
LTYPE
  5
A0
330
5
100
AcDbSymbolTableRecord
100
AcDbLinetypeTableRecord
  2
PHANTOM2
 70
     0
  3
Phantom (.5x) ___ _ _ ___ _ _ ___ _ _ ___ _ _
 72
    65
 73
     6
 40
31.75
 49
15.875
 74
     0
 49
-3.174999999999999
 74
     0
 49
3.174999999999999
 74
     0
 49
-3.174999999999999
 74
     0
 49
3.174999999999999
 74
     0
 49
-3.174999999999999
 74
     0
  0
LTYPE
  5
A1
330
5
100
AcDbSymbolTableRecord
100
AcDbLinetypeTableRecord
  2
PHANTOMX2
 70
     0
  3
Phantom (2x) ____________    ____    ____   _
 72
    65
 73
     6
 40
127.0
 49
63.5
 74
     0
 49
-12.7
 74
     0
 49
12.7
 74
     0
 49
-12.7
 74
     0
 49
12.7
 74
     0
 49
-12.7
 74
     0
  0
LTYPE
  5
A2
330
5
100
AcDbSymbolTableRecord
100
AcDbLinetypeTableRecord
  2
ACAD_ISO02W100
 70
     0
  3
ISO dash __ __ __ __ __ __ __ __ __ __ __ __ __
 72
    65
 73
     2
 40
15.0
 49
12.0
 74
     0
 49
-3.0
 74
     0
  0
LTYPE
  5
A3
330
5
100
AcDbSymbolTableRecord
100
AcDbLinetypeTableRecord
  2
ACAD_ISO03W100
 70
     0
  3
ISO dash space __    __    __    __    __    __
 72
    65
 73
     2
 40
30.0
 49
12.0
 74
     0
 49
-18.0
 74
     0
  0
LTYPE
  5
A4
330
5
100
AcDbSymbolTableRecord
100
AcDbLinetypeTableRecord
  2
ACAD_ISO04W100
 70
     0
  3
ISO long-dash dot ____ . ____ . ____ . ____ . _
 72
    65
 73
     4
 40
30.0
 49
24.0
 74
     0
 49
-3.0
 74
     0
 49
0.0
 74
     0
 49
-3.0
 74
     0
  0
LTYPE
  5
A5
330
5
100
AcDbSymbolTableRecord
100
AcDbLinetypeTableRecord
  2
ACAD_ISO05W100
 70
     0
  3
ISO long-dash double-dot ____ .. ____ .. ____ .
 72
    65
 73
     6
 40
33.0
 49
24.0
 74
     0
 49
-3.0
 74
     0
 49
0.0
 74
     0
 49
-3.0
 74
     0
 49
0.0
 74
     0
 49
-3.0
 74
     0
  0
LTYPE
  5
A6
330
5
100
AcDbSymbolTableRecord
100
AcDbLinetypeTableRecord
  2
ACAD_ISO06W100
 70
     0
  3
ISO long-dash triple-dot ____ ... ____ ... ____
 72
    65
 73
     8
 40
36.0
 49
24.0
 74
     0
 49
-3.0
 74
     0
 49
0.0
 74
     0
 49
-3.0
 74
     0
 49
0.0
 74
     0
 49
-3.0
 74
     0
 49
0.0
 74
     0
 49
-3.0
 74
     0
  0
LTYPE
  5
A7
330
5
100
AcDbSymbolTableRecord
100
AcDbLinetypeTableRecord
  2
ACAD_ISO07W100
 70
     0
  3
ISO dot . . . . . . . . . . . . . . . . . . . .
 72
    65
 73
     2
 40
3.0
 49
0.0
 74
     0
 49
-3.0
 74
     0
  0
LTYPE
  5
A8
330
5
100
AcDbSymbolTableRecord
100
AcDbLinetypeTableRecord
  2
ACAD_ISO08W100
 70
     0
  3
ISO long-dash short-dash ____ __ ____ __ ____ _
 72
    65
 73
     4
 40
36.0
 49
24.0
 74
     0
 49
-3.0
 74
     0
 49
6.0
 74
     0
 49
-3.0
 74
     0
  0
LTYPE
  5
A9
330
5
100
AcDbSymbolTableRecord
100
AcDbLinetypeTableRecord
  2
ACAD_ISO09W100
 70
     0
  3
ISO long-dash double-short-dash ____ __ __ ____
 72
    65
 73
     6
 40
45.0
 49
24.0
 74
     0
 49
-3.0
 74
     0
 49
6.0
 74
     0
 49
-3.0
 74
     0
 49
6.0
 74
     0
 49
-3.0
 74
     0
  0
LTYPE
  5
AA
330
5
100
AcDbSymbolTableRecord
100
AcDbLinetypeTableRecord
  2
ACAD_ISO10W100
 70
     0
  3
ISO dash dot __ . __ . __ . __ . __ . __ . __ .
 72
    65
 73
     4
 40
18.0
 49
12.0
 74
     0
 49
-3.0
 74
     0
 49
0.0
 74
     0
 49
-3.0
 74
     0
  0
LTYPE
  5
AB
330
5
100
AcDbSymbolTableRecord
100
AcDbLinetypeTableRecord
  2
ACAD_ISO11W100
 70
     0
  3
ISO double-dash dot __ __ . __ __ . __ __ . __ 
 72
    65
 73
     6
 40
33.0
 49
12.0
 74
     0
 49
-3.0
 74
     0
 49
12.0
 74
     0
 49
-3.0
 74
     0
 49
0.0
 74
     0
 49
-3.0
 74
     0
  0
LTYPE
  5
AC
330
5
100
AcDbSymbolTableRecord
100
AcDbLinetypeTableRecord
  2
ACAD_ISO12W100
 70
     0
  3
ISO dash double-dot __ . . __ . . __ . . __ . .
 72
    65
 73
     6
 40
21.0
 49
12.0
 74
     0
 49
-3.0
 74
     0
 49
0.0
 74
     0
 49
-3.0
 74
     0
 49
0.0
 74
     0
 49
-3.0
 74
     0
  0
LTYPE
  5
AD
330
5
100
AcDbSymbolTableRecord
100
AcDbLinetypeTableRecord
  2
ACAD_ISO13W100
 70
     0
  3
ISO double-dash double-dot __ __ . . __ __ . . 
 72
    65
 73
     8
 40
36.0
 49
12.0
 74
     0
 49
-3.0
 74
     0
 49
12.0
 74
     0
 49
-3.0
 74
     0
 49
0.0
 74
     0
 49
-3.0
 74
     0
 49
0.0
 74
     0
 49
-3.0
 74
     0
  0
LTYPE
  5
AE
330
5
100
AcDbSymbolTableRecord
100
AcDbLinetypeTableRecord
  2
ACAD_ISO14W100
 70
     0
  3
ISO dash triple-dot __ . . . __ . . . __ . . . 
 72
    65
 73
     8
 40
24.0
 49
12.0
 74
     0
 49
-3.0
 74
     0
 49
0.0
 74
     0
 49
-3.0
 74
     0
 49
0.0
 74
     0
 49
-3.0
 74
     0
 49
0.0
 74
     0
 49
-3.0
 74
     0
  0
LTYPE
  5
AF
330
5
100
AcDbSymbolTableRecord
100
AcDbLinetypeTableRecord
  2
ACAD_ISO15W100
 70
     0
  3
ISO double-dash triple-dot __ __ . . . __ __ . 
 72
    65
 73
    10
 40
39.0
 49
12.0
 74
     0
 49
-3.0
 74
     0
 49
12.0
 74
     0
 49
-3.0
 74
     0
 49
0.0
 74
     0
 49
-3.0
 74
     0
 49
0.0
 74
     0
 49
-3.0
 74
     0
 49
0.0
 74
     0
 49
-3.0
 74
     0
  0
LTYPE
  5
B2
330
5
100
AcDbSymbolTableRecord
100
AcDbLinetypeTableRecord
  2
FENCELINE1
 70
     0
  3
Fenceline circle ----0-----0----0-----0----0---
 72
    65
 73
     4
 40
36.83
 49
6.349999999999999
 74
     0
 49
-2.54
 74
     4
 75
   133
340
B1
 46
2.54
 50
0.0
 44
-2.54
 45
0.0
 49
-2.54
 74
     0
 49
25.4
 74
     0
  0
LTYPE
  5
B3
330
5
100
AcDbSymbolTableRecord
100
AcDbLinetypeTableRecord
  2
FENCELINE2
 70
     0
  3
Fenceline square ----[]-----[]----[]-----[]----
 72
    65
 73
     4
 40
36.83
 49
6.349999999999999
 74
     0
 49
-2.54
 74
     4
 75
   132
340
B1
 46
2.54
 50
0.0
 44
-2.54
 45
0.0
 49
-2.54
 74
     0
 49
25.4
 74
     0
  0
LTYPE
  5
B4
330
5
100
AcDbSymbolTableRecord
100
AcDbLinetypeTableRecord
  2
TRACKS
 70
     0
  3
Tracks -|-|-|-|-|-|-|-|-|-|-|-|-|-|-|-|-|-|-|-|
 72
    65
 73
     2
 40
7.62
 49
3.81
 74
     4
 75
   130
340
B1
 46
6.349999999999999
 50
0.0
 44
0.0
 45
0.0
 49
3.81
 74
     0
  0
LTYPE
  5
B5
330
5
100
AcDbSymbolTableRecord
100
AcDbLinetypeTableRecord
  2
BATTING
 70
     0
  3
Batting SSSSSSSSSSSSSSSSSSSSSSSSSSSSSSSSSSSSSSS
 72
    65
 73
     4
 40
10.16254
 49
0.00254
 74
     0
 49
-2.54
 74
     4
 75
   134
340
B1
 46
2.54
 50
0.0
 44
-2.54
 45
0.0
 49
-5.08
 74
     4
 75
   134
340
B1
 46
2.54
 50
180.0
 44
2.54
 45
0.0
 49
-2.54
 74
     0
  0
LTYPE
  5
B6
330
5
100
AcDbSymbolTableRecord
100
AcDbLinetypeTableRecord
  2
HOT_WATER_SUPPLY
 70
     0
  3
Hot water supply ---- HW ---- HW ---- HW ----
 72
    65
 73
     3
 40
22.86
 49
12.7
 74
     0
 49
-5.08
 74
     2
 75
     0
340
5D
 46
2.54
 50
0.0
 44
-2.54
 45
-1.27
  9
HW
 49
-5.08
 74
     0
  0
LTYPE
  5
B7
330
5
100
AcDbSymbolTableRecord
100
AcDbLinetypeTableRecord
  2
GAS_LINE
 70
     0
  3
Gas line ----GAS----GAS----GAS----GAS----GAS---
 72
    65
 73
     3
 40
24.13
 49
12.7
 74
     0
 49
-5.08
 74
     2
 75
     0
340
5D
 46
2.54
 50
0.0
 44
-2.54
 45
-1.27
  9
GAS
 49
-6.349999999999999
 74
     0
  0
LTYPE
  5
B8
330
5
100
AcDbSymbolTableRecord
100
AcDbLinetypeTableRecord
  2
ZIGZAG
 70
     0
  3
Zig zag /\/\/\/\/\/\/\/\/\/\/\/\/\/\/\/\/\/\/\/
 72
    65
 73
     4
 40
20.32254
 49
0.00254
 74
     0
 49
-5.08
 74
     4
 75
   131
340
B1
 46
5.08
 50
0.0
 44
-5.08
 45
0.0
 49
-10.16
 74
     4
 75
   131
340
B1
 46
5.08
 50
180.0
 44
5.08
 45
0.0
 49
-5.08
 74
     0
  0
ENDTAB
  0
TABLE
  2
LAYER
  5
2
330
0
100
AcDbSymbolTable
 70
    25
  0
LAYER
  5
5C
330
2
100
AcDbSymbolTableRecord
100
AcDbLayerTableRecord
  2
0
 70
     0
 62
     7
  6
Continuous
370
    -3
390
F
  0
LAYER
  5
CC
330
2
100
AcDbSymbolTableRecord
100
AcDbLayerTableRecord
  2
Visible (ISO)
 70
     0
 62
     7
  6
Continuous
370
    50
390
F
  0
ENDTAB
  0
TABLE
  2
STYLE
  5
3
330
0
100
AcDbSymbolTable
 70
     3
  0
STYLE
  5
5D
330
3
100
AcDbSymbolTableRecord
100
AcDbTextStyleTableRecord
  2
Standard
 70
     0
 40
0.0
 41
1.0
 50
0.0
 71
     0
 42
0.2
  3
TAHOMA.TTF
  4

1001
ACAD
1000
Tahoma
1071
      256
  0
STYLE
  5
62
330
3
100
AcDbSymbolTableRecord
100
AcDbTextStyleTableRecord
  2
Annotative
 70
     0
 40
0.0
 41
1.0
 50
0.0
 71
     0
 42
0.2
  3

  4

1001
AcadAnnotative
1000
AnnotativeData
1002
{
1070
     1
1070
     1
1002
}
  0
STYLE
  5
B1
330
3
100
AcDbSymbolTableRecord
100
AcDbTextStyleTableRecord
  2

 70
     1
 40
0.0
 41
1.0
 50
0.0
 71
     0
 42
0.2
  3
ltypeshp.shx
  4

  0
ENDTAB
  0
TABLE
  2
VIEW
  5
6
330
0
100
AcDbSymbolTable
 70
     0
  0
ENDTAB
  0
TABLE
  2
UCS
  5
7
330
0
100
AcDbSymbolTable
 70
     0
  0
ENDTAB
  0
TABLE
  2
APPID
  5
9
330
0
100
AcDbSymbolTable
 70
     3
  0
APPID
  5
5E
330
9
100
AcDbSymbolTableRecord
100
AcDbRegAppTableRecord
  2
ACAD
 70
     0
  0
APPID
  5
66
330
9
100
AcDbSymbolTableRecord
100
AcDbRegAppTableRecord
  2
AcadAnnotative
 70
     0
  0
APPID
  5
70
330
9
100
AcDbSymbolTableRecord
100
AcDbRegAppTableRecord
  2
ACAD_MLEADERVER
 70
     0
  0
ENDTAB
  0
TABLE
  2
DIMSTYLE
  5
A
330
0
100
AcDbSymbolTable
 70
     2
100
AcDbDimStyleTable
 71
     0
  0
DIMSTYLE
105
60
330
A
100
AcDbSymbolTableRecord
100
AcDbDimStyleTableRecord
  2
Standard
 70
     0
340
5D
  0
DIMSTYLE
105
61
330
A
100
AcDbSymbolTableRecord
100
AcDbDimStyleTableRecord
  2
Annotative
 70
     0
340
5D
1001
AcadAnnotative
1000
AnnotativeData
1002
{
1070
     1
1070
     1
1002
}
  0
ENDTAB
  0
TABLE
  2
BLOCK_RECORD
  5
1
330
0
100
AcDbSymbolTable
 70
     1
  0
BLOCK_RECORD
  5
75
330
1
100
AcDbSymbolTableRecord
100
AcDbBlockTableRecord
  2
*Model_Space
340
78
  0
BLOCK_RECORD
  5
71
330
1
100
AcDbSymbolTableRecord
100
AcDbBlockTableRecord
  2
*Paper_Space
340
74
  0
BLOCK_RECORD
  5
79
330
1
100
AcDbSymbolTableRecord
100
AcDbBlockTableRecord
  2
*Paper_Space0
340
7C
  0
ENDTAB
  0
ENDSEC
  0
SECTION
  2
BLOCKS
  0
BLOCK
  5
76
330
75
100
AcDbEntity
  8
0
100
AcDbBlockBegin
  2
*Model_Space
 70
     0
 10
0.0
 20
0.0
 30
0.0
  3
*Model_Space
  1

  0
ENDBLK
  5
77
330
75
100
AcDbEntity
  8
0
100
AcDbBlockEnd
  0
BLOCK
  5
72
330
71
100
AcDbEntity
 67
     1
  8
0
100
AcDbBlockBegin
  2
*Paper_Space
 70
     0
 10
0.0
 20
0.0
 30
0.0
  3
*Paper_Space
  1

  0
ENDBLK
  5
73
330
71
100
AcDbEntity
 67
     1
  8
0
100
AcDbBlockEnd
  0
BLOCK
  5
7A
330
79
100
AcDbEntity
 67
     1
  8
0
100
AcDbBlockBegin
  2
*Paper_Space0
 70
     0
 10
0.0
 20
0.0
 30
0.0
  3
*Paper_Space0
  1

  0
ENDBLK
  5
7B
330
79
100
AcDbEntity
 67
     1
  8
0
100
AcDbBlockEnd
  0
ENDSEC
  0
SECTION
  2
ENTITIES
  0
CIRCLE
  5
D1
330
75
100
AcDbEntity
  8
Visible (ISO)
100
AcDbCircle
 10
69.32324262449927
 20
59.60706556011249
 30
0.0
 40
1.425
  0
CIRCLE
  5
D2
330
75
100
AcDbEntity
  8
Visible (ISO)
100
AcDbCircle
 10
97.51402124807654
 20
49.34646126034242
 30
0.0
 40
1.425
  0
CIRCLE
  5
D3
330
75
100
AcDbEntity
  8
Visible (ISO)
100
AcDbCircle
 10
66.70114829069183
 20
15.31576591949306
 30
0.0
 40
1.425
  0
CIRCLE
  5
D4
330
75
100
AcDbEntity
  8
Visible (ISO)
100
AcDbCircle
 10
82.70114829069179
 20
15.31576591949306
 30
0.0
 40
1.425
  0
CIRCLE
  5
D5
330
75
100
AcDbEntity
  8
Visible (ISO)
100
AcDbCircle
 10
66.70114829069183
 20
37.31576591949307
 30
0.0
 40
1.425
  0
LINE
  5
D6
330
75
100
AcDbEntity
  8
Visible (ISO)
100
AcDbLine
 10
84.77339147712534
 20
27.46576591949305
 30
0.0
 11
86.24563466355889
 21
24.91576591949306
 31
0.0
  0
LINE
  5
D7
330
75
100
AcDbEntity
  8
Visible (ISO)
100
AcDbLine
 10
86.24563466355889
 20
24.91576591949306
 30
0.0
 11
84.77339147712534
 21
22.36576591949306
 31
0.0
  0
LINE
  5
D8
330
75
100
AcDbEntity
  8
Visible (ISO)
100
AcDbLine
 10
84.77339147712534
 20
22.36576591949306
 30
0.0
 11
81.82890510425826
 21
22.36576591949305
 31
0.0
  0
LINE
  5
D9
330
75
100
AcDbEntity
  8
Visible (ISO)
100
AcDbLine
 10
81.82890510425826
 20
22.36576591949305
 30
0.0
 11
80.35666191782471
 21
24.91576591949305
 31
0.0
  0
LINE
  5
DA
330
75
100
AcDbEntity
  8
Visible (ISO)
100
AcDbLine
 10
80.35666191782471
 20
24.91576591949305
 30
0.0
 11
81.82890510425824
 21
27.46576591949305
 31
0.0
  0
LINE
  5
DB
330
75
100
AcDbEntity
  8
Visible (ISO)
100
AcDbLine
 10
81.82890510425824
 20
27.46576591949305
 30
0.0
 11
84.77339147712534
 21
27.46576591949305
 31
0.0
  0
LINE
  5
DC
330
75
100
AcDbEntity
  8
Visible (ISO)
100
AcDbLine
 10
92.77339147712533
 20
35.26576591949306
 30
0.0
 11
94.24563466355889
 21
32.71576591949305
 31
0.0
  0
LINE
  5
DD
330
75
100
AcDbEntity
  8
Visible (ISO)
100
AcDbLine
 10
94.24563466355889
 20
32.71576591949305
 30
0.0
 11
92.77339147712536
 21
30.16576591949305
 31
0.0
  0
LINE
  5
DE
330
75
100
AcDbEntity
  8
Visible (ISO)
100
AcDbLine
 10
92.77339147712536
 20
30.16576591949305
 30
0.0
 11
89.82890510425825
 21
30.16576591949306
 31
0.0
  0
LINE
  5
DF
330
75
100
AcDbEntity
  8
Visible (ISO)
100
AcDbLine
 10
89.82890510425825
 20
30.16576591949306
 30
0.0
 11
88.3566619178247
 21
32.71576591949306
 31
0.0
  0
LINE
  5
E0
330
75
100
AcDbEntity
  8
Visible (ISO)
100
AcDbLine
 10
88.3566619178247
 20
32.71576591949306
 30
0.0
 11
89.82890510425825
 21
35.26576591949305
 31
0.0
  0
LINE
  5
E1
330
75
100
AcDbEntity
  8
Visible (ISO)
100
AcDbLine
 10
89.82890510425825
 20
35.26576591949305
 30
0.0
 11
92.77339147712533
 21
35.26576591949306
 31
0.0
  0
LINE
  5
E2
330
75
100
AcDbEntity
  8
Visible (ISO)
100
AcDbLine
 10
92.77339147712536
 20
27.46576591949305
 30
0.0
 11
94.24563466355889
 21
24.91576591949306
 31
0.0
  0
LINE
  5
E3
330
75
100
AcDbEntity
  8
Visible (ISO)
100
AcDbLine
 10
94.24563466355889
 20
24.91576591949306
 30
0.0
 11
92.77339147712536
 21
22.36576591949305
 31
0.0
  0
LINE
  5
E4
330
75
100
AcDbEntity
  8
Visible (ISO)
100
AcDbLine
 10
92.77339147712536
 20
22.36576591949305
 30
0.0
 11
89.82890510425825
 21
22.36576591949305
 31
0.0
  0
LINE
  5
E5
330
75
100
AcDbEntity
  8
Visible (ISO)
100
AcDbLine
 10
89.82890510425825
 20
22.36576591949305
 30
0.0
 11
88.3566619178247
 21
24.91576591949306
 31
0.0
  0
LINE
  5
E6
330
75
100
AcDbEntity
  8
Visible (ISO)
100
AcDbLine
 10
88.3566619178247
 20
24.91576591949306
 30
0.0
 11
89.82890510425825
 21
27.46576591949305
 31
0.0
  0
LINE
  5
E7
330
75
100
AcDbEntity
  8
Visible (ISO)
100
AcDbLine
 10
89.82890510425825
 20
27.46576591949305
 30
0.0
 11
92.77339147712536
 21
27.46576591949305
 31
0.0
  0
LINE
  5
E8
330
75
100
AcDbEntity
  8
Visible (ISO)
100
AcDbLine
 10
81.32161843248708
 20
35.26576591949306
 30
0.0
 11
84.77339147712534
 21
35.26576591949306
 31
0.0
  0
LINE
  5
E9
330
75
100
AcDbEntity
  8
Visible (ISO)
100
AcDbLine
 10
84.77339147712534
 20
35.26576591949306
 30
0.0
 11
86.24563466355889
 21
32.71576591949306
 31
0.0
  0
LINE
  5
EA
330
75
100
AcDbEntity
  8
Visible (ISO)
100
AcDbLine
 10
86.24563466355889
 20
32.71576591949306
 30
0.0
 11
84.77339147712534
 21
30.16576591949306
 31
0.0
  0
LINE
  5
EB
330
75
100
AcDbEntity
  8
Visible (ISO)
100
AcDbLine
 10
84.77339147712534
 20
30.16576591949306
 30
0.0
 11
81.82890510425824
 21
30.16576591949306
 31
0.0
  0
LINE
  5
EC
330
75
100
AcDbEntity
  8
Visible (ISO)
100
AcDbLine
 10
81.82890510425824
 20
30.16576591949306
 30
0.0
 11
80.37925274205035
 21
32.67663746414939
 31
0.0
  0
LINE
  5
ED
330
75
100
AcDbEntity
  8
Visible (ISO)
100
AcDbLine
 10
74.26562434487173
 20
15.8795814919646
 30
0.0
 11
80.37925274205035
 21
32.67663746414939
 31
0.0
  0
LINE
  5
EE
330
75
100
AcDbEntity
  8
Visible (ISO)
100
AcDbLine
 10
65.97905572011753
 20
18.25713915209381
 30
0.0
 11
73.4965966864048
 21
15.52097800548846
 31
0.0
  0
LINE
  5
EF
330
75
100
AcDbEntity
  8
Visible (ISO)
100
AcDbLine
 10
82.17422717060374
 20
64.50728965659874
 30
0.0
 11
65.62045223364139
 21
19.02616681056077
 31
0.0
  0
LINE
  5
F0
330
75
100
AcDbEntity
  8
Visible (ISO)
100
AcDbLine
 10
76.86496386316337
 20
66.43970346638875
 30
0.0
 11
82.17422717060374
 21
64.50728965659874
 31
0.0
  0
LINE
  5
F1
330
75
100
AcDbEntity
  8
Visible (ISO)
100
AcDbLine
 10
78.35326915064583
 20
72.28307127709959
 30
0.0
 11
76.50636037668721
 21
67.20873112485569
 31
0.0
  0
LINE
  5
F2
330
75
100
AcDbEntity
  8
Visible (ISO)
100
AcDbLine
 10
74.45354477438431
 20
73.70245487190115
 30
0.0
 11
78.35326915064583
 21
72.28307127709959
 31
0.0
  0
LINE
  5
F3
330
75
100
AcDbEntity
  8
Visible (ISO)
100
AcDbLine
 10
72.40142391443028
 20
68.06429914718567
 30
0.0
 11
74.45354477438431
 21
73.70245487190115
 31
0.0
  0
LINE
  5
F4
330
75
100
AcDbEntity
  8
Visible (ISO)
100
AcDbLine
 10
72.58936243858747
 20
67.99589511852054
 30
0.0
 11
72.40142391443028
 21
68.06429914718567
 31
0.0
  0
LINE
  5
F5
330
75
100
AcDbEntity
  8
Visible (ISO)
100
AcDbLine
 10
71.99030952375174
 20
64.59572812185306
 30
0.0
 11
72.94796592506362
 21
67.2268674600536
 31
0.0
  0
LINE
  5
F6
330
75
100
AcDbEntity
  8
Visible (ISO)
100
AcDbLine
 10
71.03334334112762
 20
64.30552866404204
 30
0.0
 11
71.22128186528481
 21
64.2371246353769
 31
0.0
  0
LINE
  5
F7
330
75
100
AcDbEntity
  8
Visible (ISO)
100
AcDbLine
 10
70.55451514047168
 20
62.98995899494177
 30
0.0
 11
71.03334334112762
 21
64.30552866404204
 31
0.0
  0
LINE
  5
F8
330
75
100
AcDbEntity
  8
Visible (ISO)
100
AcDbLine
 10
65.27496290223239
 20
64.27305219642883
 30
0.0
 11
69.78548748200473
 21
62.63135550846563
 31
0.0
  0
LINE
  5
F9
330
75
100
AcDbEntity
  8
Visible (ISO)
100
AcDbLine
 10
65.39518761641217
 20
66.35764952399606
 30
0.0
 11
64.91635941575625
 21
65.04207985489578
 31
0.0
  0
LINE
  5
FA
330
75
100
AcDbEntity
  8
Visible (ISO)
100
AcDbLine
 10
65.20724909225498
 20
66.42605355266119
 30
0.0
 11
65.39518761641217
 21
66.35764952399606
 31
0.0
  0
LINE
  5
FB
330
75
100
AcDbEntity
  8
Visible (ISO)
100
AcDbLine
 10
65.80630200709072
 20
69.82622054932868
 30
0.0
 11
64.84864560577884
 21
67.19508121112813
 31
0.0
  0
LINE
  5
FC
330
75
100
AcDbEntity
  8
Visible (ISO)
100
AcDbLine
 10
66.76326818971485
 20
70.11642000713968
 30
0.0
 11
66.57532966555766
 21
70.18482403580482
 31
0.0
  0
LINE
  5
FD
330
75
100
AcDbEntity
  8
Visible (ISO)
100
AcDbLine
 10
68.81538904966887
 20
75.75457573185516
 30
0.0
 11
66.76326818971485
 21
70.11642000713968
 31
0.0
  0
LINE
  5
FE
330
75
100
AcDbEntity
  8
Visible (ISO)
100
AcDbLine
 10
65.05661856652523
 20
77.12265630515782
 30
0.0
 11
68.81538904966887
 21
75.75457573185516
 31
0.0
  0
LINE
  5
FF
330
75
100
AcDbEntity
  8
Visible (ISO)
100
AcDbLine
 10
55.12881241996007
 20
49.8462330927472
 30
0.0
 11
65.05661856652523
 21
77.12265630515782
 31
0.0
  0
LINE
  5
100
330
75
100
AcDbEntity
  8
Visible (ISO)
100
AcDbLine
 10
49.70114829069183
 20
8.315765919493053
 30
0.0
 11
49.70114829069183
 21
19.064420193437
 31
0.0
  0
LINE
  5
101
330
75
100
AcDbEntity
  8
Visible (ISO)
100
AcDbLine
 10
55.70114829069182
 20
8.315765919493056
 30
0.0
 11
49.70114829069183
 21
8.315765919493053
 31
0.0
  0
LINE
  5
102
330
75
100
AcDbEntity
  8
Visible (ISO)
100
AcDbLine
 10
55.70114829069182
 20
16.31576591949307
 30
0.0
 11
55.70114829069182
 21
8.315765919493056
 31
0.0
  0
LINE
  5
103
330
75
100
AcDbEntity
  8
Visible (ISO)
100
AcDbLine
 10
55.50114829069183
 20
16.31576591949307
 30
0.0
 11
55.70114829069182
 21
16.31576591949307
 31
0.0
  0
LINE
  5
104
330
75
100
AcDbEntity
  8
Visible (ISO)
100
AcDbLine
 10
54.90114829069181
 20
19.71576591949307
 30
0.0
 11
54.90114829069181
 21
16.91576591949307
 31
0.0
  0
LINE
  5
105
330
75
100
AcDbEntity
  8
Visible (ISO)
100
AcDbLine
 10
55.70114829069182
 20
20.31576591949308
 30
0.0
 11
55.5011482906918
 21
20.31576591949308
 31
0.0
  0
LINE
  5
106
330
75
100
AcDbEntity
  8
Visible (ISO)
100
AcDbLine
 10
55.70114829069182
 20
21.71576591949307
 30
0.0
 11
55.70114829069182
 21
20.31576591949308
 31
0.0
  0
LINE
  5
107
330
75
100
AcDbEntity
  8
Visible (ISO)
100
AcDbLine
 10
61.10114829069182
 20
22.31576591949304
 30
0.0
 11
56.30114829069182
 21
22.31576591949307
 31
0.0
  0
LINE
  5
108
330
75
100
AcDbEntity
  8
Visible (ISO)
100
AcDbLine
 10
61.70114829069182
 20
20.31576591949308
 30
0.0
 11
61.70114829069182
 21
21.71576591949304
 31
0.0
  0
LINE
  5
109
330
75
100
AcDbEntity
  8
Visible (ISO)
100
AcDbLine
 10
61.90114829069184
 20
20.31576591949308
 30
0.0
 11
61.70114829069182
 21
20.31576591949308
 31
0.0
  0
LINE
  5
10A
330
75
100
AcDbEntity
  8
Visible (ISO)
100
AcDbLine
 10
62.50114829069183
 20
16.91576591949307
 30
0.0
 11
62.50114829069182
 21
19.71576591949307
 31
0.0
  0
LINE
  5
10B
330
75
100
AcDbEntity
  8
Visible (ISO)
100
AcDbLine
 10
61.70114829069181
 20
16.31576591949307
 30
0.0
 11
61.9011482906918
 21
16.31576591949307
 31
0.0
  0
LINE
  5
10C
330
75
100
AcDbEntity
  8
Visible (ISO)
100
AcDbLine
 10
61.70114829069181
 20
8.315765919493056
 30
0.0
 11
61.70114829069181
 21
16.31576591949307
 31
0.0
  0
LINE
  5
10D
330
75
100
AcDbEntity
  8
Visible (ISO)
100
AcDbLine
 10
87.70114829069184
 20
8.315765919493056
 30
0.0
 11
61.70114829069181
 21
8.315765919493056
 31
0.0
  0
LINE
  5
10E
330
75
100
AcDbEntity
  8
Visible (ISO)
100
AcDbLine
 10
87.70114829069184
 20
16.31576591949307
 30
0.0
 11
87.70114829069184
 21
8.315765919493056
 31
0.0
  0
LINE
  5
10F
330
75
100
AcDbEntity
  8
Visible (ISO)
100
AcDbLine
 10
87.50114829069183
 20
16.31576591949307
 30
0.0
 11
87.70114829069184
 21
16.31576591949307
 31
0.0
  0
LINE
  5
110
330
75
100
AcDbEntity
  8
Visible (ISO)
100
AcDbLine
 10
86.90114829069182
 20
19.71576591949307
 30
0.0
 11
86.90114829069182
 21
16.91576591949307
 31
0.0
  0
LINE
  5
111
330
75
100
AcDbEntity
  8
Visible (ISO)
100
AcDbLine
 10
87.70114829069184
 20
20.31576591949308
 30
0.0
 11
87.50114829069181
 21
20.31576591949308
 31
0.0
  0
LINE
  5
112
330
75
100
AcDbEntity
  8
Visible (ISO)
100
AcDbLine
 10
87.70114829069184
 20
21.71576591949307
 30
0.0
 11
87.70114829069184
 21
20.31576591949308
 31
0.0
  0
LINE
  5
113
330
75
100
AcDbEntity
  8
Visible (ISO)
100
AcDbLine
 10
93.10114829069181
 20
22.31576591949304
 30
0.0
 11
88.30114829069181
 21
22.31576591949307
 31
0.0
  0
LINE
  5
114
330
75
100
AcDbEntity
  8
Visible (ISO)
100
AcDbLine
 10
93.70114829069182
 20
20.31576591949308
 30
0.0
 11
93.70114829069182
 21
21.71576591949304
 31
0.0
  0
LINE
  5
115
330
75
100
AcDbEntity
  8
Visible (ISO)
100
AcDbLine
 10
93.90114829069183
 20
20.31576591949308
 30
0.0
 11
93.70114829069182
 21
20.31576591949308
 31
0.0
  0
LINE
  5
116
330
75
100
AcDbEntity
  8
Visible (ISO)
100
AcDbLine
 10
94.50114829069182
 20
16.91576591949307
 30
0.0
 11
94.50114829069182
 21
19.71576591949307
 31
0.0
  0
LINE
  5
117
330
75
100
AcDbEntity
  8
Visible (ISO)
100
AcDbLine
 10
93.70114829069182
 20
16.31576591949307
 30
0.0
 11
93.90114829069181
 21
16.31576591949307
 31
0.0
  0
LINE
  5
118
330
75
100
AcDbEntity
  8
Visible (ISO)
100
AcDbLine
 10
93.70114829069182
 20
8.315765919493056
 30
0.0
 11
93.70114829069182
 21
16.31576591949307
 31
0.0
  0
LINE
  5
119
330
75
100
AcDbEntity
  8
Visible (ISO)
100
AcDbLine
 10
99.70114829069181
 20
8.315765919493053
 30
0.0
 11
93.70114829069182
 21
8.315765919493056
 31
0.0
  0
LINE
  5
11A
330
75
100
AcDbEntity
  8
Visible (ISO)
100
AcDbLine
 10
99.70114829069181
 20
10.2480711580138
 30
0.0
 11
99.70114829069181
 21
8.315765919493053
 31
0.0
  0
LINE
  5
11B
330
75
100
AcDbEntity
  8
Visible (ISO)
100
AcDbLine
 10
112.0412496058206
 20
60.02164913887437
 30
0.0
 11
105.12881241996
 21
41.02988405732397
 31
0.0
  0
LINE
  5
11C
330
75
100
AcDbEntity
  8
Visible (ISO)
100
AcDbLine
 10
108.282479122677
 20
61.38972971217707
 30
0.0
 11
112.0412496058206
 21
60.02164913887437
 31
0.0
  0
LINE
  5
11D
330
75
100
AcDbEntity
  8
Visible (ISO)
100
AcDbLine
 10
106.230358262723
 20
55.7515739874616
 30
0.0
 11
108.282479122677
 21
61.38972971217707
 31
0.0
  0
LINE
  5
11E
330
75
100
AcDbEntity
  8
Visible (ISO)
100
AcDbLine
 10
106.4182967868802
 20
55.68316995879647
 30
0.0
 11
106.230358262723
 21
55.7515739874616
 31
0.0
  0
LINE
  5
11F
330
75
100
AcDbEntity
  8
Visible (ISO)
100
AcDbLine
 10
105.8192438720444
 20
52.28300296212897
 30
0.0
 11
106.7769002733563
 21
54.91414230032952
 31
0.0
  0
LINE
  5
120
330
75
100
AcDbEntity
  8
Visible (ISO)
100
AcDbLine
 10
104.8622776894203
 20
51.99280350431798
 30
0.0
 11
105.0502162135775
 21
51.92439947565284
 31
0.0
  0
LINE
  5
121
330
75
100
AcDbEntity
  8
Visible (ISO)
100
AcDbLine
 10
104.3834494887643
 20
50.67723383521769
 30
0.0
 11
104.8622776894203
 21
51.99280350431798
 31
0.0
  0
LINE
  5
122
330
75
100
AcDbEntity
  8
Visible (ISO)
100
AcDbLine
 10
99.1038972505251
 20
51.96032703670476
 30
0.0
 11
103.6144218302974
 21
50.31863034874156
 31
0.0
  0
LINE
  5
123
330
75
100
AcDbEntity
  8
Visible (ISO)
100
AcDbLine
 10
99.22412196470489
 20
54.04492436427197
 30
0.0
 11
98.74529376404893
 21
52.72935469517169
 31
0.0
  0
LINE
  5
124
330
75
100
AcDbEntity
  8
Visible (ISO)
100
AcDbLine
 10
99.0361834405477
 20
54.11332839293712
 30
0.0
 11
99.22412196470489
 21
54.04492436427197
 31
0.0
  0
LINE
  5
125
330
75
100
AcDbEntity
  8
Visible (ISO)
100
AcDbLine
 10
99.63523635538344
 20
57.5134953896046
 30
0.0
 11
98.67757995407158
 21
54.88235605140406
 31
0.0
  0
LINE
  5
126
330
75
100
AcDbEntity
  8
Visible (ISO)
100
AcDbLine
 10
100.5922025380076
 20
57.80369484741561
 30
0.0
 11
100.4042640138503
 21
57.87209887608074
 31
0.0
  0
LINE
  5
127
330
75
100
AcDbEntity
  8
Visible (ISO)
100
AcDbLine
 10
102.6443233979616
 20
63.44185057213107
 30
0.0
 11
100.5922025380076
 21
57.80369484741561
 31
0.0
  0
LINE
  5
128
330
75
100
AcDbEntity
  8
Visible (ISO)
100
AcDbLine
 10
98.74459902170004
 20
64.86123416693259
 30
0.0
 11
102.6443233979616
 21
63.44185057213107
 31
0.0
  0
LINE
  5
129
330
75
100
AcDbEntity
  8
Visible (ISO)
100
AcDbLine
 10
96.89769024774143
 20
59.78689401468869
 30
0.0
 11
98.74459902170004
 21
64.86123416693259
 31
0.0
  0
LINE
  5
12A
330
75
100
AcDbEntity
  8
Visible (ISO)
100
AcDbLine
 10
90.81939928183411
 20
61.36070433800258
 30
0.0
 11
96.12866258927448
 21
59.42829052821254
 31
0.0
  0
LINE
  5
12B
330
75
100
AcDbEntity
  8
Visible (ISO)
100
AcDbLine
 10
81.32161843248708
 20
35.26576591949306
 30
0.0
 11
90.81939928183411
 21
61.36070433800258
 31
0.0
  0
ARC
  5
12C
330
75
100
AcDbEntity
  8
Visible (ISO)
100
AcDbCircle
 10
73.7018087724002
 20
16.08479357796
 30
0.0
 40
0.599999999999996
100
AcDbArc
 50
250.0000000000001
 51
340.0000000000003
  0
ARC
  5
12D
330
75
100
AcDbEntity
  8
Visible (ISO)
100
AcDbCircle
 10
66.18426780611293
 20
18.82095472456536
 30
0.0
 40
0.5999999999999983
100
AcDbArc
 50
159.9999999999999
 51
250.0000000000002
  0
ARC
  5
12E
330
75
100
AcDbEntity
  8
Visible (ISO)
100
AcDbCircle
 10
77.07017594915877
 20
67.00351903886029
 30
0.0
 40
0.5999999999999975
100
AcDbArc
 50
160.0000000000001
 51
250.0000000000001
  0
ARC
  5
12F
330
75
100
AcDbEntity
  8
Visible (ISO)
100
AcDbCircle
 10
72.38415035259206
 20
67.43207954604898
 30
0.0
 40
0.600000000000012
100
AcDbArc
 50
340.0000000000015
 51
69.99999999999959
  0
ARC
  5
130
330
75
100
AcDbEntity
  8
Visible (ISO)
100
AcDbCircle
 10
71.42649395128021
 20
64.80094020784843
 30
0.0
 40
0.5999999999999749
100
AcDbArc
 50
249.9999999999984
 51
340.0000000000023
  0
ARC
  5
131
330
75
100
AcDbEntity
  8
Visible (ISO)
100
AcDbCircle
 10
69.99069956800015
 20
63.19517108093716
 30
0.0
 40
0.5999999999999921
100
AcDbArc
 50
249.9999999999991
 51
340.0000000000009
  0
ARC
  5
132
330
75
100
AcDbEntity
  8
Visible (ISO)
100
AcDbCircle
 10
65.48017498822779
 20
64.83686776890038
 30
0.0
 40
0.5999999999999996
100
AcDbArc
 50
160.0000000000001
 51
249.9999999999993
  0
ARC
  5
133
330
75
100
AcDbEntity
  8
Visible (ISO)
100
AcDbCircle
 10
65.41246117825039
 20
66.98986912513273
 30
0.0
 40
0.5999999999999986
100
AcDbArc
 50
160.0000000000001
 51
249.9999999999993
  0
ARC
  5
134
330
75
100
AcDbEntity
  8
Visible (ISO)
100
AcDbCircle
 10
66.37011757956227
 20
69.62100846333327
 30
0.0
 40
0.6000000000000139
100
AcDbArc
 50
70.00000000000071
 51
159.9999999999988
  0
ARC
  5
135
330
75
100
AcDbEntity
  8
Visible (ISO)
100
AcDbCircle
 10
55.50114829069181
 20
16.91576591949306
 30
0.0
 40
0.5999999999999984
100
AcDbArc
 50
180.0
 51
270.0000000000008
  0
ARC
  5
136
330
75
100
AcDbEntity
  8
Visible (ISO)
100
AcDbCircle
 10
55.50114829069181
 20
19.71576591949307
 30
0.0
 40
0.6000000000000006
100
AcDbArc
 50
90.0000000000017
 51
180.0
  0
ARC
  5
137
330
75
100
AcDbEntity
  8
Visible (ISO)
100
AcDbCircle
 10
56.30114829069182
 20
21.71576591949307
 30
0.0
 40
0.6000000000000028
100
AcDbArc
 50
90.0
 51
180.0
  0
ARC
  5
138
330
75
100
AcDbEntity
  8
Visible (ISO)
100
AcDbCircle
 10
61.10114829069182
 20
21.71576591949304
 30
0.0
 40
0.6000000000000028
100
AcDbArc
 50
0.0
 51
89.99999999999916
  0
ARC
  5
139
330
75
100
AcDbEntity
  8
Visible (ISO)
100
AcDbCircle
 10
61.90114829069182
 20
19.71576591949308
 30
0.0
 40
0.5999999999999939
100
AcDbArc
 50
0.0
 51
90.0
  0
ARC
  5
13A
330
75
100
AcDbEntity
  8
Visible (ISO)
100
AcDbCircle
 10
61.90114829069182
 20
16.91576591949306
 30
0.0
 40
0.5999999999999984
100
AcDbArc
 50
269.9999999999992
 51
0.0
  0
ARC
  5
13B
330
75
100
AcDbEntity
  8
Visible (ISO)
100
AcDbCircle
 10
87.50114829069181
 20
16.91576591949306
 30
0.0
 40
0.5999999999999984
100
AcDbArc
 50
180.0
 51
270.0000000000017
  0
ARC
  5
13C
330
75
100
AcDbEntity
  8
Visible (ISO)
100
AcDbCircle
 10
87.50114829069183
 20
19.71576591949307
 30
0.0
 40
0.6000000000000006
100
AcDbArc
 50
90.0000000000017
 51
180.0
  0
ARC
  5
13D
330
75
100
AcDbEntity
  8
Visible (ISO)
100
AcDbCircle
 10
88.30114829069181
 20
21.71576591949307
 30
0.0
 40
0.6000000000000028
100
AcDbArc
 50
90.0
 51
180.0
  0
ARC
  5
13E
330
75
100
AcDbEntity
  8
Visible (ISO)
100
AcDbCircle
 10
93.10114829069181
 20
21.71576591949304
 30
0.0
 40
0.6000000000000028
100
AcDbArc
 50
0.0
 51
89.99999999999831
  0
ARC
  5
13F
330
75
100
AcDbEntity
  8
Visible (ISO)
100
AcDbCircle
 10
93.90114829069181
 20
19.71576591949308
 30
0.0
 40
0.5999999999999939
100
AcDbArc
 50
0.0
 51
90.0
  0
ARC
  5
140
330
75
100
AcDbEntity
  8
Visible (ISO)
100
AcDbCircle
 10
93.90114829069181
 20
16.91576591949306
 30
0.0
 40
0.5999999999999984
100
AcDbArc
 50
269.9999999999983
 51
0.0
  0
ARC
  5
141
330
75
100
AcDbEntity
  8
Visible (ISO)
100
AcDbCircle
 10
106.2130847008848
 20
55.11935438632492
 30
0.0
 40
0.5999999999999881
100
AcDbArc
 50
339.9999999999999
 51
70.00000000000143
  0
ARC
  5
142
330
75
100
AcDbEntity
  8
Visible (ISO)
100
AcDbCircle
 10
105.2554282995729
 20
52.48821504812436
 30
0.0
 40
0.5999999999999842
100
AcDbArc
 50
249.9999999999979
 51
340.0000000000001
  0
ARC
  5
143
330
75
100
AcDbEntity
  8
Visible (ISO)
100
AcDbCircle
 10
103.8196339162928
 20
50.8824459212131
 30
0.0
 40
0.6000000000000063
100
AcDbArc
 50
250.0000000000004
 51
339.9999999999996
  0
ARC
  5
144
330
75
100
AcDbEntity
  8
Visible (ISO)
100
AcDbCircle
 10
99.3091093365205
 20
52.52414260917631
 30
0.0
 40
0.5999999999999977
100
AcDbArc
 50
160.0000000000012
 51
250.0000000000004
  0
ARC
  5
145
330
75
100
AcDbEntity
  8
Visible (ISO)
100
AcDbCircle
 10
99.2413955265431
 20
54.67714396540866
 30
0.0
 40
0.5999999999999954
100
AcDbArc
 50
159.999999999999
 51
250.0000000000001
  0
ARC
  5
146
330
75
100
AcDbEntity
  8
Visible (ISO)
100
AcDbCircle
 10
100.199051927855
 20
57.30828330360917
 30
0.0
 40
0.6000000000000253
100
AcDbArc
 50
70.00000000000288
 51
159.9999999999994
  0
ARC
  5
147
330
75
100
AcDbEntity
  8
Visible (ISO)
100
AcDbCircle
 10
96.33387467526988
 20
59.9921061006841
 30
0.0
 40
0.6000000000000131
100
AcDbArc
 50
250.0000000000007
 51
339.9999999999989
  0
ARC
  5
148
330
75
100
AcDbEntity
  8
Visible (ISO)
100
AcDbCircle
 10
139.7011482906912
 20
19.06442019343716
 30
0.0
 40
89.99999999999934
100
AcDbArc
 50
159.9999999999999
 51
180.0
  0
ARC
  5
149
330
75
100
AcDbEntity
  8
Visible (ISO)
100
AcDbCircle
 10
189.7011482906915
 20
10.24807115801386
 30
0.0
 40
89.99999999999964
100
AcDbArc
 50
159.9999999999999
 51
180.0
  0
LINE
  5
14A
330
75
100
AcDbEntity
  8
Visible (ISO)
100
AcDbLine
 10
102.6443233979616
 20
63.44185057213107
 30
0.0
 11
108.282479122677
 21
61.38972971217707
 31
0.0
  0
LINE
  5
14B
330
75
100
AcDbEntity
  8
Visible (ISO)
100
AcDbLine
 10
106.230358262723
 20
55.7515739874616
 30
0.0
 11
100.5922025380076
 21
57.80369484741561
 31
0.0
  0
LINE
  5
14C
330
75
100
AcDbEntity
  8
Visible (ISO)
100
AcDbLine
 10
66.76326818971485
 20
70.11642000713968
 30
0.0
 11
72.40142391443028
 21
68.06429914718567
 31
0.0
  0
LINE
  5
14D
330
75
100
AcDbEntity
  8
Visible (ISO)
100
AcDbLine
 10
68.81538904966887
 20
75.75457573185516
 30
0.0
 11
74.45354477438431
 21
73.70245487190115
 31
0.0
  0
LINE
  5
14E
330
75
100
AcDbEntity
  8
Visible (ISO)
100
AcDbLine
 10
61.70114829069181
 20
16.31576591949307
 30
0.0
 11
55.70114829069182
 21
16.31576591949307
 31
0.0
  0
LINE
  5
14F
330
75
100
AcDbEntity
  8
Visible (ISO)
100
AcDbLine
 10
61.70114829069181
 20
8.315765919493056
 30
0.0
 11
55.70114829069182
 21
8.315765919493056
 31
0.0
  0
LINE
  5
150
330
75
100
AcDbEntity
  8
Visible (ISO)
100
AcDbLine
 10
93.70114829069182
 20
8.315765919493056
 30
0.0
 11
87.70114829069184
 21
8.315765919493056
 31
0.0
  0
LINE
  5
151
330
75
100
AcDbEntity
  8
Visible (ISO)
100
AcDbLine
 10
93.70114829069182
 20
16.31576591949307
 30
0.0
 11
87.70114829069184
 21
16.31576591949307
 31
0.0
  0
CIRCLE
  5
152
330
75
100
AcDbEntity
  8
Visible (ISO)
100
AcDbCircle
 10
112.275592891619
 20
20.38085610413831
 30
0.0
 40
1.25
  0
ARC
  5
153
330
75
100
AcDbEntity
  8
Visible (ISO)
100
AcDbCircle
 10
112.275592891619
 20
20.38085610413831
 30
0.0
 40
2.575000000000002
100
AcDbArc
 50
45.33884635930069
 51
134.6611536406994
  0
LINE
  5
154
330
75
100
AcDbEntity
  8
Visible (ISO)
100
AcDbLine
 10
110.465592891619
 20
18.54931986371061
 30
0.0
 11
110.465592891619
 21
22.212392344566
 31
0.0
  0
ARC
  5
155
330
75
100
AcDbEntity
  8
Visible (ISO)
100
AcDbCircle
 10
112.275592891619
 20
20.38085610413831
 30
0.0
 40
2.575
100
AcDbArc
 50
225.3388463593007
 51
314.6611536406995
  0
LINE
  5
156
330
75
100
AcDbEntity
  8
Visible (ISO)
100
AcDbLine
 10
114.085592891619
 20
22.212392344566
 30
0.0
 11
114.085592891619
 21
18.54931986371061
 31
0.0
  0
ARC
  5
157
330
75
100
AcDbEntity
  8
Visible (ISO)
100
AcDbCircle
 10
112.2755928916187
 20
20.38085610413876
 30
0.0
 40
8.7499999999995
100
AcDbArc
 50
114.7499999999999
 51
119.2500000000003
  0
ARC
  5
158
330
75
100
AcDbEntity
  8
Visible (ISO)
100
AcDbCircle
 10
101.8672841431049
 20
22.43849731765594
 30
0.0
 40
8.28925206964239
100
AcDbArc
 50
42.28064402883797
 51
58.77591826538462
  0
ARC
  5
159
330
75
100
AcDbEntity
  8
Visible (ISO)
100
AcDbCircle
 10
116.7287765652401
 20
30.01080592420245
 30
0.0
 40
8.289252069642271
100
AcDbArc
 50
175.2240817346153
 51
191.7193559711621
  0
ARC
  5
15A
330
75
100
AcDbEntity
  8
Visible (ISO)
100
AcDbCircle
 10
112.2755928916196
 20
20.38085610413777
 30
0.0
 40
8.750000000000794
100
AcDbArc
 50
132.7500000000003
 51
137.2499999999998
  0
ARC
  5
15B
330
75
100
AcDbEntity
  8
Visible (ISO)
100
AcDbCircle
 10
101.7408569294296
 20
19.12144490245947
 30
0.0
 40
8.289252069642365
100
AcDbArc
 50
60.28064402883789
 51
76.77591826538455
  0
ARC
  5
15C
330
75
100
AcDbEntity
  8
Visible (ISO)
100
AcDbCircle
 10
113.5350040932977
 20
30.91559206632761
 30
0.0
 40
8.289252069642227
100
AcDbArc
 50
193.2240817346152
 51
209.7193559711621
  0
ARC
  5
15D
330
75
100
AcDbEntity
  8
Visible (ISO)
100
AcDbCircle
 10
112.2755928916201
 20
20.38085610413774
 30
0.0
 40
8.750000000001261
100
AcDbArc
 50
150.7500000000004
 51
155.2499999999998
  0
ARC
  5
15E
330
75
100
AcDbEntity
  8
Visible (ISO)
100
AcDbCircle
 10
102.6456430715548
 20
15.92767243051721
 30
0.0
 40
8.289252069642262
100
AcDbArc
 50
78.28064402883781
 51
94.77591826538469
  0
ARC
  5
15F
330
75
100
AcDbEntity
  8
Visible (ISO)
100
AcDbCircle
 10
110.2179516781013
 20
30.78916485265231
 30
0.0
 40
8.289252069642344
100
AcDbArc
 50
211.2240817346153
 51
227.7193559711621
  0
ARC
  5
160
330
75
100
AcDbEntity
  8
Visible (ISO)
100
AcDbCircle
 10
112.2755928916205
 20
20.38085610413807
 30
0.0
 40
8.750000000001591
100
AcDbArc
 50
168.7500000000005
 51
173.2499999999996
  0
ARC
  5
161
330
75
100
AcDbEntity
  8
Visible (ISO)
100
AcDbCircle
 10
104.4930757978736
 20
13.16980860370395
 30
0.0
 40
8.2892520696423
100
AcDbArc
 50
96.28064402883788
 51
112.7759182653847
  0
ARC
  5
162
330
75
100
AcDbEntity
  8
Visible (ISO)
100
AcDbCircle
 10
107.1023155213133
 20
29.64389985972115
 30
0.0
 40
8.289252069642333
100
AcDbArc
 50
229.2240817346153
 51
245.7193559711621
  0
ARC
  5
163
330
75
100
AcDbEntity
  8
Visible (ISO)
100
AcDbCircle
 10
112.2755928916198
 20
20.38085610413844
 30
0.0
 40
8.750000000000818
100
AcDbArc
 50
186.7500000000002
 51
191.2499999999996
  0
ARC
  5
164
330
75
100
AcDbEntity
  8
Visible (ISO)
100
AcDbCircle
 10
107.1023155213132
 20
11.11781234855558
 30
0.0
 40
8.289252069642198
100
AcDbArc
 50
114.2806440288377
 51
130.7759182653848
  0
ARC
  5
165
330
75
100
AcDbEntity
  8
Visible (ISO)
100
AcDbCircle
 10
104.4930757978736
 20
27.59190360457259
 30
0.0
 40
8.289252069642239
100
AcDbArc
 50
247.2240817346152
 51
263.7193559711621
  0
ARC
  5
166
330
75
100
AcDbEntity
  8
Visible (ISO)
100
AcDbCircle
 10
112.2755928916197
 20
20.38085610413866
 30
0.0
 40
8.750000000000778
100
AcDbArc
 50
204.7500000000002
 51
209.25
  0
ARC
  5
167
330
75
100
AcDbEntity
  8
Visible (ISO)
100
AcDbCircle
 10
110.2179516781013
 20
9.972547355624287
 30
0.0
 40
8.289252069642362
100
AcDbArc
 50
132.2806440288379
 51
148.7759182653847
  0
ARC
  5
168
330
75
100
AcDbEntity
  8
Visible (ISO)
100
AcDbCircle
 10
102.6456430715548
 20
24.83403977775945
 30
0.0
 40
8.289252069642325
100
AcDbArc
 50
265.2240817346153
 51
281.7193559711621
  0
ARC
  5
169
330
75
100
AcDbEntity
  8
Visible (ISO)
100
AcDbCircle
 10
112.2755928916195
 20
20.38085610413885
 30
0.0
 40
8.750000000000753
100
AcDbArc
 50
222.7500000000003
 51
227.2499999999998
  0
ARC
  5
16A
330
75
100
AcDbEntity
  8
Visible (ISO)
100
AcDbCircle
 10
113.5350040932977
 20
9.846120141948977
 30
0.0
 40
8.289252069642271
100
AcDbArc
 50
150.2806440288378
 51
166.7759182653847
  0
ARC
  5
16B
330
75
100
AcDbEntity
  8
Visible (ISO)
100
AcDbCircle
 10
101.7408569294297
 20
21.64026730581699
 30
0.0
 40
8.289252069642211
100
AcDbArc
 50
283.2240817346153
 51
299.7193559711622
  0
ARC
  5
16C
330
75
100
AcDbEntity
  8
Visible (ISO)
100
AcDbCircle
 10
112.2755928916195
 20
20.38085610413931
 30
0.0
 40
8.750000000001126
100
AcDbArc
 50
240.7500000000003
 51
245.2499999999997
  0
ARC
  5
16D
330
75
100
AcDbEntity
  8
Visible (ISO)
100
AcDbCircle
 10
116.7287765652401
 20
10.75090628407416
 30
0.0
 40
8.289252069642325
100
AcDbArc
 50
168.2806440288379
 51
184.7759182653846
  0
ARC
  5
16E
330
75
100
AcDbEntity
  8
Visible (ISO)
100
AcDbCircle
 10
101.8672841431049
 20
18.32321489062065
 30
0.0
 40
8.289252069642381
100
AcDbArc
 50
301.2240817346154
 51
317.7193559711621
  0
ARC
  5
16F
330
75
100
AcDbEntity
  8
Visible (ISO)
100
AcDbCircle
 10
112.2755928916192
 20
20.38085610413983
 30
0.0
 40
8.750000000001548
100
AcDbArc
 50
258.7500000000005
 51
263.2499999999997
  0
ARC
  5
170
330
75
100
AcDbEntity
  8
Visible (ISO)
100
AcDbCircle
 10
119.4866403920532
 20
12.59833901039292
 30
0.0
 40
8.289252069642202
100
AcDbArc
 50
186.2806440288377
 51
202.7759182653847
  0
ARC
  5
171
330
75
100
AcDbEntity
  8
Visible (ISO)
100
AcDbCircle
 10
103.0125491360362
 20
15.20757873383256
 30
0.0
 40
8.289252069642312
100
AcDbArc
 50
319.2240817346152
 51
335.7193559711622
  0
ARC
  5
172
330
75
100
AcDbEntity
  8
Visible (ISO)
100
AcDbCircle
 10
112.2755928916189
 20
20.38085610413912
 30
0.0
 40
8.750000000000827
100
AcDbArc
 50
276.75
 51
281.2499999999996
  0
ARC
  5
173
330
75
100
AcDbEntity
  8
Visible (ISO)
100
AcDbCircle
 10
121.5386366472018
 20
15.20757873383253
 30
0.0
 40
8.289252069642259
100
AcDbArc
 50
204.2806440288377
 51
220.7759182653847
  0
ARC
  5
174
330
75
100
AcDbEntity
  8
Visible (ISO)
100
AcDbCircle
 10
105.0645453911847
 20
12.59833901039293
 30
0.0
 40
8.289252069642255
100
AcDbArc
 50
337.2240817346153
 51
353.7193559711622
  0
ARC
  5
175
330
75
100
AcDbEntity
  8
Visible (ISO)
100
AcDbCircle
 10
112.2755928916185
 20
20.38085610413916
 30
0.0
 40
8.750000000000964
100
AcDbArc
 50
294.7500000000002
 51
299.2499999999999
  0
ARC
  5
176
330
75
100
AcDbEntity
  8
Visible (ISO)
100
AcDbCircle
 10
122.683901640133
 20
18.32321489062068
 30
0.0
 40
8.289252069642397
100
AcDbArc
 50
222.280644028838
 51
238.7759182653846
  0
ARC
  5
177
330
75
100
AcDbEntity
  8
Visible (ISO)
100
AcDbCircle
 10
107.8224092179978
 20
10.75090628407416
 30
0.0
 40
8.289252069642325
100
AcDbArc
 50
355.2240817346154
 51
11.7193559711621
  0
ARC
  5
178
330
75
100
AcDbEntity
  8
Visible (ISO)
100
AcDbCircle
 10
112.2755928916188
 20
20.3808561041385
 30
0.0
 40
8.750000000000282
100
AcDbArc
 50
312.7500000000001
 51
317.25
  0
ARC
  5
179
330
75
100
AcDbEntity
  8
Visible (ISO)
100
AcDbCircle
 10
122.8103288538083
 20
21.64026730581705
 30
0.0
 40
8.289252069642264
100
AcDbArc
 50
240.2806440288378
 51
256.7759182653848
  0
ARC
  5
17A
330
75
100
AcDbEntity
  8
Visible (ISO)
100
AcDbCircle
 10
111.0161816899402
 20
9.846120141948972
 30
0.0
 40
8.289252069642301
100
AcDbArc
 50
13.22408173461529
 51
29.71935597116215
  0
ARC
  5
17B
330
75
100
AcDbEntity
  8
Visible (ISO)
100
AcDbCircle
 10
112.275592891618
 20
20.3808561041388
 30
0.0
 40
8.750000000001113
100
AcDbArc
 50
330.7500000000004
 51
335.2499999999998
  0
ARC
  5
17C
330
75
100
AcDbEntity
  8
Visible (ISO)
100
AcDbCircle
 10
121.9055427116831
 20
24.83403977775936
 30
0.0
 40
8.289252069642218
100
AcDbArc
 50
258.2806440288377
 51
274.7759182653847
  0
ARC
  5
17D
330
75
100
AcDbEntity
  8
Visible (ISO)
100
AcDbCircle
 10
114.3332341051367
 20
9.972547355624296
 30
0.0
 40
8.289252069642349
100
AcDbArc
 50
31.2240817346154
 51
47.71935597116214
  0
ARC
  5
17E
330
75
100
AcDbEntity
  8
Visible (ISO)
100
AcDbCircle
 10
112.2755928916174
 20
20.38085610413855
 30
0.0
 40
8.750000000001582
100
AcDbArc
 50
348.7500000000005
 51
353.2499999999996
  0
ARC
  5
17F
330
75
100
AcDbEntity
  8
Visible (ISO)
100
AcDbCircle
 10
120.0581099853644
 20
27.59190360457261
 30
0.0
 40
8.289252069642245
100
AcDbArc
 50
276.2806440288378
 51
292.7759182653847
  0
ARC
  5
180
330
75
100
AcDbEntity
  8
Visible (ISO)
100
AcDbCircle
 10
117.4488702619247
 20
11.11781234855549
 30
0.0
 40
8.289252069642309
100
AcDbArc
 50
49.22408173461535
 51
65.71935597116217
  0
ARC
  5
181
330
75
100
AcDbEntity
  8
Visible (ISO)
100
AcDbCircle
 10
112.2755928916182
 20
20.38085610413818
 30
0.0
 40
8.750000000000818
100
AcDbArc
 50
6.750000000000219
 51
11.24999999999961
  0
ARC
  5
182
330
75
100
AcDbEntity
  8
Visible (ISO)
100
AcDbCircle
 10
117.4488702619248
 20
29.64389985972104
 30
0.0
 40
8.289252069642198
100
AcDbArc
 50
294.2806440288378
 51
310.7759182653848
  0
ARC
  5
183
330
75
100
AcDbEntity
  8
Visible (ISO)
100
AcDbCircle
 10
120.0581099853644
 20
13.16980860370402
 30
0.0
 40
8.289252069642239
100
AcDbArc
 50
67.22408173461523
 51
83.7193559711622
  0
ARC
  5
184
330
75
100
AcDbEntity
  8
Visible (ISO)
100
AcDbCircle
 10
112.2755928916183
 20
20.38085610413793
 30
0.0
 40
8.750000000000826
100
AcDbArc
 50
24.75000000000024
 51
29.24999999999982
  0
ARC
  5
185
330
75
100
AcDbEntity
  8
Visible (ISO)
100
AcDbCircle
 10
114.3332341051367
 20
30.78916485265229
 30
0.0
 40
8.289252069642307
100
AcDbArc
 50
312.2806440288379
 51
328.7759182653847
  0
ARC
  5
186
330
75
100
AcDbEntity
  8
Visible (ISO)
100
AcDbCircle
 10
121.9055427116831
 20
15.92767243051715
 30
0.0
 40
8.289252069642333
100
AcDbArc
 50
85.22408173461533
 51
101.719355971162
  0
ARC
  5
187
330
75
100
AcDbEntity
  8
Visible (ISO)
100
AcDbCircle
 10
112.2755928916188
 20
20.38085610413811
 30
0.0
 40
8.750000000000282
100
AcDbArc
 50
42.75000000000014
 51
47.24999999999995
  0
ARC
  5
188
330
75
100
AcDbEntity
  8
Visible (ISO)
100
AcDbCircle
 10
111.0161816899402
 20
30.91559206632763
 30
0.0
 40
8.289252069642264
100
AcDbArc
 50
330.2806440288378
 51
346.7759182653848
  0
ARC
  5
189
330
75
100
AcDbEntity
  8
Visible (ISO)
100
AcDbCircle
 10
122.8103288538083
 20
19.12144490245954
 30
0.0
 40
8.289252069642301
100
AcDbArc
 50
103.2240817346153
 51
119.7193559711622
  0
ARC
  5
18A
330
75
100
AcDbEntity
  8
Visible (ISO)
100
AcDbCircle
 10
112.2755928916184
 20
20.38085610413718
 30
0.0
 40
8.750000000001261
100
AcDbArc
 50
60.75000000000041
 51
65.2499999999998
  0
ARC
  5
18B
330
75
100
AcDbEntity
  8
Visible (ISO)
100
AcDbCircle
 10
107.8224092179979
 20
30.01080592420246
 30
0.0
 40
8.289252069642262
100
AcDbArc
 50
348.2806440288378
 51
4.775918265384637
  0
ARC
  5
18C
330
75
100
AcDbEntity
  8
Visible (ISO)
100
AcDbCircle
 10
122.683901640133
 20
22.438497317656
 30
0.0
 40
8.289252069642344
100
AcDbArc
 50
121.2240817346153
 51
137.719355971162
  0
ARC
  5
18D
330
75
100
AcDbEntity
  8
Visible (ISO)
100
AcDbCircle
 10
112.2755928916189
 20
20.38085610413748
 30
0.0
 40
8.75000000000084
100
AcDbArc
 50
78.75000000000017
 51
83.24999999999981
  0
ARC
  5
18E
330
75
100
AcDbEntity
  8
Visible (ISO)
100
AcDbCircle
 10
105.0645453911846
 20
28.16337319788367
 30
0.0
 40
8.289252069642286
100
AcDbArc
 50
6.280644028837773
 51
22.77591826538463
  0
ARC
  5
18F
330
75
100
AcDbEntity
  8
Visible (ISO)
100
AcDbCircle
 10
121.5386366472018
 20
25.55413347444408
 30
0.0
 40
8.289252069642266
100
AcDbArc
 50
139.2240817346153
 51
155.7193559711621
  0
ARC
  5
190
330
75
100
AcDbEntity
  8
Visible (ISO)
100
AcDbCircle
 10
119.4866403920533
 20
28.16337319788368
 30
0.0
 40
8.289252069642255
100
AcDbArc
 50
157.2240817346153
 51
173.7193559711622
  0
ARC
  5
191
330
75
100
AcDbEntity
  8
Visible (ISO)
100
AcDbCircle
 10
112.2755928916191
 20
20.3808561041375
 30
0.0
 40
8.750000000000818
100
AcDbArc
 50
96.75000000000018
 51
101.2499999999996
  0
ARC
  5
192
330
75
100
AcDbEntity
  8
Visible (ISO)
100
AcDbCircle
 10
103.0125491360362
 20
25.55413347444408
 30
0.0
 40
8.289252069642259
100
AcDbArc
 50
24.28064402883773
 51
40.77591826538465
  0
ARC
  5
193
330
75
100
AcDbEntity
  8
Visible (ISO)
100
AcDbCircle
 10
112.2755928916182
 20
20.38085610413938
 30
0.0
 40
10.99999999999868
100
AcDbArc
 50
123.7499999999998
 51
128.2500000000003
  0
ARC
  5
194
330
75
100
AcDbEntity
  8
Visible (ISO)
100
AcDbCircle
 10
112.2755928916194
 20
20.38085610413806
 30
0.0
 40
11.00000000000045
100
AcDbArc
 50
141.7500000000002
 51
146.25
  0
ARC
  5
195
330
75
100
AcDbEntity
  8
Visible (ISO)
100
AcDbCircle
 10
112.2755928916189
 20
20.38085610413836
 30
0.0
 40
10.99999999999986
100
AcDbArc
 50
159.7500000000001
 51
164.25
  0
ARC
  5
196
330
75
100
AcDbEntity
  8
Visible (ISO)
100
AcDbCircle
 10
112.2755928916189
 20
20.3808561041383
 30
0.0
 40
10.99999999999992
100
AcDbArc
 50
177.75
 51
182.25
  0
ARC
  5
197
330
75
100
AcDbEntity
  8
Visible (ISO)
100
AcDbCircle
 10
112.2755928916207
 20
20.38085610413888
 30
0.0
 40
11.00000000000179
100
AcDbArc
 50
195.7500000000005
 51
200.2499999999997
  0
ARC
  5
198
330
75
100
AcDbEntity
  8
Visible (ISO)
100
AcDbCircle
 10
112.2755928916182
 20
20.38085610413772
 30
0.0
 40
10.999999999999
100
AcDbArc
 50
213.7499999999998
 51
218.2500000000002
  0
ARC
  5
199
330
75
100
AcDbEntity
  8
Visible (ISO)
100
AcDbCircle
 10
112.2755928916189
 20
20.38085610413824
 30
0.0
 40
10.99999999999992
100
AcDbArc
 50
231.7500000000002
 51
236.25
  0
ARC
  5
19A
330
75
100
AcDbEntity
  8
Visible (ISO)
100
AcDbCircle
 10
112.2755928916192
 20
20.3808561041391
 30
0.0
 40
11.00000000000083
100
AcDbArc
 50
249.7500000000001
 51
254.2499999999999
  0
ARC
  5
19B
330
75
100
AcDbEntity
  8
Visible (ISO)
100
AcDbCircle
 10
112.275592891619
 20
20.38085610413825
 30
0.0
 40
10.99999999999995
100
AcDbArc
 50
267.7500000000001
 51
272.25
  0
ARC
  5
19C
330
75
100
AcDbEntity
  8
Visible (ISO)
100
AcDbCircle
 10
112.2755928916189
 20
20.38085610413862
 30
0.0
 40
11.00000000000033
100
AcDbArc
 50
285.75
 51
290.2500000000001
  0
ARC
  5
19D
330
75
100
AcDbEntity
  8
Visible (ISO)
100
AcDbCircle
 10
112.27559289162
 20
20.3808561041369
 30
0.0
 40
10.99999999999826
100
AcDbArc
 50
303.7499999999998
 51
308.2500000000004
  0
ARC
  5
19E
330
75
100
AcDbEntity
  8
Visible (ISO)
100
AcDbCircle
 10
112.2755928916184
 20
20.38085610413875
 30
0.0
 40
11.00000000000076
100
AcDbArc
 50
321.7500000000003
 51
326.2499999999999
  0
ARC
  5
19F
330
75
100
AcDbEntity
  8
Visible (ISO)
100
AcDbCircle
 10
112.2755928916181
 20
20.38085610413858
 30
0.0
 40
11.0000000000009
100
AcDbArc
 50
339.7500000000002
 51
344.2499999999999
  0
ARC
  5
1A0
330
75
100
AcDbEntity
  8
Visible (ISO)
100
AcDbCircle
 10
112.275592891619
 20
20.38085610413831
 30
0.0
 40
10.99999999999996
100
AcDbArc
 50
357.75
 51
2.250000000000031
  0
ARC
  5
1A1
330
75
100
AcDbEntity
  8
Visible (ISO)
100
AcDbCircle
 10
112.2755928916199
 20
20.38085610413861
 30
0.0
 40
10.99999999999906
100
AcDbArc
 50
15.74999999999988
 51
20.25000000000016
  0
ARC
  5
1A2
330
75
100
AcDbEntity
  8
Visible (ISO)
100
AcDbCircle
 10
112.2755928916199
 20
20.38085610413896
 30
0.0
 40
10.99999999999887
100
AcDbArc
 50
33.74999999999995
 51
38.25000000000038
  0
ARC
  5
1A3
330
75
100
AcDbEntity
  8
Visible (ISO)
100
AcDbCircle
 10
112.2755928916183
 20
20.38085610413739
 30
0.0
 40
11.00000000000112
100
AcDbArc
 50
51.75000000000054
 51
56.24999999999987
  0
ARC
  5
1A4
330
75
100
AcDbEntity
  8
Visible (ISO)
100
AcDbCircle
 10
112.2755928916188
 20
20.38085610413769
 30
0.0
 40
11.00000000000065
100
AcDbArc
 50
69.75000000000015
 51
74.24999999999997
  0
ARC
  5
1A5
330
75
100
AcDbEntity
  8
Visible (ISO)
100
AcDbCircle
 10
112.275592891619
 20
20.38085610413836
 30
0.0
 40
10.99999999999996
100
AcDbArc
 50
87.74999999999996
 51
92.25000000000004
  0
ARC
  5
1A6
330
75
100
AcDbEntity
  8
Visible (ISO)
100
AcDbCircle
 10
112.275592891619
 20
20.38085610413827
 30
0.0
 40
11.00000000000004
100
AcDbArc
 50
105.7500000000001
 51
110.25
  0
CIRCLE
  5
1A7
330
75
100
AcDbEntity
  8
Visible (ISO)
100
AcDbCircle
 10
115.987442602494
 20
41.41709030823533
 30
0.0
 40
3.999999999999992
  0
CIRCLE
  5
1A8
330
75
100
AcDbEntity
  8
Visible (ISO)
100
AcDbCircle
 10
115.987442602494
 20
41.41709030823533
 30
0.0
 40
9.499999999999984
  0
ENDSEC
  0
SECTION
  2
OBJECTS
  0
DICTIONARY
  5
C
330
0
100
AcDbDictionary
281
     1
  3
ACAD_COLOR
350
6B
  3
ACAD_GROUP
350
D
  3
ACAD_LAYOUT
350
6A
  3
ACAD_MATERIAL
350
10
  3
ACAD_MLEADERSTYLE
350
6E
  3
ACAD_MLINESTYLE
350
67
  3
ACAD_PLOTSETTINGS
350
69
  3
ACAD_PLOTSTYLENAME
350
E
  3
ACAD_SCALELIST
350
3A
  3
ACAD_TABLESTYLE
350
6C
  3
ACAD_VISUALSTYLE
350
29
  3
ACDB_RECOMPOSE_DATA
350
1B5
  3
AcDbVariableDictionary
350
1A9
  3
DWGPROPS
350
1B6
  0
DICTIONARY
  5
6B
102
{ACAD_REACTORS
330
C
102
}
330
C
100
AcDbDictionary
281
     1
  0
DICTIONARY
  5
D
102
{ACAD_REACTORS
330
C
102
}
330
C
100
AcDbDictionary
281
     1
  0
DICTIONARY
  5
6A
102
{ACAD_REACTORS
330
C
102
}
330
C
100
AcDbDictionary
281
     1
  3
Layout1
350
74
  3
Layout2
350
7C
  3
Model
350
78
  0
DICTIONARY
  5
10
102
{ACAD_REACTORS
330
C
102
}
330
C
100
AcDbDictionary
281
     1
  3
ByBlock
350
19
  3
ByLayer
350
11
  3
Global
350
21
  0
DICTIONARY
  5
6E
102
{ACAD_REACTORS
330
C
102
}
330
C
100
AcDbDictionary
281
     1
  3
Standard
350
6F
  0
DICTIONARY
  5
67
102
{ACAD_REACTORS
330
C
102
}
330
C
100
AcDbDictionary
281
     1
  3
Standard
350
68
  0
DICTIONARY
  5
69
102
{ACAD_REACTORS
330
C
102
}
330
C
100
AcDbDictionary
281
     1
  0
ACDBDICTIONARYWDFLT
  5
E
102
{ACAD_REACTORS
330
C
102
}
330
C
100
AcDbDictionary
281
     1
  3
Normal
350
F
100
AcDbDictionaryWithDefault
340
F
  0
DICTIONARY
  5
3A
102
{ACAD_REACTORS
330
C
102
}
330
C
100
AcDbDictionary
281
     1
  3
A0
350
3B
  3
A1
350
3C
  3
A2
350
3D
  3
A3
350
3E
  3
A4
350
3F
  3
A5
350
40
  3
A6
350
41
  3
A7
350
42
  3
A8
350
43
  3
A9
350
44
  3
B0
350
45
  3
B1
350
46
  3
B2
350
47
  3
B3
350
48
  3
B4
350
49
  3
B5
350
4A
  3
B6
350
4B
  3
B7
350
4C
  3
B8
350
4D
  3
B9
350
4E
  3
C0
350
4F
  3
C1
350
50
  3
C2
350
51
  3
C3
350
52
  3
C4
350
53
  3
C5
350
54
  3
C6
350
55
  3
C7
350
56
  3
C8
350
57
  3
C9
350
58
  3
D0
350
59
  3
D1
350
5A
  3
D2
350
5B
  0
DICTIONARY
  5
6C
102
{ACAD_REACTORS
330
C
102
}
330
C
100
AcDbDictionary
281
     1
  3
Standard
350
6D
  0
DICTIONARY
  5
29
102
{ACAD_REACTORS
330
C
102
}
330
C
100
AcDbDictionary
281
     1
  3
2dWireframe
350
2F
  3
3D Hidden
350
31
  3
3dWireframe
350
30
  3
Basic
350
2E
  3
Brighten
350
35
  3
ColorChange
350
39
  3
Conceptual
350
32
  3
Dim
350
34
  3
Facepattern
350
38
  3
Flat
350
2A
  3
FlatWithEdges
350
2B
  3
Gouraud
350
2C
  3
GouraudWithEdges
350
2D
  3
Linepattern
350
37
  3
Realistic
350
33
  3
Thicken
350
36
  0
XRECORD
  5
1B5
102
{ACAD_REACTORS
330
C
102
}
330
C
100
AcDbXrecord
280
     1
 90
        1
330
6D
  0
DICTIONARY
  5
1A9
102
{ACAD_REACTORS
330
C
102
}
330
C
100
AcDbDictionary
281
     1
  3
CANNOSCALE
350
1AD
  3
CMLEADERSTYLE
350
1AB
  3
CTABLESTYLE
350
1AA
  3
DIMASSOC
350
1B2
  3
HIDETEXT
350
1B1
  3
INDEXCTL
350
1B0
  3
LIGHTINGUNITS
350
1AE
  3
MSLTSCALE
350
1AC
  3
SORTENTS
350
1AF
  0
XRECORD
  5
1B6
102
{ACAD_REACTORS
330
C
102
}
330
C
100
AcDbXrecord
280
     1
  1
DWGPROPS COOKIE
  2

  3

  4
i_adkins
  6

  7

  8

  9

300
Manager=
301
Company=
302
Category=
303
Part Number=
304
Description=
305
Project=
306
Designer=i_adkins
307
Engineer=
308
Authority=
309
Cost Center=
 40
0.0000119097222222
 41
2454670.452518183
 42
2454670.452518183
  1

 90
       16
300
Vendor=
300
User Status=
300
Design Status=WorkInProgress
300
Checked by=
300
Engr Approved by=
300
Mfg Approved by=
  0
LAYOUT
  5
74
102
{ACAD_XDICTIONARY
360
1BB
102
}
102
{ACAD_REACTORS
330
6A
102
}
330
6A
100
AcDbPlotSettings
  1

  2

  4

  6

 40
0.0
 41
0.0
 42
0.0
 43
0.0
 44
0.0
 45
0.0
 46
0.0
 47
0.0
 48
0.0
 49
0.0
140
0.0
141
0.0
142
1.0
143
1.0
 70
   688
 72
     0
 73
     0
 74
     5
  7

 75
    16
147
1.0
148
0.0
149
0.0
100
AcDbLayout
  1
Layout1
 70
     1
 71
     1
 10
0.0
 20
0.0
 11
12.0
 21
9.0
 12
0.0
 22
0.0
 32
0.0
 14
0.0
 24
0.0
 34
0.0
 15
0.0
 25
0.0
 35
0.0
146
0.0
 13
0.0
 23
0.0
 33
0.0
 16
1.0
 26
0.0
 36
0.0
 17
0.0
 27
1.0
 37
0.0
 76
     0
330
71
  0
LAYOUT
  5
7C
102
{ACAD_XDICTIONARY
360
1BF
102
}
102
{ACAD_REACTORS
330
6A
102
}
330
6A
100
AcDbPlotSettings
  1

  2

  4

  6

 40
0.0
 41
0.0
 42
0.0
 43
0.0
 44
0.0
 45
0.0
 46
0.0
 47
0.0
 48
0.0
 49
0.0
140
0.0
141
0.0
142
1.0
143
1.0
 70
   688
 72
     0
 73
     0
 74
     5
  7

 75
    16
147
1.0
148
0.0
149
0.0
100
AcDbLayout
  1
Layout2
 70
     1
 71
     2
 10
0.0
 20
0.0
 11
12.0
 21
9.0
 12
0.0
 22
0.0
 32
0.0
 14
0.0
 24
0.0
 34
0.0
 15
0.0
 25
0.0
 35
0.0
146
0.0
 13
0.0
 23
0.0
 33
0.0
 16
1.0
 26
0.0
 36
0.0
 17
0.0
 27
1.0
 37
0.0
 76
     0
330
79
  0
LAYOUT
  5
78
102
{ACAD_XDICTIONARY
360
1BD
102
}
102
{ACAD_REACTORS
330
6A
102
}
330
6A
100
AcDbPlotSettings
  1

  2

  4

  6

 40
0.0
 41
0.0
 42
0.0
 43
0.0
 44
0.0
 45
0.0
 46
0.0
 47
0.0
 48
0.0
 49
0.0
140
0.0
141
0.0
142
1.0
143
1.0
 70
  1712
 72
     0
 73
     0
 74
     0
  7

 75
     0
147
1.0
148
0.0
149
0.0
100
AcDbLayout
  1
Model
 70
     1
 71
     0
 10
0.0
 20
0.0
 11
12.0
 21
9.0
 12
0.0
 22
0.0
 32
0.0
 14
0.0
 24
0.0
 34
0.0
 15
0.0
 25
0.0
 35
0.0
146
0.0
 13
0.0
 23
0.0
 33
0.0
 16
1.0
 26
0.0
 36
0.0
 17
0.0
 27
1.0
 37
0.0
 76
     0
330
75
  0
MATERIAL
  5
19
102
{ACAD_XDICTIONARY
360
1A
102
}
102
{ACAD_REACTORS
330
10
102
}
330
10
100
AcDbMaterial
  1
ByBlock
 72
     0
 43
0.0208333333333333
 43
0.0
 43
0.0
 43
0.0
 43
0.0
 43
0.0208333333333333
 43
0.0
 43
0.0
 43
0.0
 43
0.0
 43
1.0
 43
0.0
 43
0.0
 43
0.0
 43
0.0
 43
1.0
 77
     0
 47
0.0208333333333333
 47
0.0
 47
0.0
 47
0.0
 47
0.0
 47
0.0208333333333333
 47
0.0
 47
0.0
 47
0.0
 47
0.0
 47
1.0
 47
0.0
 47
0.0
 47
0.0
 47
0.0
 47
1.0
171
     0
 49
0.0208333333333333
 49
0.0
 49
0.0
 49
0.0
 49
0.0
 49
0.0208333333333333
 49
0.0
 49
0.0
 49
0.0
 49
0.0
 49
1.0
 49
0.0
 49
0.0
 49
0.0
 49
0.0
 49
1.0
175
     0
142
0.0208333333333333
142
0.0
142
0.0
142
0.0
142
0.0
142
0.0208333333333333
142
0.0
142
0.0
142
0.0
142
0.0
142
1.0
142
0.0
142
0.0
142
0.0
142
0.0
142
1.0
179
     0
144
0.0208333333333333
144
0.0
144
0.0
144
0.0
144
0.0
144
0.0208333333333333
144
0.0
144
0.0
144
0.0
144
0.0
144
1.0
144
0.0
144
0.0
144
0.0
144
0.0
144
1.0
147
0.0208333333333333
147
0.0
147
0.0
147
0.0
147
0.0
147
0.0208333333333333
147
0.0
147
0.0
147
0.0
147
0.0
147
1.0
147
0.0
147
0.0
147
0.0
147
0.0
147
1.0
  0
MATERIAL
  5
11
102
{ACAD_XDICTIONARY
360
12
102
}
102
{ACAD_REACTORS
330
10
102
}
330
10
100
AcDbMaterial
  1
ByLayer
 72
     0
 43
0.0208333333333333
 43
0.0
 43
0.0
 43
0.0
 43
0.0
 43
0.0208333333333333
 43
0.0
 43
0.0
 43
0.0
 43
0.0
 43
1.0
 43
0.0
 43
0.0
 43
0.0
 43
0.0
 43
1.0
 77
     0
 47
0.0208333333333333
 47
0.0
 47
0.0
 47
0.0
 47
0.0
 47
0.0208333333333333
 47
0.0
 47
0.0
 47
0.0
 47
0.0
 47
1.0
 47
0.0
 47
0.0
 47
0.0
 47
0.0
 47
1.0
171
     0
 49
0.0208333333333333
 49
0.0
 49
0.0
 49
0.0
 49
0.0
 49
0.0208333333333333
 49
0.0
 49
0.0
 49
0.0
 49
0.0
 49
1.0
 49
0.0
 49
0.0
 49
0.0
 49
0.0
 49
1.0
175
     0
142
0.0208333333333333
142
0.0
142
0.0
142
0.0
142
0.0
142
0.0208333333333333
142
0.0
142
0.0
142
0.0
142
0.0
142
1.0
142
0.0
142
0.0
142
0.0
142
0.0
142
1.0
179
     0
144
0.0208333333333333
144
0.0
144
0.0
144
0.0
144
0.0
144
0.0208333333333333
144
0.0
144
0.0
144
0.0
144
0.0
144
1.0
144
0.0
144
0.0
144
0.0
144
0.0
144
1.0
147
0.0208333333333333
147
0.0
147
0.0
147
0.0
147
0.0
147
0.0208333333333333
147
0.0
147
0.0
147
0.0
147
0.0
147
1.0
147
0.0
147
0.0
147
0.0
147
0.0
147
1.0
  0
MATERIAL
  5
21
102
{ACAD_XDICTIONARY
360
22
102
}
102
{ACAD_REACTORS
330
10
102
}
330
10
100
AcDbMaterial
  1
Global
 72
     0
 43
0.0208333333333333
 43
0.0
 43
0.0
 43
0.0
 43
0.0
 43
0.0208333333333333
 43
0.0
 43
0.0
 43
0.0
 43
0.0
 43
1.0
 43
0.0
 43
0.0
 43
0.0
 43
0.0
 43
1.0
 77
     0
 47
0.0208333333333333
 47
0.0
 47
0.0
 47
0.0
 47
0.0
 47
0.0208333333333333
 47
0.0
 47
0.0
 47
0.0
 47
0.0
 47
1.0
 47
0.0
 47
0.0
 47
0.0
 47
0.0
 47
1.0
171
     0
 49
0.0208333333333333
 49
0.0
 49
0.0
 49
0.0
 49
0.0
 49
0.0208333333333333
 49
0.0
 49
0.0
 49
0.0
 49
0.0
 49
1.0
 49
0.0
 49
0.0
 49
0.0
 49
0.0
 49
1.0
175
     0
142
0.0208333333333333
142
0.0
142
0.0
142
0.0
142
0.0
142
0.0208333333333333
142
0.0
142
0.0
142
0.0
142
0.0
142
1.0
142
0.0
142
0.0
142
0.0
142
0.0
142
1.0
179
     0
144
0.0208333333333333
144
0.0
144
0.0
144
0.0
144
0.0
144
0.0208333333333333
144
0.0
144
0.0
144
0.0
144
0.0
144
1.0
144
0.0
144
0.0
144
0.0
144
0.0
144
1.0
147
0.0208333333333333
147
0.0
147
0.0
147
0.0
147
0.0
147
0.0208333333333333
147
0.0
147
0.0
147
0.0
147
0.0
147
1.0
147
0.0
147
0.0
147
0.0
147
0.0
147
1.0
  0
MLEADERSTYLE
  5
6F
102
{ACAD_REACTORS
330
6E
102
}
330
6E
100
AcDbMLeaderStyle
170
     2
171
     1
172
     0
 90
        2
 40
0.0
 41
0.0
173
     1
 91
-1056964608
340
63
 92
       -2
290
     1
 42
0.09
291
     1
 43
0.36
  3
Standard
 44
0.18
300

342
5D
174
     1
178
     6
175
     1
176
     0
 93
-1056964608
 45
0.18
292
     0
297
     0
 46
0.18
 94
-1056964608
 47
1.0
 49
1.0
140
1.0
293
     1
141
0.0
294
     1
177
     0
142
1.0
295
     0
296
     0
143
0.125
1001
ACAD_MLEADERVER
1070
     2
  0
MLINESTYLE
  5
68
102
{ACAD_REACTORS
330
67
102
}
330
67
100
AcDbMlineStyle
  2
STANDARD
 70
     0
  3

 62
   256
 51
90.0
 52
90.0
 71
     2
 49
0.5
 62
   256
  6
BYLAYER
 49
-0.5
 62
   256
  6
BYLAYER
  0
ACDBPLACEHOLDER
  5
F
102
{ACAD_REACTORS
330
E
102
}
330
E
  0
SCALE
  5
3B
102
{ACAD_REACTORS
330
3A
102
}
330
3A
100
AcDbScale
 70
     0
300
1:1
140
1.0
141
1.0
290
     1
  0
SCALE
  5
3C
102
{ACAD_REACTORS
330
3A
102
}
330
3A
100
AcDbScale
 70
     0
300
1:2
140
1.0
141
2.0
290
     0
  0
SCALE
  5
3D
102
{ACAD_REACTORS
330
3A
102
}
330
3A
100
AcDbScale
 70
     0
300
1:4
140
1.0
141
4.0
290
     0
  0
SCALE
  5
3E
102
{ACAD_REACTORS
330
3A
102
}
330
3A
100
AcDbScale
 70
     0
300
1:5
140
1.0
141
5.0
290
     0
  0
SCALE
  5
3F
102
{ACAD_REACTORS
330
3A
102
}
330
3A
100
AcDbScale
 70
     0
300
1:8
140
1.0
141
8.0
290
     0
  0
SCALE
  5
40
102
{ACAD_REACTORS
330
3A
102
}
330
3A
100
AcDbScale
 70
     0
300
1:10
140
1.0
141
10.0
290
     0
  0
SCALE
  5
41
102
{ACAD_REACTORS
330
3A
102
}
330
3A
100
AcDbScale
 70
     0
300
1:16
140
1.0
141
16.0
290
     0
  0
SCALE
  5
42
102
{ACAD_REACTORS
330
3A
102
}
330
3A
100
AcDbScale
 70
     0
300
1:20
140
1.0
141
20.0
290
     0
  0
SCALE
  5
43
102
{ACAD_REACTORS
330
3A
102
}
330
3A
100
AcDbScale
 70
     0
300
1:30
140
1.0
141
30.0
290
     0
  0
SCALE
  5
44
102
{ACAD_REACTORS
330
3A
102
}
330
3A
100
AcDbScale
 70
     0
300
1:40
140
1.0
141
40.0
290
     0
  0
SCALE
  5
45
102
{ACAD_REACTORS
330
3A
102
}
330
3A
100
AcDbScale
 70
     0
300
1:50
140
1.0
141
50.0
290
     0
  0
SCALE
  5
46
102
{ACAD_REACTORS
330
3A
102
}
330
3A
100
AcDbScale
 70
     0
300
1:100
140
1.0
141
100.0
290
     0
  0
SCALE
  5
47
102
{ACAD_REACTORS
330
3A
102
}
330
3A
100
AcDbScale
 70
     0
300
2:1
140
2.0
141
1.0
290
     0
  0
SCALE
  5
48
102
{ACAD_REACTORS
330
3A
102
}
330
3A
100
AcDbScale
 70
     0
300
4:1
140
4.0
141
1.0
290
     0
  0
SCALE
  5
49
102
{ACAD_REACTORS
330
3A
102
}
330
3A
100
AcDbScale
 70
     0
300
8:1
140
8.0
141
1.0
290
     0
  0
SCALE
  5
4A
102
{ACAD_REACTORS
330
3A
102
}
330
3A
100
AcDbScale
 70
     0
300
10:1
140
10.0
141
1.0
290
     0
  0
SCALE
  5
4B
102
{ACAD_REACTORS
330
3A
102
}
330
3A
100
AcDbScale
 70
     0
300
100:1
140
100.0
141
1.0
290
     0
  0
SCALE
  5
4C
102
{ACAD_REACTORS
330
3A
102
}
330
3A
100
AcDbScale
 70
     0
300
1/128" = 1'-0"
140
0.0078125
141
12.0
290
     0
  0
SCALE
  5
4D
102
{ACAD_REACTORS
330
3A
102
}
330
3A
100
AcDbScale
 70
     0
300
1/64" = 1'-0"
140
0.015625
141
12.0
290
     0
  0
SCALE
  5
4E
102
{ACAD_REACTORS
330
3A
102
}
330
3A
100
AcDbScale
 70
     0
300
1/32" = 1'-0"
140
0.03125
141
12.0
290
     0
  0
SCALE
  5
4F
102
{ACAD_REACTORS
330
3A
102
}
330
3A
100
AcDbScale
 70
     0
300
1/16" = 1'-0"
140
0.0625
141
12.0
290
     0
  0
SCALE
  5
50
102
{ACAD_REACTORS
330
3A
102
}
330
3A
100
AcDbScale
 70
     0
300
3/32" = 1'-0"
140
0.09375
141
12.0
290
     0
  0
SCALE
  5
51
102
{ACAD_REACTORS
330
3A
102
}
330
3A
100
AcDbScale
 70
     0
300
1/8" = 1'-0"
140
0.125
141
12.0
290
     0
  0
SCALE
  5
52
102
{ACAD_REACTORS
330
3A
102
}
330
3A
100
AcDbScale
 70
     0
300
3/16" = 1'-0"
140
0.1875
141
12.0
290
     0
  0
SCALE
  5
53
102
{ACAD_REACTORS
330
3A
102
}
330
3A
100
AcDbScale
 70
     0
300
1/4" = 1'-0"
140
0.25
141
12.0
290
     0
  0
SCALE
  5
54
102
{ACAD_REACTORS
330
3A
102
}
330
3A
100
AcDbScale
 70
     0
300
3/8" = 1'-0"
140
0.375
141
12.0
290
     0
  0
SCALE
  5
55
102
{ACAD_REACTORS
330
3A
102
}
330
3A
100
AcDbScale
 70
     0
300
1/2" = 1'-0"
140
0.5
141
12.0
290
     0
  0
SCALE
  5
56
102
{ACAD_REACTORS
330
3A
102
}
330
3A
100
AcDbScale
 70
     0
300
3/4" = 1'-0"
140
0.75
141
12.0
290
     0
  0
SCALE
  5
57
102
{ACAD_REACTORS
330
3A
102
}
330
3A
100
AcDbScale
 70
     0
300
1" = 1'-0"
140
1.0
141
12.0
290
     0
  0
SCALE
  5
58
102
{ACAD_REACTORS
330
3A
102
}
330
3A
100
AcDbScale
 70
     0
300
1-1/2" = 1'-0"
140
1.5
141
12.0
290
     0
  0
SCALE
  5
59
102
{ACAD_REACTORS
330
3A
102
}
330
3A
100
AcDbScale
 70
     0
300
3" = 1'-0"
140
3.0
141
12.0
290
     0
  0
SCALE
  5
5A
102
{ACAD_REACTORS
330
3A
102
}
330
3A
100
AcDbScale
 70
     0
300
6" = 1'-0"
140
6.0
141
12.0
290
     0
  0
SCALE
  5
5B
102
{ACAD_REACTORS
330
3A
102
}
330
3A
100
AcDbScale
 70
     0
300
1'-0" = 1'-0"
140
12.0
141
12.0
290
     0
  0
TABLESTYLE
  5
6D
102
{ACAD_XDICTIONARY
360
1B3
102
}
102
{ACAD_REACTORS
330
6C
102
}
330
6C
100
AcDbTableStyle
  3
Standard
 70
     0
 71
     0
 40
0.06
 41
0.06
280
     0
281
     0
  7
Standard
140
0.18
170
     2
 62
     0
 63
     7
283
     0
274
    -2
284
     1
 64
     0
275
    -2
285
     1
 65
     0
276
    -2
286
     1
 66
     0
277
    -2
287
     1
 67
     0
278
    -2
288
     1
 68
     0
279
    -2
289
     1
 69
     0
  7
Standard
140
0.25
170
     5
 62
     0
 63
     7
283
     0
274
    -2
284
     1
 64
     0
275
    -2
285
     1
 65
     0
276
    -2
286
     1
 66
     0
277
    -2
287
     1
 67
     0
278
    -2
288
     1
 68
     0
279
    -2
289
     1
 69
     0
  7
Standard
140
0.18
170
     5
 62
     0
 63
     7
283
     0
274
    -2
284
     1
 64
     0
275
    -2
285
     1
 65
     0
276
    -2
286
     1
 66
     0
277
    -2
287
     1
 67
     0
278
    -2
288
     1
 68
     0
279
    -2
289
     1
 69
     0
  0
VISUALSTYLE
  5
2F
102
{ACAD_REACTORS
330
29
102
}
330
29
100
AcDbVisualStyle
  2
2dWireframe
 70
     4
 71
     0
 72
     2
 73
     0
 90
        0
 40
-0.6
 41
-30.0
 62
     5
 63
     7
 74
     1
 91
        4
 64
     7
 65
   257
 75
     1
175
     1
 42
1.0
 92
        0
 66
   257
 43
1.0
 76
     1
 77
     6
 78
     2
 67
     7
 79
     5
170
     0
171
     0
290
     0
174
     0
 93
        1
 44
0.0
173
     0
291
     0
 45
0.0
1001
ACAD
1000
AcDbSavedByObjectVersion
1070
     0
  0
VISUALSTYLE
  5
31
102
{ACAD_REACTORS
330
29
102
}
330
29
100
AcDbVisualStyle
  2
3D Hidden
 70
     6
 71
     1
 72
     2
 73
     2
 90
        0
 40
-0.6
 41
-30.0
 62
     5
 63
     7
 74
     2
 91
        2
 64
     7
 65
   257
 75
     2
175
     1
 42
40.0
 92
        0
 66
   257
 43
1.0
 76
     1
 77
     6
 78
     2
 67
     7
 79
     3
170
     0
171
     0
290
     0
174
     0
 93
        1
 44
0.0
173
     0
291
     0
 45
0.0
1001
ACAD
1000
AcDbSavedByObjectVersion
1070
     0
  0
VISUALSTYLE
  5
30
102
{ACAD_REACTORS
330
29
102
}
330
29
100
AcDbVisualStyle
  2
3dWireframe
 70
     5
 71
     0
 72
     2
 73
     0
 90
        0
 40
-0.6
 41
-30.0
 62
     5
 63
     7
 74
     1
 91
        4
 64
     7
 65
   257
 75
     1
175
     1
 42
1.0
 92
        0
 66
   257
 43
1.0
 76
     1
 77
     6
 78
     2
 67
     7
 79
     5
170
     0
171
     0
290
     0
174
     0
 93
        1
 44
0.0
173
     0
291
     0
 45
0.0
1001
ACAD
1000
AcDbSavedByObjectVersion
1070
     0
  0
VISUALSTYLE
  5
2E
102
{ACAD_REACTORS
330
29
102
}
330
29
100
AcDbVisualStyle
  2
Basic
 70
     7
 71
     1
 72
     0
 73
     1
 90
        0
 40
-0.6
 41
-30.0
 62
     5
 63
     7
 74
     0
 91
        4
 64
     7
 65
   257
 75
     1
175
     1
 42
1.0
 92
        8
 66
     7
 43
1.0
 76
     1
 77
     6
 78
     2
 67
     7
 79
     5
170
     0
171
     0
290
     0
174
     0
 93
        1
 44
0.0
173
     0
291
     1
 45
0.0
1001
ACAD
1000
AcDbSavedByObjectVersion
1070
     0
  0
VISUALSTYLE
  5
35
102
{ACAD_REACTORS
330
29
102
}
330
29
100
AcDbVisualStyle
  2
Brighten
 70
    12
 71
     2
 72
     2
 73
     0
 90
        0
 40
-0.6
 41
-30.0
 62
     5
 63
     7
 74
     1
 91
        4
 64
     7
 65
   257
 75
     1
175
     1
 42
1.0
 92
        8
 66
     7
 43
1.0
 76
     1
 77
     6
 78
     2
 67
     7
 79
     5
170
     0
171
     0
290
     0
174
     0
 93
        1
 44
50.0
173
     0
291
     1
 45
0.0
1001
ACAD
1000
AcDbSavedByObjectVersion
1070
     0
  0
VISUALSTYLE
  5
39
102
{ACAD_REACTORS
330
29
102
}
330
29
100
AcDbVisualStyle
  2
ColorChange
 70
    16
 71
     2
 72
     2
 73
     3
 90
        0
 40
-0.6
 41
-30.0
 62
     5
 63
     8
 74
     1
 91
        4
 64
     7
 65
   257
 75
     1
175
     1
 42
1.0
 92
        8
 66
     8
 43
1.0
 76
     1
 77
     6
 78
     2
 67
     7
 79
     5
170
     0
171
     0
290
     0
174
     0
 93
        1
 44
0.0
173
     0
291
     1
 45
0.0
1001
ACAD
1000
AcDbSavedByObjectVersion
1070
     0
  0
VISUALSTYLE
  5
32
102
{ACAD_REACTORS
330
29
102
}
330
29
100
AcDbVisualStyle
  2
Conceptual
 70
     9
 71
     3
 72
     2
 73
     0
 90
        0
 40
-0.6
 41
-30.0
 62
     5
 63
     7
 74
     2
 91
        2
 64
     7
 65
   257
 75
     1
175
     1
 42
40.0
 92
        8
 66
     7
 43
1.0
 76
     1
 77
     6
 78
     2
 67
     7
 79
     3
170
     0
171
     0
290
     0
174
     0
 93
        1
 44
0.0
173
     0
291
     0
 45
0.0
1001
ACAD
1000
AcDbSavedByObjectVersion
1070
     0
  0
VISUALSTYLE
  5
34
102
{ACAD_REACTORS
330
29
102
}
330
29
100
AcDbVisualStyle
  2
Dim
 70
    11
 71
     2
 72
     2
 73
     0
 90
        0
 40
-0.6
 41
-30.0
 62
     5
 63
     7
 74
     1
 91
        4
 64
     7
 65
   257
 75
     1
175
     1
 42
1.0
 92
        8
 66
     7
 43
1.0
 76
     1
 77
     6
 78
     2
 67
     7
 79
     5
170
     0
171
     0
290
     0
174
     0
 93
        1
 44
-50.0
173
     0
291
     1
 45
0.0
1001
ACAD
1000
AcDbSavedByObjectVersion
1070
     0
  0
VISUALSTYLE
  5
38
102
{ACAD_REACTORS
330
29
102
}
330
29
100
AcDbVisualStyle
  2
Facepattern
 70
    15
 71
     2
 72
     2
 73
     0
 90
        0
 40
-0.6
 41
-30.0
 62
     5
 63
     7
 74
     1
 91
        4
 64
     7
 65
   257
 75
     1
175
     1
 42
1.0
 92
        8
 66
     7
 43
1.0
 76
     1
 77
     6
 78
     2
 67
     7
 79
     5
170
     0
171
     0
290
     0
174
     0
 93
        1
 44
0.0
173
     0
291
     1
 45
0.0
1001
ACAD
1000
AcDbSavedByObjectVersion
1070
     0
  0
VISUALSTYLE
  5
2A
102
{ACAD_REACTORS
330
29
102
}
330
29
100
AcDbVisualStyle
  2
Flat
 70
     0
 71
     2
 72
     1
 73
     1
 90
        2
 40
-0.6
 41
30.0
 62
     5
 63
     7
 74
     0
 91
        4
 64
     7
 65
   257
 75
     1
175
     1
 42
1.0
 92
        8
 66
     7
 43
1.0
 76
     1
 77
     6
 78
     2
 67
     7
 79
     5
170
     0
171
     0
290
     0
174
     0
 93
       13
 44
0.0
173
     0
291
     1
 45
0.0
1001
ACAD
1000
AcDbSavedByObjectVersion
1070
     0
  0
VISUALSTYLE
  5
2B
102
{ACAD_REACTORS
330
29
102
}
330
29
100
AcDbVisualStyle
  2
FlatWithEdges
 70
     1
 71
     2
 72
     1
 73
     1
 90
        2
 40
-0.6
 41
30.0
 62
     5
 63
     7
 74
     1
 91
        4
 64
     7
 65
   257
 75
     1
175
     1
 42
1.0
 92
        0
 66
   257
 43
1.0
 76
     1
 77
     6
 78
     2
 67
     7
 79
     5
170
     0
171
     0
290
     0
174
     0
 93
       13
 44
0.0
173
     0
291
     1
 45
0.0
1001
ACAD
1000
AcDbSavedByObjectVersion
1070
     0
  0
VISUALSTYLE
  5
2C
102
{ACAD_REACTORS
330
29
102
}
330
29
100
AcDbVisualStyle
  2
Gouraud
 70
     2
 71
     2
 72
     2
 73
     1
 90
        2
 40
-0.6
 41
30.0
 62
     5
 63
     7
 74
     0
 91
        4
 64
     7
 65
   257
 75
     1
175
     1
 42
1.0
 92
        0
 66
     7
 43
1.0
 76
     1
 77
     6
 78
     2
 67
     7
 79
     5
170
     0
171
     0
290
     0
174
     0
 93
       13
 44
0.0
173
     0
291
     1
 45
0.0
1001
ACAD
1000
AcDbSavedByObjectVersion
1070
     0
  0
VISUALSTYLE
  5
2D
102
{ACAD_REACTORS
330
29
102
}
330
29
100
AcDbVisualStyle
  2
GouraudWithEdges
 70
     3
 71
     2
 72
     2
 73
     1
 90
        2
 40
-0.6
 41
30.0
 62
     5
 63
     7
 74
     1
 91
        4
 64
     7
 65
   257
 75
     1
175
     1
 42
1.0
 92
        0
 66
   257
 43
1.0
 76
     1
 77
     6
 78
     2
 67
     7
 79
     5
170
     0
171
     0
290
     0
174
     0
 93
       13
 44
0.0
173
     0
291
     1
 45
0.0
1001
ACAD
1000
AcDbSavedByObjectVersion
1070
     0
  0
VISUALSTYLE
  5
37
102
{ACAD_REACTORS
330
29
102
}
330
29
100
AcDbVisualStyle
  2
Linepattern
 70
    14
 71
     2
 72
     2
 73
     0
 90
        0
 40
-0.6
 41
-30.0
 62
     5
 63
     7
 74
     1
 91
        4
 64
     7
 65
   257
 75
     7
175
     7
 42
1.0
 92
        8
 66
     7
 43
1.0
 76
     1
 77
     6
 78
     2
 67
     7
 79
     5
170
     0
171
     0
290
     0
174
     0
 93
        1
 44
0.0
173
     0
291
     1
 45
0.0
1001
ACAD
1000
AcDbSavedByObjectVersion
1070
     0
  0
VISUALSTYLE
  5
33
102
{ACAD_REACTORS
330
29
102
}
330
29
100
AcDbVisualStyle
  2
Realistic
 70
     8
 71
     2
 72
     2
 73
     0
 90
        0
 40
-0.6
 41
-30.0
 62
     5
 63
     7
 74
     1
 91
        0
 64
     7
 65
   257
 75
     1
175
     1
 42
1.0
 92
        8
 66
     8
 43
1.0
 76
     1
 77
     6
 78
     2
 67
     7
 79
     5
170
     0
171
     0
290
     0
174
     0
 93
       13
 44
0.0
173
     0
291
     0
 45
0.0
1001
ACAD
1000
AcDbSavedByObjectVersion
1070
     0
  0
VISUALSTYLE
  5
36
102
{ACAD_REACTORS
330
29
102
}
330
29
100
AcDbVisualStyle
  2
Thicken
 70
    13
 71
     2
 72
     2
 73
     0
 90
        0
 40
-0.6
 41
-30.0
 62
     5
 63
     7
 74
     1
 91
        4
 64
     7
 65
   257
 75
     1
175
     1
 42
1.0
 92
       12
 66
     7
 43
1.0
 76
     1
 77
     6
 78
     2
 67
     7
 79
     5
170
     0
171
     0
290
     0
174
     0
 93
        1
 44
0.0
173
     0
291
     1
 45
0.0
1001
ACAD
1000
AcDbSavedByObjectVersion
1070
     0
  0
DICTIONARYVAR
  5
1AD
102
{ACAD_REACTORS
330
1A9
102
}
330
1A9
100
DictionaryVariables
280
     0
  1
1:1
  0
DICTIONARYVAR
  5
1AB
102
{ACAD_REACTORS
330
1A9
102
}
330
1A9
100
DictionaryVariables
280
     0
  1
STANDARD
  0
DICTIONARYVAR
  5
1AA
102
{ACAD_REACTORS
330
1A9
102
}
330
1A9
100
DictionaryVariables
280
     0
  1
STANDARD
  0
DICTIONARYVAR
  5
1B2
102
{ACAD_REACTORS
330
1A9
102
}
330
1A9
100
DictionaryVariables
280
     0
  1
1
  0
DICTIONARYVAR
  5
1B1
102
{ACAD_REACTORS
330
1A9
102
}
330
1A9
100
DictionaryVariables
280
     0
  1
1
  0
DICTIONARYVAR
  5
1B0
102
{ACAD_REACTORS
330
1A9
102
}
330
1A9
100
DictionaryVariables
280
     0
  1
0
  0
DICTIONARYVAR
  5
1AE
102
{ACAD_REACTORS
330
1A9
102
}
330
1A9
100
DictionaryVariables
280
     0
  1
2
  0
DICTIONARYVAR
  5
1AC
102
{ACAD_REACTORS
330
1A9
102
}
330
1A9
100
DictionaryVariables
280
     0
  1
1
  0
DICTIONARYVAR
  5
1AF
102
{ACAD_REACTORS
330
1A9
102
}
330
1A9
100
DictionaryVariables
280
     0
  1
127
  0
DICTIONARY
  5
1BB
330
74
100
AcDbDictionary
280
     1
281
     1
  3
ACAD_XREC_ROUNDTRIP
360
1BC
  0
DICTIONARY
  5
1BF
330
7C
100
AcDbDictionary
280
     1
281
     1
  3
ACAD_XREC_ROUNDTRIP
360
1C0
  0
DICTIONARY
  5
1BD
330
78
100
AcDbDictionary
280
     1
281
     1
  3
ACAD_XREC_ROUNDTRIP
360
1BE
  0
DICTIONARY
  5
1A
330
19
100
AcDbDictionary
280
     1
281
     1
  3
ACAD_XREC_ROUNDTRIP
360
1B8
  3
BUMPTILE
360
1C
  3
DIFFUSETILE
360
1B
  3
OPACITYTILE
360
1F
  3
REFLECTIONTILE
360
1E
  3
REFRACTIONTILE
360
20
  3
SPECULARTILE
360
1D
  0
DICTIONARY
  5
12
330
11
100
AcDbDictionary
280
     1
281
     1
  3
ACAD_XREC_ROUNDTRIP
360
1B7
  3
BUMPTILE
360
14
  3
DIFFUSETILE
360
13
  3
OPACITYTILE
360
17
  3
REFLECTIONTILE
360
16
  3
REFRACTIONTILE
360
18
  3
SPECULARTILE
360
15
  0
DICTIONARY
  5
22
330
21
100
AcDbDictionary
280
     1
281
     1
  3
ACAD_XREC_ROUNDTRIP
360
1B9
  3
BUMPTILE
360
24
  3
DIFFUSETILE
360
23
  3
OPACITYTILE
360
27
  3
REFLECTIONTILE
360
26
  3
REFRACTIONTILE
360
28
  3
SPECULARTILE
360
25
  0
DICTIONARY
  5
1B3
330
6D
100
AcDbDictionary
280
     1
281
     1
  3
ACAD_ROUNDTRIP_2008_TABLESTYLE_CELLSTYLEMAP
360
1B4
  3
ACAD_XREC_ROUNDTRIP
360
1BA
  0
XRECORD
  5
1BC
102
{ACAD_REACTORS
330
1BB
102
}
330
1BB
100
AcDbXrecord
280
     1
102
SHADEPLOT
 70
     0
102
SHADEPLOTRESLEVEL
 70
     2
102
SHADEPLOTCUSTOMDPI
 70
   300
  0
XRECORD
  5
1C0
102
{ACAD_REACTORS
330
1BF
102
}
330
1BF
100
AcDbXrecord
280
     1
102
SHADEPLOT
 70
     0
102
SHADEPLOTRESLEVEL
 70
     2
102
SHADEPLOTCUSTOMDPI
 70
   300
  0
XRECORD
  5
1BE
102
{ACAD_REACTORS
330
1BD
102
}
330
1BD
100
AcDbXrecord
280
     1
102
SHADEPLOT
 70
     0
102
SHADEPLOTRESLEVEL
 70
     2
102
SHADEPLOTCUSTOMDPI
 70
   300
  0
XRECORD
  5
1B8
102
{ACAD_REACTORS
330
1A
102
}
330
1A
100
AcDbXrecord
280
     1
102
MATERIAL
148
0.0
149
0.0
149
0.0
 93
        0
 94
      127
282
     0
 72
     0
 77
     0
171
     0
175
     0
179
     0
273
     0
  0
XRECORD
  5
1C
102
{ACAD_REACTORS
330
1A
102
}
330
1A
100
AcDbXrecord
280
     1
270
     1
271
     1
  0
XRECORD
  5
1B
102
{ACAD_REACTORS
330
1A
102
}
330
1A
100
AcDbXrecord
280
     1
270
     1
271
     1
  0
XRECORD
  5
1F
102
{ACAD_REACTORS
330
1A
102
}
330
1A
100
AcDbXrecord
280
     1
270
     1
271
     1
  0
XRECORD
  5
1E
102
{ACAD_REACTORS
330
1A
102
}
330
1A
100
AcDbXrecord
280
     1
270
     1
271
     1
  0
XRECORD
  5
20
102
{ACAD_REACTORS
330
1A
102
}
330
1A
100
AcDbXrecord
280
     1
270
     1
271
     1
  0
XRECORD
  5
1D
102
{ACAD_REACTORS
330
1A
102
}
330
1A
100
AcDbXrecord
280
     1
270
     1
271
     1
  0
XRECORD
  5
1B7
102
{ACAD_REACTORS
330
12
102
}
330
12
100
AcDbXrecord
280
     1
102
MATERIAL
148
0.0
149
0.0
149
0.0
 93
        0
 94
      127
282
     0
 72
     0
 77
     0
171
     0
175
     0
179
     0
273
     0
  0
XRECORD
  5
14
102
{ACAD_REACTORS
330
12
102
}
330
12
100
AcDbXrecord
280
     1
270
     1
271
     1
  0
XRECORD
  5
13
102
{ACAD_REACTORS
330
12
102
}
330
12
100
AcDbXrecord
280
     1
270
     1
271
     1
  0
XRECORD
  5
17
102
{ACAD_REACTORS
330
12
102
}
330
12
100
AcDbXrecord
280
     1
270
     1
271
     1
  0
XRECORD
  5
16
102
{ACAD_REACTORS
330
12
102
}
330
12
100
AcDbXrecord
280
     1
270
     1
271
     1
  0
XRECORD
  5
18
102
{ACAD_REACTORS
330
12
102
}
330
12
100
AcDbXrecord
280
     1
270
     1
271
     1
  0
XRECORD
  5
15
102
{ACAD_REACTORS
330
12
102
}
330
12
100
AcDbXrecord
280
     1
270
     1
271
     1
  0
XRECORD
  5
1B9
102
{ACAD_REACTORS
330
22
102
}
330
22
100
AcDbXrecord
280
     1
102
MATERIAL
148
0.0
149
0.0
149
0.0
 93
        0
 94
      127
282
     0
 72
     0
 77
     0
171
     0
175
     0
179
     0
273
     0
  0
XRECORD
  5
24
102
{ACAD_REACTORS
330
22
102
}
330
22
100
AcDbXrecord
280
     1
270
     1
271
     1
  0
XRECORD
  5
23
102
{ACAD_REACTORS
330
22
102
}
330
22
100
AcDbXrecord
280
     1
270
     1
271
     1
  0
XRECORD
  5
27
102
{ACAD_REACTORS
330
22
102
}
330
22
100
AcDbXrecord
280
     1
270
     1
271
     1
  0
XRECORD
  5
26
102
{ACAD_REACTORS
330
22
102
}
330
22
100
AcDbXrecord
280
     1
270
     1
271
     1
  0
XRECORD
  5
28
102
{ACAD_REACTORS
330
22
102
}
330
22
100
AcDbXrecord
280
     1
270
     1
271
     1
  0
XRECORD
  5
25
102
{ACAD_REACTORS
330
22
102
}
330
22
100
AcDbXrecord
280
     1
270
     1
271
     1
  0
CELLSTYLEMAP
  5
1B4
102
{ACAD_REACTORS
330
1B3
102
}
330
1B3
100
AcDbCellStyleMap
 90
        3
300
CELLSTYLE
  1
TABLEFORMAT_BEGIN
 90
        5
170
     1
 91
        0
 92
    32768
 62
   257
 93
        1
300
CONTENTFORMAT
  1
CONTENTFORMAT_BEGIN
 90
        0
 91
        0
 92
      512
 93
        0
300

 40
0.0
140
1.0
 94
        5
 62
     0
340
5D
144
0.25
309
CONTENTFORMAT_END
171
     0
 94
        0
309
TABLEFORMAT_END
  1
CELLSTYLE_BEGIN
 90
        1
 91
        1
300
_TITLE
309
CELLSTYLE_END
300
CELLSTYLE
  1
TABLEFORMAT_BEGIN
 90
        5
170
     1
 91
        0
 92
        0
 62
   257
 93
        1
300
CONTENTFORMAT
  1
CONTENTFORMAT_BEGIN
 90
        0
 91
        0
 92
      512
 93
        0
300

 40
0.0
140
1.0
 94
        5
 62
     0
340
5D
144
0.18
309
CONTENTFORMAT_END
171
     0
 94
        0
309
TABLEFORMAT_END
  1
CELLSTYLE_BEGIN
 90
        2
 91
        1
300
_HEADER
309
CELLSTYLE_END
300
CELLSTYLE
  1
TABLEFORMAT_BEGIN
 90
        5
170
     1
 91
        0
 92
        0
 62
   257
 93
        1
300
CONTENTFORMAT
  1
CONTENTFORMAT_BEGIN
 90
        0
 91
        0
 92
      512
 93
        0
300

 40
0.0
140
1.0
 94
        2
 62
     0
340
5D
144
0.18
309
CONTENTFORMAT_END
171
     0
 94
        0
309
TABLEFORMAT_END
  1
CELLSTYLE_BEGIN
 90
        3
 91
        2
300
_DATA
309
CELLSTYLE_END
  0
XRECORD
  5
1BA
102
{ACAD_REACTORS
330
1B3
102
}
330
1B3
100
AcDbXrecord
280
     1
102
ACAD_ROUNDTRIP_PRE2007_TABLESTYLE
 90
      512
 91
        0
  1

 92
      512
 93
        0
  2

 94
      512
 95
        0
  3

  0
ENDSEC
  0
EOF
