999
dxflib 2.0.4.8
  0
SECTION
  2
HEADER
  9
$ACADVER
  1
AC1015
  9
$HANDSEED
  5
FFFF
  9
$DIMTAD
 70
0
  9
$DIMTDEC
 70
4
  9
$USERR4
 40
0.0
  9
$CLAYER
  8
0
  9
$DIMALTZ
 70
0
  9
$MENU
  1
.
  9
$CHAMFERA
 40
0.5
  9
$UCSYDIR
 10
0.0
 20
1.0
 30
0.0
  9
$USERR5
 40
0.0
  9
$SHADEDIF
 70
70
  9
$TILEMODE
 70
1
  9
$VISRETAIN
 70
1
  9
$CMLSTYLE
  2
Standard
  9
$EXTMIN
 10
-3.270833333333333
 20
-2.5168996496258971
 30
-0.0015258207003583
  9
$ORTHOMODE
 70
0
  9
$REGENMODE
 70
1
  9
$TRACEWID
 40
0.05
  9
$DIMASZ
 40
0.18
  9
$DIMUPT
 70
0
  9
$DIMADEC
 70
0
  9
$CHAMFERB
 40
0.5
  9
$UCSXDIR
 10
1.0
 20
0.0
 30
0.0
  9
$OLESTARTUP
290
0
  9
$DIMSHO
 70
1
  9
$DIMALT
 70
0
  9
$DIMSAH
 70
0
  9
$DIMTFAC
 40
1.0
  9
$DIMGAP
 40
0.09
  9
$SKETCHINC
 40
0.1
  9
$CHAMFERC
 40
1.0
  9
$USRTIMER
 70
1
  9
$ANGBASE
 50
0.0
  9
$PUCSYDIR
 10
0.0
 20
1.0
 30
0.0
  9
$CMLJUST
 70
0
  9
$MEASUREMENT
 70
0
  9
$ENDCAPS
280
0
  9
$LIMMIN
 10
-2.0
 20
-2.0
  9
$DIMTSZ
 40
0.0
  9
$DIMALTTD
 70
2
  9
$DIMALTRND
 40
0.0
  9
$CHAMFERD
 40
0.0
  9
$SPLFRAME
 70
0
  9
$SURFTYPE
 70
6
  9
$PUCSXDIR
 10
1.0
 20
0.0
 30
0.0
  9
$LWDISPLAY
290
0
  9
$VERSIONGUID
  2
{9259D46C-8DA9-46B7-87F1-BD1E33D59845}
  9
$DWGCODEPAGE
  3
ANSI_1252
  9
$LUNITS
 70
2
  9
$AUPREC
 70
0
  9
$SPLINESEGS
 70
8
  9
$SURFTAB1
 70
6
  9
$CELWEIGHT
370
-1
  9
$INSBASE
 10
0.0
 20
0.0
 30
0.0
  9
$DIMRND
 40
0.0
  9
$DIMCEN
 40
0.09
  9
$DIMDSEP
 70
46
  9
$ELEVATION
 40
0.0
  9
$SKPOLY
 70
0
  9
$TDUCREATE
 40
2454828.5665377778932452
  9
$TDUUPDATE
 40
2454828.636378831230104
  9
$SURFTAB2
 70
6
  9
$UCSORTHOVIEW
 70
0
  9
$USERI1
 70
0
  9
$UNITMODE
 70
0
  9
$PSTYLEMODE
290
1
  9
$EXTMAX
 10
7.3961792217988744
 20
6.0181732352568922
 30
0.0000000349246037
  9
$FILLMODE
 70
1
  9
$TEXTSIZE
 40
0.125
  9
$DIMEXO
 40
0.0625
  9
$PELEVATION
 40
0.0
  9
$UCSORG
 10
0.0
 20
0.0
 30
0.0
  9
$UCSORGRIGHT
 10
0.0
 20
0.0
 30
0.0
  9
$USERI2
 70
0
  9
$INSUNITS
 70
1
  9
$DIMSCALE
 40
1.0
  9
$DIMDLE
 40
0.0
  9
$DIMZIN
 70
0
  9
$DIMTOLJ
 70
1
  9
$DIMTZIN
 70
0
  9
$DIMLWD
 70
-2
  9
$TDUSRTIMER
 40
0.069841169
  9
$ANGDIR
 70
0
  9
$SURFU
 70
6
  9
$PUCSORGBOTTOM
 10
0.0
 20
0.0
 30
0.0
  9
$USERI3
 70
0
  9
$JOINSTYLE
280
0
  9
$ACADMAINTVER
 70
6
  9
$LIMMAX
 10
7.5
 20
6.5
  9
$QTEXTMODE
 70
0
  9
$DIMJUST
 70
0
  9
$DIMALTTZ
 70
0
  9
$DIMATFIT
 70
3
  9
$DIMLUNIT
 70
2
  9
$DIMLWE
 70
-2
  9
$SURFV
 70
6
  9
$USERI4
 70
0
  9
$WORLDVIEW
 70
1
  9
$ATTMODE
 70
1
  9
$DIMTXT
 40
0.18
  9
$DIMLIM
 70
0
  9
$DIMSE1
 70
0
  9
$DIMAZIN
 70
0
  9
$THICKNESS
 40
0.0
  9
$LIMCHECK
 70
0
  9
$PDMODE
 70
0
  9
$UCSORGTOP
 10
0.0
 20
0.0
 30
0.0
  9
$USERI5
 70
0
  9
$PROXYGRAPHICS
 70
1
  9
$EXTNAMES
290
1
  9
$CELTYPE
  6
ByLayer
  9
$DIMTOH
 70
1
  9
$DIMSE2
 70
0
  9
$DIMLFAC
 40
1.0
  9
$DIMSOXD
 70
0
  9
$LUPREC
 70
4
  9
$TDINDWG
 40
0.0698429051
  9
$SPLINETYPE
 70
6
  9
$PUCSORG
 10
0.0
 20
0.0
 30
0.0
  9
$PEXTMIN
 10
100000000000000000000.0
 20
100000000000000000000.0
 30
100000000000000000000.0
  9
$PEXTMAX
 10
-100000000000000000000.0
 20
-100000000000000000000.0
 30
-100000000000000000000.0
  9
$XEDIT
290
1
  9
$CECOLOR
 62
256
  9
$DISPSILH
 70
0
  9
$DIMDLI
 40
0.38
  9
$DIMTM
 40
0.0
  9
$DIMASO
 70
1
  9
$DIMTVP
 40
0.0
  9
$DIMSTYLE
  2
Standard
  9
$DIMFRAC
 70
0
  9
$PLINEWID
 40
0.0
  9
$PUCSORGRIGHT
 10
0.0
 20
0.0
 30
0.0
  9
$PLIMCHECK
 70
0
  9
$FINGERPRINTGUID
  2
{C572903D-1373-4B82-AFBF-DABC8F94EDE7}
  9
$PSVPSCALE
 40
0.0
  9
$LTSCALE
 40
1.0
  9
$DIMTIH
 70
1
  9
$DIMALTD
 70
2
  9
$DIMCLRT
 70
0
  9
$DIMDEC
 70
4
  9
$DIMALTU
 70
2
  9
$FILLETRAD
 40
0.5
  9
$TDUPDATE
 40
2454828.386378831230104
  9
$UCSORGLEFT
 10
0.0
 20
0.0
 30
0.0
  9
$UCSORGBACK
 10
0.0
 20
0.0
 30
0.0
  9
$MAXACTVP
 70
64
  9
$PLIMMIN
 10
0.0
 20
0.0
  9
$PLIMMAX
 10
12.0
 20
9.0
  9
$TREEDEPTH
 70
3020
  9
$CELTSCALE
 40
1.0
  9
$DIMEXE
 40
0.18
  9
$DIMCLRD
 70
0
  9
$DIMTXSTY
  7
Standard
  9
$PDSIZE
 40
0.0
  9
$PUCSORTHOVIEW
 70
0
  9
$USERR1
 40
0.0
  9
$PINSBASE
 10
0.0
 20
0.0
 30
0.0
  9
$CMLSCALE
 40
1.0
  9
$CEPSNTYPE
380
0
  9
$TEXTSTYLE
  7
Standard
  9
$DIMTP
 40
0.0
  9
$DIMTOL
 70
0
  9
$DIMALTF
 40
25.3999999999999986
  9
$DIMTOFL
 70
0
  9
$DIMCLRE
 70
0
  9
$DIMSD1
 70
0
  9
$DIMAUNIT
 70
0
  9
$DIMTMOVE
 70
0
  9
$TDCREATE
 40
2454828.3165377769619226
  9
$UCSORGFRONT
 10
0.0
 20
0.0
 30
0.0
  9
$PUCSORGTOP
 10
0.0
 20
0.0
 30
0.0
  9
$USERR2
 40
0.0
  9
$SHADEDGE
 70
3
  9
$PLINEGEN
 70
0
  9
$PSLTSCALE
 70
1
  9
$MIRRTEXT
 70
1
  9
$DIMTIX
 70
0
  9
$DIMSD2
 70
0
  9
$AUNITS
 70
0
  9
$UCSORGBOTTOM
 10
0.0
 20
0.0
 30
0.0
  9
$PUCSORGLEFT
 10
0.0
 20
0.0
 30
0.0
  9
$PUCSORGFRONT
 10
0.0
 20
0.0
 30
0.0
  9
$PUCSORGBACK
 10
0.0
 20
0.0
 30
0.0
  9
$USERR3
 40
0.0
  0
ENDSEC
  0
SECTION
  2
TABLES
  0
TABLE
  2
VPORT
  5
8
100
AcDbSymbolTable
 70
1
  0
VPORT
  5
30
100
AcDbSymbolTableRecord
100
AcDbViewportTableRecord
  2
*Active
 70
0
 10
0.0
 20
0.0
 11
1.0
 21
1.0
 12
286.3055555555554861
 22
148.5
 13
0.0
 23
0.0
 14
10.0
 24
10.0
 15
10.0
 25
10.0
 16
0.0
 26
0.0
 36
1.0
 17
0.0
 27
0.0
 37
0.0
 40
297.0
 41
1.92798353909465
 42
50.0
 43
0.0
 44
0.0
 50
0.0
 51
0.0
 71
0
 72
100
 73
1
 74
3
 75
1
 76
1
 77
0
 78
0
281
0
 65
1
110
0.0
120
0.0
130
0.0
111
1.0
121
0.0
131
0.0
112
0.0
122
1.0
132
0.0
 79
0
146
0.0
  0
ENDTAB
  0
TABLE
  2
LTYPE
  5
5
100
AcDbSymbolTable
 70
21
  0
LTYPE
  5
14
100
AcDbSymbolTableRecord
100
AcDbLinetypeTableRecord
  2
ByBlock
 70
0
  3

 72
65
 73
0
 40
0.0
  0
LTYPE
  5
15
100
AcDbSymbolTableRecord
100
AcDbLinetypeTableRecord
  2
ByLayer
 70
0
  3

 72
65
 73
0
 40
0.0
  0
LTYPE
  5
16
100
AcDbSymbolTableRecord
100
AcDbLinetypeTableRecord
  2
CONTINUOUS
 70
0
  3
Solid line
 72
65
 73
0
 40
0.0
  0
LTYPE
  5
31
100
AcDbSymbolTableRecord
100
AcDbLinetypeTableRecord
  2
DOT
 70
0
  3
Dot . . . . . . . . . . . . . . . . . . . . . .
 72
65
 73
2
 40
6.3499999999999996
 49
0.0
 74
0
 49
-6.3499999999999996
 74
0
  0
LTYPE
  5
32
100
AcDbSymbolTableRecord
100
AcDbLinetypeTableRecord
  2
DOT2
 70
0
  3
Dot (.5x) .....................................
 72
65
 73
2
 40
3.1749999999999998
 49
0.0
 74
0
 49
-3.1749999999999998
 74
0
  0
LTYPE
  5
33
100
AcDbSymbolTableRecord
100
AcDbLinetypeTableRecord
  2
DOTX2
 70
0
  3
Dot (2x) .  .  .  .  .  .  .  .  .  .  .  .  .
 72
65
 73
2
 40
12.6999999999999993
 49
0.0
 74
0
 49
-12.6999999999999993
 74
0
  0
LTYPE
  5
34
100
AcDbSymbolTableRecord
100
AcDbLinetypeTableRecord
  2
DASHED
 70
0
  3
Dashed __ __ __ __ __ __ __ __ __ __ __ __ __ _
 72
65
 73
2
 40
19.0500000000000007
 49
12.6999999999999993
 74
0
 49
-6.3499999999999996
 74
0
  0
LTYPE
  5
35
100
AcDbSymbolTableRecord
100
AcDbLinetypeTableRecord
  2
DASHED2
 70
0
  3
Dashed (.5x) _ _ _ _ _ _ _ _ _ _ _ _ _ _ _ _ _
 72
65
 73
2
 40
9.5250000000000004
 49
6.3499999999999996
 74
0
 49
-3.1749999999999998
 74
0
  0
LTYPE
  5
36
100
AcDbSymbolTableRecord
100
AcDbLinetypeTableRecord
  2
DASHEDX2
 70
0
  3
Dashed (2x) ____  ____  ____  ____  ____  ___
 72
65
 73
2
 40
38.1000000000000014
 49
25.3999999999999986
 74
0
 49
-12.6999999999999993
 74
0
  0
LTYPE
  5
37
100
AcDbSymbolTableRecord
100
AcDbLinetypeTableRecord
  2
DASHDOT
 70
0
  3
Dash dot __ . __ . __ . __ . __ . __ . __ . __
 72
65
 73
4
 40
25.3999999999999986
 49
12.6999999999999993
 74
0
 49
-6.3499999999999996
 74
0
 49
0.0
 74
0
 49
-6.3499999999999996
 74
0
  0
LTYPE
  5
38
100
AcDbSymbolTableRecord
100
AcDbLinetypeTableRecord
  2
DASHDOT2
 70
0
  3
Dash dot (.5x) _._._._._._._._._._._._._._._.
 72
65
 73
4
 40
12.6999999999999993
 49
6.3499999999999996
 74
0
 49
-3.1749999999999998
 74
0
 49
0.0
 74
0
 49
-3.1749999999999998
 74
0
  0
LTYPE
  5
39
100
AcDbSymbolTableRecord
100
AcDbLinetypeTableRecord
  2
DASHDOTX2
 70
0
  3
Dash dot (2x) ____  .  ____  .  ____  .  ___
 72
65
 73
4
 40
50.7999999999999972
 49
25.3999999999999986
 74
0
 49
-12.6999999999999993
 74
0
 49
0.0
 74
0
 49
-12.6999999999999993
 74
0
  0
LTYPE
  5
3A
100
AcDbSymbolTableRecord
100
AcDbLinetypeTableRecord
  2
DIVIDE
 70
0
  3
Divide ____ . . ____ . . ____ . . ____ . . ____
 72
65
 73
6
 40
31.75
 49
12.6999999999999993
 74
0
 49
-6.3499999999999996
 74
0
 49
0.0
 74
0
 49
-6.3499999999999996
 74
0
 49
0.0
 74
0
 49
-6.3499999999999996
 74
0
  0
LTYPE
  5
3B
100
AcDbSymbolTableRecord
100
AcDbLinetypeTableRecord
  2
DIVIDE2
 70
0
  3
Divide (.5x) __..__..__..__..__..__..__..__.._
 72
65
 73
6
 40
15.875
 49
6.3499999999999996
 74
0
 49
-3.1749999999999998
 74
0
 49
0.0
 74
0
 49
-3.1749999999999998
 74
0
 49
0.0
 74
0
 49
-3.1749999999999998
 74
0
  0
LTYPE
  5
3C
100
AcDbSymbolTableRecord
100
AcDbLinetypeTableRecord
  2
DIVIDEX2
 70
0
  3
Divide (2x) ________  .  .  ________  .  .  _
 72
65
 73
6
 40
63.5
 49
25.3999999999999986
 74
0
 49
-12.6999999999999993
 74
0
 49
0.0
 74
0
 49
-12.6999999999999993
 74
0
 49
0.0
 74
0
 49
-12.6999999999999993
 74
0
  0
LTYPE
  5
3D
100
AcDbSymbolTableRecord
100
AcDbLinetypeTableRecord
  2
CENTER
 70
0
  3
Center ____ _ ____ _ ____ _ ____ _ ____ _ ____
 72
65
 73
4
 40
50.7999999999999972
 49
31.75
 74
0
 49
-6.3499999999999996
 74
0
 49
6.3499999999999996
 74
0
 49
-6.3499999999999996
 74
0
  0
LTYPE
  5
3E
100
AcDbSymbolTableRecord
100
AcDbLinetypeTableRecord
  2
CENTER2
 70
0
  3
Center (.5x) ___ _ ___ _ ___ _ ___ _ ___ _ ___
 72
65
 73
4
 40
28.5749999999999993
 49
19.0500000000000007
 74
0
 49
-3.1749999999999998
 74
0
 49
3.1749999999999998
 74
0
 49
-3.1749999999999998
 74
0
  0
LTYPE
  5
3F
100
AcDbSymbolTableRecord
100
AcDbLinetypeTableRecord
  2
CENTERX2
 70
0
  3
Center (2x) ________  __  ________  __  _____
 72
65
 73
4
 40
101.5999999999999943
 49
63.5
 74
0
 49
-12.6999999999999993
 74
0
 49
12.6999999999999993
 74
0
 49
-12.6999999999999993
 74
0
  0
LTYPE
  5
40
100
AcDbSymbolTableRecord
100
AcDbLinetypeTableRecord
  2
BORDER
 70
0
  3
Border __ __ . __ __ . __ __ . __ __ . __ __ .
 72
65
 73
6
 40
44.4500000000000028
 49
12.6999999999999993
 74
0
 49
-6.3499999999999996
 74
0
 49
12.6999999999999993
 74
0
 49
-6.3499999999999996
 74
0
 49
0.0
 74
0
 49
-6.3499999999999996
 74
0
  0
LTYPE
  5
41
100
AcDbSymbolTableRecord
100
AcDbLinetypeTableRecord
  2
BORDER2
 70
0
  3
Border (.5x) __.__.__.__.__.__.__.__.__.__.__.
 72
65
 73
6
 40
22.2250000000000014
 49
6.3499999999999996
 74
0
 49
-3.1749999999999998
 74
0
 49
6.3499999999999996
 74
0
 49
-3.1749999999999998
 74
0
 49
0.0
 74
0
 49
-3.1749999999999998
 74
0
  0
LTYPE
  5
42
100
AcDbSymbolTableRecord
100
AcDbLinetypeTableRecord
  2
BORDERX2
 70
0
  3
Border (2x) ____  ____  .  ____  ____  .  ___
 72
65
 73
6
 40
88.9000000000000057
 49
25.3999999999999986
 74
0
 49
-12.6999999999999993
 74
0
 49
25.3999999999999986
 74
0
 49
-12.6999999999999993
 74
0
 49
0.0
 74
0
 49
-12.6999999999999993
 74
0
  0
ENDTAB
  0
TABLE
  2
LAYER
  5
2
100
AcDbSymbolTable
 70
4
  0
LAYER
  5
10
100
AcDbSymbolTableRecord
100
AcDbLayerTableRecord
  2
0
 70
0
 62
7
  6
CONTINUOUS
370
25
390
F
  0
LAYER
  5
43
100
AcDbSymbolTableRecord
100
AcDbLayerTableRecord
  2
1
 70
5
 62
7
  6
CONTINUOUS
370
-3
390
F
  0
LAYER
  5
44
100
AcDbSymbolTableRecord
100
AcDbLayerTableRecord
  2
2
 70
0
 62
1
  6
CONTINUOUS
370
25
390
F
  0
LAYER
  5
45
100
AcDbSymbolTableRecord
100
AcDbLayerTableRecord
  2
3
 70
0
 62
5
  6
CONTINUOUS
370
25
390
F
  0
ENDTAB
  0
TABLE
  2
STYLE
  5
3
100
AcDbSymbolTable
 70
1
  0
STYLE
  5
11
100
AcDbSymbolTableRecord
100
AcDbTextStyleTableRecord
  2
Standard
 70
0
 40
0.0
 41
0.75
 50
0.0
 71
0
 42
2.5
  3
txt
  4

  0
ENDTAB
  0
TABLE
  2
VIEW
  5
6
100
AcDbSymbolTable
 70
0
  0
ENDTAB
  0
TABLE
  2
UCS
  5
7
100
AcDbSymbolTable
 70
0
  0
ENDTAB
  0
TABLE
  2
APPID
  5
9
100
AcDbSymbolTable
 70
1
  0
APPID
  5
12
100
AcDbSymbolTableRecord
100
AcDbRegAppTableRecord
  2
ACAD
 70
0
  0
ENDTAB
  0
TABLE
  2
DIMSTYLE
  5
A
100
AcDbSymbolTable
 70
1
100
AcDbDimStyleTable
 71
0
  0
DIMSTYLE
105
27
100
AcDbSymbolTableRecord
100
AcDbDimStyleTableRecord
  2
Standard
 41
0.18
 42
0.0625
 43
3.75
 44
0.18
 70
0
 73
0
 74
0
 77
1
 78
8
140
0.18
141
2.5
143
0.03937007874016
147
0.09
171
3
172
1
271
2
272
2
274
3
278
44
283
0
284
8
340
11
  0
ENDTAB
  0
TABLE
  2
BLOCK_RECORD
  5
1
100
AcDbSymbolTable
 70
1
  0
BLOCK_RECORD
  5
1F
100
AcDbSymbolTableRecord
100
AcDbBlockTableRecord
  2
*Model_Space
340
22
  0
BLOCK_RECORD
  5
1B
100
AcDbSymbolTableRecord
100
AcDbBlockTableRecord
  2
*Paper_Space
340
1E
  0
BLOCK_RECORD
  5
23
100
AcDbSymbolTableRecord
100
AcDbBlockTableRecord
  2
*Paper_Space0
340
26
  0
BLOCK_RECORD
  5
46
100
AcDbSymbolTableRecord
100
AcDbBlockTableRecord
  2
_Dot
340
0
  0
ENDTAB
  0
ENDSEC
  0
SECTION
  2
BLOCKS
  0
BLOCK
  5
20
100
AcDbEntity
  8
0
100
AcDbBlockBegin
  2
*Model_Space
 70
0
 10
0.0
 20
0.0
 30
0.0
  3
*Model_Space
  1

  0
ENDBLK
  5
21
100
AcDbEntity
  8
0
100
AcDbBlockEnd
  0
BLOCK
  5
1C
100
AcDbEntity
 67
1
  8
0
100
AcDbBlockBegin
  2
*Paper_Space
 70
0
 10
0.0
 20
0.0
 30
0.0
  3
*Paper_Space
  1

  0
ENDBLK
  5
1D
100
AcDbEntity
 67
1
  8
0
100
AcDbBlockEnd
  0
BLOCK
  5
24
100
AcDbEntity
  8
0
100
AcDbBlockBegin
  2
*Paper_Space0
 70
0
 10
0.0
 20
0.0
 30
0.0
  3
*Paper_Space0
  1

  0
ENDBLK
  5
25
100
AcDbEntity
  8
0
100
AcDbBlockEnd
  0
BLOCK
  5
47
100
AcDbEntity
  8
0
100
AcDbBlockBegin
  2
_Dot
 70
0
 10
0.0
 20
0.0
 30
0.0
  3
_Dot
  1

  0
LWPOLYLINE
  5
48
  8
0
 62
0
370
-1
  6
ByLayer
100
AcDbEntity
100
AcDbPolyline
 90
3
 70
1
 10
-0.25
 20
0.0
 42
0.9999999999999999
 10
0.25
 20
0.0
 42
0.9999999999999999
 10
-0.25
 20
0.0
  0
LINE
  5
49
100
AcDbEntity
100
AcDbLine
  8
0
 62
0
370
-2
  6
ByLayer
 10
-0.5
 20
0.0
 30
0.0
 11
-1.0
 21
0.0
 31
0.0
  0
ENDBLK
  5
4A
100
AcDbEntity
  8
0
100
AcDbBlockEnd
  0
ENDSEC
  0
SECTION
  2
ENTITIES
  0
LWPOLYLINE
  5
4B
  8
1
 62
256
370
-1
  6
ByLayer
100
AcDbEntity
100
AcDbPolyline
 90
5
 70
1
 10
0.0
 20
0.0
 10
4.0
 20
0.0
 10
4.0
 20
4.0
 10
0.0
 20
4.0
 10
0.0
 20
0.0
  0
LINE
  5
4C
100
AcDbEntity
100
AcDbLine
  8
1
 62
256
370
-1
  6
ByLayer
 10
0.0
 20
4.0
 30
0.0
 11
4.0
 21
0.0
 31
0.0
  0
LINE
  5
4D
100
AcDbEntity
100
AcDbLine
  8
1
 62
256
370
-1
  6
ByLayer
 10
4.0
 20
4.0
 30
0.0
 11
0.0
 21
0.0
 31
0.0
  0
LINE
  5
4E
100
AcDbEntity
100
AcDbLine
  8
1
 62
256
370
-1
  6
ByLayer
 10
2.0
 20
0.0
 30
0.0
 11
2.0
 21
4.0
 31
0.0
  0
LINE
  5
4F
100
AcDbEntity
100
AcDbLine
  8
1
 62
256
370
-1
  6
ByLayer
 10
4.0
 20
2.0
 30
0.0
 11
0.0
 21
2.0
 31
0.0
  0
LINE
  5
50
100
AcDbEntity
100
AcDbLine
  8
2
 62
256
370
-1
  6
ByLayer
 10
0.0
 20
0.5
 30
0.0
 11
0.0
 21
-0.5
 31
0.0
  0
LINE
  5
51
100
AcDbEntity
100
AcDbLine
  8
2
 62
256
370
-1
  6
ByLayer
 10
-0.5
 20
0.0
 30
0.0
 11
0.5
 21
0.0
 31
0.0
  0
LINE
  5
52
100
AcDbEntity
100
AcDbLine
  8
2
 62
256
370
-1
  6
ByLayer
 10
1.5
 20
0.0
 30
0.0
 11
2.5
 21
0.0
 31
0.0
  0
LINE
  5
53
100
AcDbEntity
100
AcDbLine
  8
2
 62
256
370
-1
  6
ByLayer
 10
2.0
 20
0.0
 30
0.0
 11
2.0
 21
0.5
 31
0.0
  0
LINE
  5
54
100
AcDbEntity
100
AcDbLine
  8
2
 62
256
370
-1
  6
ByLayer
 10
0.0
 20
2.5
 30
0.0
 11
0.0
 21
1.5
 31
0.0
  0
LINE
  5
55
100
AcDbEntity
100
AcDbLine
  8
2
 62
256
370
-1
  6
ByLayer
 10
0.0
 20
2.0
 30
0.0
 11
0.5
 21
2.0
 31
0.0
  0
LINE
  5
56
100
AcDbEntity
100
AcDbLine
  8
2
 62
256
370
-1
  6
ByLayer
 10
0.0
 20
3.5
 30
0.0
 11
0.0
 21
4.5
 31
0.0
  0
LINE
  5
57
100
AcDbEntity
100
AcDbLine
  8
2
 62
256
370
-1
  6
ByLayer
 10
0.5
 20
4.0
 30
0.0
 11
-0.5
 21
4.0
 31
0.0
  0
LINE
  5
58
100
AcDbEntity
100
AcDbLine
  8
2
 62
256
370
-1
  6
ByLayer
 10
1.5
 20
4.0
 30
0.0
 11
2.5
 21
4.0
 31
0.0
  0
LINE
  5
59
100
AcDbEntity
100
AcDbLine
  8
2
 62
256
370
-1
  6
ByLayer
 10
2.0
 20
4.0
 30
0.0
 11
2.0
 21
3.5
 31
0.0
  0
LINE
  5
5A
100
AcDbEntity
100
AcDbLine
  8
2
 62
256
370
-1
  6
ByLayer
 10
4.0
 20
4.5
 30
0.0
 11
4.0
 21
3.5
 31
0.0
  0
LINE
  5
5B
100
AcDbEntity
100
AcDbLine
  8
2
 62
256
370
-1
  6
ByLayer
 10
3.5
 20
4.0
 30
0.0
 11
4.5
 21
4.0
 31
0.0
  0
LINE
  5
5C
100
AcDbEntity
100
AcDbLine
  8
2
 62
256
370
-1
  6
ByLayer
 10
4.0
 20
2.5
 30
0.0
 11
4.0
 21
1.5
 31
0.0
  0
LINE
  5
5D
100
AcDbEntity
100
AcDbLine
  8
2
 62
256
370
-1
  6
ByLayer
 10
3.5
 20
2.0
 30
0.0
 11
4.0
 21
2.0
 31
0.0
  0
LINE
  5
5E
100
AcDbEntity
100
AcDbLine
  8
2
 62
256
370
-1
  6
ByLayer
 10
4.0
 20
0.5
 30
0.0
 11
4.0
 21
-0.5
 31
0.0
  0
LINE
  5
5F
100
AcDbEntity
100
AcDbLine
  8
2
 62
256
370
-1
  6
ByLayer
 10
3.5
 20
0.0
 30
0.0
 11
4.5
 21
0.0
 31
0.0
  0
ARC
  5
60
100
AcDbEntity
  8
3
 62
256
370
-1
  6
ByLayer
100
AcDbCircle
 10
-0.25
 20
2.0
 30
0.0
 40
0.25
100
AcDbArc
 50
299.9999999999998863
 51
59.9999999999999432
  0
LINE
  5
61
100
AcDbEntity
100
AcDbLine
  8
3
 62
256
370
-1
  6
ByLayer
 10
-0.125
 20
2.2165063509461089
 30
0.0
 11
-1.0490381056766569
 21
2.75
 31
0.0
  0
LINE
  5
62
100
AcDbEntity
100
AcDbLine
  8
3
 62
256
370
-1
  6
ByLayer
 10
-1.049038105676658
 20
1.25
 30
0.0
 11
-0.125
 21
1.78349364905389
 31
0.0
  0
LINE
  5
63
100
AcDbEntity
100
AcDbLine
  8
3
 62
256
370
-1
  6
ByLayer
 10
-2.0
 20
2.75
 30
0.0
 11
-1.049038105676656
 21
2.75
 31
0.0
  0
LINE
  5
64
100
AcDbEntity
100
AcDbLine
  8
3
 62
256
370
-1
  6
ByLayer
 10
-2.0
 20
1.25
 30
0.0
 11
-1.049038105676658
 21
1.25
 31
0.0
  0
LINE
  5
65
100
AcDbEntity
100
AcDbLine
  8
3
 62
256
370
-1
  6
ByLayer
 10
-0.9571067811865477
 20
-2.017766952966368
 30
0.0
 11
-0.284675177060508
 21
-1.345335348840329
 31
0.0
  0
LINE
  5
66
100
AcDbEntity
100
AcDbLine
  8
3
 62
256
370
-1
  6
ByLayer
 10
-0.2846751770605079
 20
-1.3453353488403279
 30
0.0
 11
-0.008518543427733
 21
-0.3147047612756302
 31
0.0
  0
ARC
  5
67
100
AcDbEntity
  8
3
 62
256
370
-1
  6
ByLayer
100
AcDbCircle
 10
-0.25
 20
-0.25
 30
0.0
 40
0.25
100
AcDbArc
 50
344.9999999999998863
 51
104.9999999999999005
  0
LINE
  5
68
100
AcDbEntity
100
AcDbLine
  8
3
 62
256
370
-1
  6
ByLayer
 10
-0.3147047612756303
 20
-0.0085185434277328
 30
0.0
 11
-1.3453353488403279
 21
-0.2846751770605068
 31
0.0
  0
LINE
  5
69
100
AcDbEntity
100
AcDbLine
  8
3
 62
256
370
-1
  6
ByLayer
 10
-2.017766952966368
 20
-0.9571067811865475
 30
0.0
 11
-1.345335348840327
 21
-0.2846751770605062
 31
0.0
  0
LINE
  5
6A
100
AcDbEntity
100
AcDbLine
  8
3
 62
256
370
-1
  6
ByLayer
 10
1.249999999999998
 20
-1.9999999999999989
 30
0.0
 11
1.249999999999998
 21
-1.049038105676656
 31
0.0
  0
LINE
  5
6B
100
AcDbEntity
100
AcDbLine
  8
3
 62
256
370
-1
  6
ByLayer
 10
1.7834936490538891
 20
-0.125
 30
0.0
 11
1.249999999999998
 21
-1.049038105676656
 31
0.0
  0
ARC
  5
6C
100
AcDbEntity
  8
3
 62
256
370
-1
  6
ByLayer
100
AcDbCircle
 10
1.9999999999999989
 20
-0.25
 30
0.0
 40
0.25
100
AcDbArc
 50
29.9999999999999716
 51
149.9999999999998863
  0
LINE
  5
6D
100
AcDbEntity
100
AcDbLine
  8
3
 62
256
370
-1
  6
ByLayer
 10
2.7499999999999978
 20
-1.049038105676658
 30
0.0
 11
2.216506350946108
 21
-0.125
 31
0.0
  0
LINE
  5
6E
100
AcDbEntity
100
AcDbLine
  8
3
 62
256
370
-1
  6
ByLayer
 10
2.7499999999999978
 20
-2.0
 30
0.0
 11
2.7499999999999991
 21
-1.049038105676658
 31
0.0
  0
LINE
  5
6F
100
AcDbEntity
100
AcDbLine
  8
3
 62
256
370
-1
  6
ByLayer
 10
6.0
 20
1.2499999999999969
 30
0.0
 11
5.0490381056766562
 21
1.249999999999998
 31
0.0
  0
LINE
  5
70
100
AcDbEntity
100
AcDbLine
  8
3
 62
256
370
-1
  6
ByLayer
 10
4.125
 20
1.7834936490538891
 30
0.0
 11
5.0490381056766571
 21
1.249999999999998
 31
0.0
  0
ARC
  5
71
100
AcDbEntity
  8
3
 62
256
370
-1
  6
ByLayer
100
AcDbCircle
 10
4.25
 20
1.9999999999999989
 30
0.0
 40
0.25
100
AcDbArc
 50
119.9999999999998863
 51
239.9999999999998863
  0
LINE
  5
72
100
AcDbEntity
100
AcDbLine
  8
3
 62
256
370
-1
  6
ByLayer
 10
5.0490381056766589
 20
2.7499999999999978
 30
0.0
 11
4.125
 21
2.216506350946108
 31
0.0
  0
LINE
  5
73
100
AcDbEntity
100
AcDbLine
  8
3
 62
256
370
-1
  6
ByLayer
 10
6.0
 20
2.7499999999999978
 30
0.0
 11
5.0490381056766589
 21
2.7499999999999978
 31
0.0
  0
LINE
  5
74
100
AcDbEntity
100
AcDbLine
  8
3
 62
256
370
-1
  6
ByLayer
 10
2.750000000000004
 20
5.9999999999999991
 30
0.0
 11
2.7500000000000031
 21
5.0490381056766553
 31
0.0
  0
LINE
  5
75
100
AcDbEntity
100
AcDbLine
  8
3
 62
256
370
-1
  6
ByLayer
 10
2.216506350946112
 20
4.1249999999999991
 30
0.0
 11
2.7500000000000031
 21
5.0490381056766562
 31
0.0
  0
ARC
  5
76
100
AcDbEntity
  8
3
 62
256
370
-1
  6
ByLayer
100
AcDbCircle
 10
2.0000000000000022
 20
4.25
 30
0.0
 40
0.25
100
AcDbArc
 50
209.9999999999998863
 51
329.9999999999997726
  0
LINE
  5
77
100
AcDbEntity
100
AcDbLine
  8
3
 62
256
370
-1
  6
ByLayer
 10
1.2500000000000031
 20
5.049038105676658
 30
0.0
 11
1.783493649053892
 21
4.125
 31
0.0
  0
LINE
  5
78
100
AcDbEntity
100
AcDbLine
  8
3
 62
256
370
-1
  6
ByLayer
 10
1.250000000000004
 20
6.0
 30
0.0
 11
1.2500000000000031
 21
5.049038105676658
 31
0.0
  0
LINE
  5
79
100
AcDbEntity
100
AcDbLine
  8
3
 62
256
370
-1
  6
ByLayer
 10
6.0177669529663671
 20
-0.9571067811865487
 30
0.0
 11
5.3453353488403277
 21
-0.2846751770605089
 31
0.0
  0
LINE
  5
7A
100
AcDbEntity
100
AcDbLine
  8
3
 62
256
370
-1
  6
ByLayer
 10
5.3453353488403268
 20
-0.2846751770605089
 30
0.0
 11
4.3147047612756291
 21
-0.0085185434277335
 31
0.0
  0
ARC
  5
7B
100
AcDbEntity
  8
3
 62
256
370
-1
  6
ByLayer
100
AcDbCircle
 10
4.2499999999999991
 20
-0.2500000000000004
 30
0.0
 40
0.25
100
AcDbArc
 50
74.9999999999999716
 51
194.9999999999998863
  0
LINE
  5
7C
100
AcDbEntity
100
AcDbLine
  8
3
 62
256
370
-1
  6
ByLayer
 10
4.0085185434277308
 20
-0.3147047612756308
 30
0.0
 11
4.2846751770605049
 21
-1.3453353488403279
 31
0.0
  0
LINE
  5
7D
100
AcDbEntity
100
AcDbLine
  8
3
 62
256
370
-1
  6
ByLayer
 10
4.9571067811865461
 20
-2.0177669529663689
 30
0.0
 11
4.284675177060504
 21
-1.3453353488403279
 31
0.0
  0
LINE
  5
7E
100
AcDbEntity
100
AcDbLine
  8
3
 62
256
370
-1
  6
ByLayer
 10
4.9571067811865497
 20
6.0177669529663671
 30
0.0
 11
4.2846751770605103
 21
5.3453353488403268
 31
0.0
  0
LINE
  5
7F
100
AcDbEntity
100
AcDbLine
  8
3
 62
256
370
-1
  6
ByLayer
 10
4.2846751770605103
 20
5.3453353488403268
 30
0.0
 11
4.0085185434277353
 21
4.3147047612756291
 31
0.0
  0
ARC
  5
80
100
AcDbEntity
  8
3
 62
256
370
-1
  6
ByLayer
100
AcDbCircle
 10
4.2500000000000018
 20
4.2499999999999991
 30
0.0
 40
0.25
100
AcDbArc
 50
164.999999999999801
 51
284.9999999999998863
  0
LINE
  5
81
100
AcDbEntity
100
AcDbLine
  8
3
 62
256
370
-1
  6
ByLayer
 10
4.3147047612756309
 20
4.0085185434277308
 30
0.0
 11
5.3453353488403303
 21
4.284675177060504
 31
0.0
  0
LINE
  5
82
100
AcDbEntity
100
AcDbLine
  8
3
 62
256
370
-1
  6
ByLayer
 10
6.0177669529663698
 20
4.9571067811865452
 30
0.0
 11
5.3453353488403286
 21
4.284675177060504
 31
0.0
  0
LINE
  5
83
100
AcDbEntity
100
AcDbLine
  8
3
 62
256
370
-1
  6
ByLayer
 10
-2.0177669529663649
 20
4.9571067811865506
 30
0.0
 11
-1.3453353488403259
 21
4.2846751770605112
 31
0.0
  0
LINE
  5
84
100
AcDbEntity
100
AcDbLine
  8
3
 62
256
370
-1
  6
ByLayer
 10
-1.3453353488403259
 20
4.2846751770605112
 30
0.0
 11
-0.3147047612756282
 21
4.0085185434277353
 31
0.0
  0
ARC
  5
85
100
AcDbEntity
  8
3
 62
256
370
-1
  6
ByLayer
100
AcDbCircle
 10
-0.2499999999999973
 20
4.2500000000000009
 30
0.0
 40
0.25
100
AcDbArc
 50
254.9999999999998579
 51
14.9999999999998774
  0
LINE
  5
86
100
AcDbEntity
100
AcDbLine
  8
3
 62
256
370
-1
  6
ByLayer
 10
-0.0085185434277304
 20
4.3147047612756309
 30
0.0
 11
-0.2846751770605031
 21
5.3453353488403303
 31
0.0
  0
LINE
  5
87
100
AcDbEntity
100
AcDbLine
  8
3
 62
256
370
-1
  6
ByLayer
 10
-0.9571067811865429
 20
6.0177669529663724
 30
0.0
 11
-0.2846751770605027
 21
5.3453353488403286
 31
0.0
  0
LINE
  5
88
100
AcDbEntity
100
AcDbLine
  8
2
 62
256
370
-1
  6
ByLayer
 10
1.5
 20
2.0
 30
0.0
 11
2.5
 21
2.0
 31
0.0
  0
LINE
  5
89
100
AcDbEntity
100
AcDbLine
  8
2
 62
256
370
-1
  6
ByLayer
 10
2.0
 20
2.5
 30
0.0
 11
2.0
 21
1.5
 31
0.0
  0
CIRCLE
  5
8A
100
AcDbEntity
100
AcDbCircle
  8
3
 62
256
370
-1
  6
ByLayer
 10
2.0
 20
2.0
 30
0.0
 40
0.25
  0
LEADER
  5
8B
  8
0
 62
256
370
-1
  6
ByLayer
100
AcDbEntity
100
AcDbLeader
  3
Standard
 71
1
 72
0
 73
3
 74
0
 75
0
 40
1.0
 41
10.0
 76
3
 10
4.587019052838329
 20
1.5167468245269431
 10
5.0700000000000003
 20
1.75
 10
5.25
 20
1.75
  0
MTEXT
  5
8C
100
AcDbEntity
100
AcDbMText
  8
0
 62
256
370
-1
  6
ByLayer
 10
5.339999999999999
 20
1.8400000000000001
 30
0.0
 40
0.125
 41
0.0
 71
1
 72
2
  1
BACKANGLE\~30%%d
  7
Standard
 50
0.0
 73
1
 44
1.0
  0
LEADER
  5
8D
  8
0
 62
256
370
-1
  6
ByLayer
100
AcDbEntity
100
AcDbLeader
  3
Standard
 71
1
 72
0
 73
3
 74
0
 75
0
 40
1.0
 41
10.0
 76
3
 10
4.5870190528383299
 20
2.4832531754730529
 10
5.0700000000000003
 20
2.25
 10
5.25
 20
2.25
  0
LEADER
  5
8E
  8
0
 62
256
370
-1
  6
ByLayer
100
AcDbEntity
100
AcDbLeader
  3
Standard
 71
1
 72
0
 73
3
 74
0
 75
0
 40
1.0
 41
10.0
 76
3
 10
-0.1465968602441204
 20
-0.8300200550579795
 10
-0.5
 20
-1.0
 10
-0.66
 20
-1.159999999999999
  0
MTEXT
  5
8F
100
AcDbEntity
100
AcDbMText
  8
0
 62
256
370
-1
  6
ByLayer
 10
-0.75
 20
-1.25
 30
0.0
 40
0.125
 41
0.0
 71
6
 72
2
  1
FRONTANGLE\~105%%d
  7
Standard
 50
45.0
 73
1
 44
1.0
  0
LEADER
  5
90
  8
0
 62
256
370
-1
  6
ByLayer
100
AcDbEntity
100
AcDbLeader
  3
Standard
 71
1
 72
0
 73
3
 74
0
 75
0
 40
1.0
 41
10.0
 76
2
 10
2.75
 20
1.0
 10
2.25
 20
1.0
  0
MTEXT
  5
91
100
AcDbEntity
100
AcDbMText
  8
0
 62
256
370
-1
  6
ByLayer
 10
2.1600000000000001
 20
0.9099999999999999
 30
0.0
 40
0.18
 41
0.0
 71
9
 72
2
  1
Z+
  7
Standard
 50
0.0
 73
1
 44
1.0
  0
LEADER
  5
92
  8
0
 62
256
370
-1
  6
ByLayer
100
AcDbEntity
100
AcDbLeader
  3
Standard
 71
1
 72
0
 73
3
 74
0
 75
0
 40
1.0
 41
10.0
 76
2
 10
1.0
 20
2.0
 10
1.0
 20
2.569999999999999
  0
MTEXT
  5
93
100
AcDbEntity
100
AcDbMText
  8
0
 62
256
370
-1
  6
ByLayer
 10
1.0
 20
2.75
 30
0.0
 40
0.18
 41
0.0
 71
4
 72
2
  1
X+
  7
Standard
 50
90.0
 73
1
 44
1.0
  0
LEADER
  5
94
  8
0
 62
256
370
-1
  6
ByLayer
100
AcDbEntity
100
AcDbLeader
  3
Standard
 71
1
 72
0
 73
3
 74
0
 75
0
 40
1.0
 41
10.0
 76
3
 10
-0.830020055057979
 20
-0.1465968602441198
 10
-1.0
 20
-0.5
 10
-1.25
 20
-0.75
  0
MTEXT
  5
95
100
AcDbEntity
100
AcDbMText
  8
0
 62
256
370
-1
  6
ByLayer
 10
-1.384194173824159
 20
-0.7958058261758405
 30
0.0
 40
0.125
 41
0.0
 71
6
 72
2
  1
BACKANGLE\~165%%d
  7
Standard
 50
45.0
 73
1
 44
1.0
  0
LEADER
  5
96
  8
0
 62
256
370
-1
  6
ByLayer
100
AcDbEntity
100
AcDbLeader
  3
Standard
 71
1
 72
0
 73
3
 74
0
 75
0
 40
1.0
 41
10.0
 76
3
 10
-0.5870190528383286
 20
2.4832531754730551
 10
-1.0
 20
2.25
 10
-1.25
 20
2.25
  0
LEADER
  5
97
  8
0
 62
256
370
-1
  6
ByLayer
100
AcDbEntity
100
AcDbLeader
  3
Standard
 71
1
 72
0
 73
3
 74
0
 75
0
 40
1.0
 41
10.0
 76
3
 10
-0.5870190528383292
 20
1.5167468245269451
 10
-1.0
 20
1.75
 10
-1.25
 20
1.75
  0
MTEXT
  5
98
100
AcDbEntity
100
AcDbMText
  8
0
 62
256
370
-1
  6
ByLayer
 10
-1.3400000000000001
 20
2.1600000000000001
 30
0.0
 40
0.125
 41
0.0
 71
9
 72
2
  1
FRONTANGLE\~210%%d
  7
Standard
 50
0.0
 73
1
 44
1.0
  0
MTEXT
  5
99
100
AcDbEntity
100
AcDbMText
  8
0
 62
256
370
-1
  6
ByLayer
 10
-1.3400000000000001
 20
1.659999999999999
 30
0.0
 40
0.125
 41
0.0
 71
9
 72
2
  1
BACKANGLE\~150%%d
  7
Standard
 50
0.0
 73
1
 44
1.0
  0
MTEXT
  5
9A
100
AcDbEntity
100
AcDbMText
  8
0
 62
256
370
-1
  6
ByLayer
 10
0.0
 20
4.0
 30
0.0
 40
0.125
 41
100.0
 71
6
 72
2
  1
Position\~4\~225%%d\~>\~\~-
  7
Standard
 50
315.0
 73
1
 44
1.0
  0
MTEXT
  5
9B
100
AcDbEntity
100
AcDbMText
  8
0
 62
256
370
-1
  6
ByLayer
 10
0.0
 20
2.0
 30
0.0
 40
0.125
 41
100.0
 71
6
 72
2
  1
Position\~5\~Tool\~180%%d\~>\~-
  7
Standard
 50
0.0
 73
1
 44
1.0
  0
MTEXT
  5
9C
100
AcDbEntity
100
AcDbMText
  8
0
 62
256
370
-1
  6
ByLayer
 10
0.0
 20
0.0
 30
0.0
 40
0.125
 41
100.0
 71
6
 72
2
  1
Position\~1\~135%%d\~>\~\~-
  7
Standard
 50
45.0
 73
1
 44
1.0
  0
MTEXT
  5
9D
100
AcDbEntity
100
AcDbMText
  8
0
 62
256
370
-1
  6
ByLayer
 10
2.0
 20
0.0
 30
0.0
 40
0.125
 41
100.0
 71
6
 72
2
  1
Position\~6\~90%%d\~>\~-
  7
Standard
 50
90.0
 73
1
 44
1.0
  0
MTEXT
  5
9E
100
AcDbEntity
100
AcDbMText
  8
0
 62
256
370
-1
  6
ByLayer
 10
4.0
 20
2.0
 30
0.0
 40
0.125
 41
100.0
 71
4
 72
2
  1
-\~<\~Position\~7\~0%%d
  7
Standard
 50
0.0
 73
1
 44
1.0
  0
MTEXT
  5
9F
100
AcDbEntity
100
AcDbMText
  8
0
 62
256
370
-1
  6
ByLayer
 10
4.0
 20
4.0
 30
0.0
 40
0.125
 41
100.0
 71
4
 72
2
  1
-\~\~<\~Position\~3\~315%%d
  7
Standard
 50
45.0
 73
1
 44
1.0
  0
MTEXT
  5
A0
100
AcDbEntity
100
AcDbMText
  8
0
 62
256
370
-1
  6
ByLayer
 10
4.0
 20
0.0
 30
0.0
 40
0.125
 41
100.0
 71
4
 72
2
  1
-\~\~<\~Position\~2\~45%%d
  7
Standard
 50
315.0
 73
1
 44
1.0
  0
MTEXT
  5
A1
100
AcDbEntity
100
AcDbMText
  8
0
 62
256
370
-1
  6
ByLayer
 10
2.0
 20
4.0
 30
0.0
 40
0.125
 41
100.0
 71
4
 72
2
  1
-\~<\~Position\~8\~270%%d
  7
Standard
 50
90.0
 73
1
 44
1.0
  0
MTEXT
  5
A2
100
AcDbEntity
100
AcDbMText
  8
0
 62
256
370
-1
  6
ByLayer
 10
2.0
 20
2.0
 30
0.0
 40
0.125
 41
100.0
 71
4
 72
2
  1
-\~\~<\~Position\~9
  7
Standard
 50
45.0
 73
1
 44
1.0
  0
MTEXT
  5
A3
100
AcDbEntity
100
AcDbMText
  8
0
 62
256
370
-1
  6
ByLayer
 10
5.339999999999999
 20
2.339999999999999
 30
0.0
 40
0.125
 41
0.0
 71
1
 72
2
  1
FRONTANGLE\~330%%d
  7
Standard
 50
0.0
 73
1
 44
1.0
  0
ENDSEC
  0
SECTION
  2
OBJECTS
  0
DICTIONARY
  5
C
100
AcDbDictionary
280
0
281
1
  3
ACAD_GROUP
350
D
  3
ACAD_LAYOUT
350
1A
  3
ACAD_MLINESTYLE
350
17
  3
ACAD_PLOTSETTINGS
350
19
  3
ACAD_PLOTSTYLENAME
350
E
  3
AcDbVariableDictionary
350
A4
  0
DICTIONARY
  5
D
100
AcDbDictionary
280
0
281
1
  0
ACDBDICTIONARYWDFLT
  5
E
100
AcDbDictionary
281
1
  3
Normal
350
F
100
AcDbDictionaryWithDefault
340
F
  0
ACDBPLACEHOLDER
  5
F
  0
DICTIONARY
  5
17
100
AcDbDictionary
280
0
281
1
  3
Standard
350
18
  0
MLINESTYLE
  5
18
100
AcDbMlineStyle
  2
STANDARD
 70
0
  3

 62
256
 51
90.0
 52
90.0
 71
2
 49
0.5
 62
256
  6
BYLAYER
 49
-0.5
 62
256
  6
BYLAYER
  0
DICTIONARY
  5
19
100
AcDbDictionary
280
0
281
1
  0
DICTIONARY
  5
1A
100
AcDbDictionary
281
1
  3
Layout1
350
1E
  3
Layout2
350
26
  3
Model
350
22
  0
LAYOUT
  5
1E
100
AcDbPlotSettings
  1

  2
C:\Program Files\AutoCAD 2002\plotters\DWF ePlot (optimized for plotting).pc3
  4

  6

 40
0.0
 41
0.0
 42
0.0
 43
0.0
 44
0.0
 45
0.0
 46
0.0
 47
0.0
 48
0.0
 49
0.0
140
0.0
141
0.0
142
1.0
143
1.0
 70
688
 72
0
 73
0
 74
5
  7

 75
16
147
1.0
148
0.0
149
0.0
100
AcDbLayout
  1
Layout1
 70
1
 71
1
 10
0.0
 20
0.0
 11
420.0
 21
297.0
 12
0.0
 22
0.0
 32
0.0
 14
100000000000000000000.0
 24
100000000000000000000.0
 34
100000000000000000000.0
 15
-100000000000000000000.0
 25
-100000000000000000000.0
 35
-100000000000000000000.0
146
0.0
 13
0.0
 23
0.0
 33
0.0
 16
1.0
 26
0.0
 36
0.0
 17
0.0
 27
1.0
 37
0.0
 76
0
330
1B
  0
LAYOUT
  5
22
100
AcDbPlotSettings
  1

  2
C:\Program Files\AutoCAD 2002\plotters\DWF ePlot (optimized for plotting).pc3
  4

  6

 40
0.0
 41
0.0
 42
0.0
 43
0.0
 44
0.0
 45
0.0
 46
0.0
 47
0.0
 48
0.0
 49
0.0
140
0.0
141
0.0
142
1.0
143
1.0
 70
1712
 72
0
 73
0
 74
0
  7

 75
0
147
1.0
148
0.0
149
0.0
100
AcDbLayout
  1
Model
 70
1
 71
0
 10
0.0
 20
0.0
 11
12.0
 21
9.0
 12
0.0
 22
0.0
 32
0.0
 14
0.0
 24
0.0
 34
0.0
 15
0.0
 25
0.0
 35
0.0
146
0.0
 13
0.0
 23
0.0
 33
0.0
 16
1.0
 26
0.0
 36
0.0
 17
0.0
 27
1.0
 37
0.0
 76
0
330
1F
  0
LAYOUT
  5
26
100
AcDbPlotSettings
  1

  2
C:\Program Files\AutoCAD 2002\plotters\DWF ePlot (optimized for plotting).pc3
  4

  6

 40
0.0
 41
0.0
 42
0.0
 43
0.0
 44
0.0
 45
0.0
 46
0.0
 47
0.0
 48
0.0
 49
0.0
140
0.0
141
0.0
142
1.0
143
1.0
 70
688
 72
0
 73
0
 74
5
  7

 75
16
147
1.0
148
0.0
149
0.0
100
AcDbLayout
  1
Layout2
 70
1
 71
2
 10
0.0
 20
0.0
 11
12.0
 21
9.0
 12
0.0
 22
0.0
 32
0.0
 14
0.0
 24
0.0
 34
0.0
 15
0.0
 25
0.0
 35
0.0
146
0.0
 13
0.0
 23
0.0
 33
0.0
 16
1.0
 26
0.0
 36
0.0
 17
0.0
 27
1.0
 37
0.0
 76
0
330
23
  0
DICTIONARY
  5
A4
100
AcDbDictionary
281
1
  3
DIMASSOC
350
A6
  3
HIDETEXT
350
A5
  0
DICTIONARYVAR
  5
A5
100
DictionaryVariables
280
0
  1
2
  0
DICTIONARYVAR
  5
A6
100
DictionaryVariables
280
0
  1
1
  0
ENDSEC
  0
EOF
