999
dxflib 2.0.4.8
  0
SECTION
  2
HEADER
  9
$ACADVER
  1
AC1015
  9
$HANDSEED
  5
FFFF
  9
$USERR4
 40
0.0
  9
$AXISUNIT
 10
0.0
 20
0.0
 30
0.0
  9
$DIMTAD
 70
0
  9
$VISRETAIN
 70
0
  9
$TILEMODE
 70
1
  9
$SHADEDIF
 70
70
  9
$USERR5
 40
0.0
  9
$UCSYDIR
 10
0.0
 20
1.0
 30
0.0
  9
$ATTREQ
 70
1
  9
$CHAMFERA
 40
0.0
  9
$MENU
  1
acad
  9
$CLAYER
  8
0
  9
$DIMASZ
 40
0.18
  9
$GRIDUNIT
 10
0.0
 20
0.0
  9
$DIMADEC
 70
0
  9
$UCSXDIR
 10
1.0
 20
0.0
 30
0.0
  9
$CHAMFERB
 40
0.0
  9
$TRACEWID
 40
0.05
  9
$REGENMODE
 70
1
  9
$ORTHOMODE
 70
0
  9
$EXTMIN
 10
-42.8607620000000011
 20
-10.4317499999999992
 30
0.0
  9
$DIMGAP
 40
0.09
  9
$PUCSYDIR
 10
0.0
 20
1.0
 30
0.0
  9
$ANGBASE
 50
0.0
  9
$USRTIMER
 70
1
  9
$SKETCHINC
 40
0.1
  9
$DIMTFAC
 40
1.0
  9
$DIMSAH
 70
0
  9
$DIMALT
 70
0
  9
$DIMSHO
 70
1
  9
$PUCSXDIR
 10
1.0
 20
0.0
 30
0.0
  9
$SURFTYPE
 70
6
  9
$SPLFRAME
 70
0
  9
$AXISMODE
 70
0
  9
$DIMTSZ
 40
0.0
  9
$LIMMIN
 10
0.0
 20
0.0
  9
$SPLINESEGS
 70
8
  9
$AUPREC
 70
0
  9
$LUNITS
 70
2
  9
$DWGCODEPAGE
  3
dos850
  9
$SURFTAB1
 70
6
  9
$BLIPMODE
 70
1
  9
$UNITMODE
 70
0
  9
$USERI1
 70
0
  9
$SURFTAB2
 70
6
  9
$SKPOLY
 70
0
  9
$ELEVATION
 40
0.0
  9
$DIMCEN
 40
0.09
  9
$DIMRND
 40
0.0
  9
$INSBASE
 10
0.0
 20
0.0
 30
0.0
  9
$DIMEXO
 40
0.0625
  9
$INSUNITS
 70
4
  9
$USERI2
 70
0
  9
$UCSORG
 10
0.0
 20
0.0
 30
0.0
  9
$PELEVATION
 40
0.0
  9
$TEXTSIZE
 40
0.2
  9
$DRAGMODE
 70
2
  9
$FILLMODE
 70
1
  9
$EXTMAX
 10
-31.0917379999999994
 20
-4.0182500000000001
 30
0.0
  9
$USERI3
 70
0
  9
$SURFU
 70
6
  9
$ANGDIR
 70
0
  9
$TDUSRTIMER
 40
0.0
  9
$DIMZIN
 70
0
  9
$DIMDLE
 40
0.0
  9
$DIMSCALE
 40
1.0
  9
$DIMLUNIT
 70
2
  9
$WORLDVIEW
 70
1
  9
$USERI4
 70
0
  9
$SURFV
 70
6
  9
$OSMODE
 70
0
  9
$QTEXTMODE
 70
0
  9
$LIMMAX
 10
0.0
 20
0.0
  9
$DIMTXT
 40
0.18
  9
$GRIDMODE
 70
1
  9
$USERI5
 70
0
  9
$HANDLING
 70
1
  9
$PDMODE
 70
0
  9
$LIMCHECK
 70
0
  9
$THICKNESS
 40
0.0
  9
$DIMSE1
 70
0
  9
$DIMLIM
 70
0
  9
$ATTMODE
 70
1
  9
$LUPREC
 70
4
  9
$PEXTMAX
 10
-100000000000000000000.0
 20
-100000000000000000000.0
 30
-100000000000000000000.0
  9
$PEXTMIN
 10
100000000000000000000.0
 20
100000000000000000000.0
 30
100000000000000000000.0
  9
$PUCSORG
 10
0.0
 20
0.0
 30
0.0
  9
$SPLINETYPE
 70
6
  9
$TDINDWG
 40
0.0
  9
$DIMSOXD
 70
0
  9
$DIMLFAC
 40
1.0
  9
$DIMSE2
 70
0
  9
$DIMTOH
 70
1
  9
$CELTYPE
  6
CONTINUOUS
  9
$PLIMCHECK
 70
0
  9
$PLINEWID
 40
0.0
  9
$DIMSTYLE
  2
STANDARD
  9
$DIMTVP
 40
0.0
  9
$DIMASO
 70
1
  9
$DIMTM
 40
0.0
  9
$DIMDLI
 40
0.38
  9
$CECOLOR
 62
256
  9
$PLIMMAX
 10
210.0
 20
297.0
  9
$PLIMMIN
 10
0.0
 20
0.0
  9
$TREEDEPTH
 70
3020
  9
$MAXACTVP
 70
16
  9
$TDUPDATE
 40
0.0
  9
$FILLETRAD
 40
0.0
  9
$DIMCLRT
 70
0
  9
$DIMALTD
 70
2
  9
$DIMTIH
 70
1
  9
$LTSCALE
 40
1.0
  9
$PINSBASE
 10
142.4359294605603168
 20
157.8513315197032512
 30
0.0
  9
$DIMEXE
 40
0.18
  9
$USERR1
 40
0.0
  9
$ATTDIA
 70
0
  9
$PDSIZE
 40
0.0
  9
$DIMCLRD
 70
0
  9
$DIMAUNIT
 70
0
  9
$PSLTSCALE
 70
0
  9
$PLINEGEN
 70
1
  9
$SHADEDGE
 70
3
  9
$USERR2
 40
0.0
  9
$COORDS
 70
0
  9
$TDCREATE
 40
0.0
  9
$DIMCLRE
 70
0
  9
$DIMTOFL
 70
0
  9
$DIMALTF
 40
25.3999999999999986
  9
$DIMTOL
 70
0
  9
$DIMTP
 40
0.0
  9
$TEXTSTYLE
  7
STANDARD
  9
$AUNITS
 70
0
  9
$USERR3
 40
0.0
  9
$DIMTIX
 70
0
  9
$MIRRTEXT
 70
1
  0
ENDSEC
  0
SECTION
  2
TABLES
  0
TABLE
  2
VPORT
  5
8
100
AcDbSymbolTable
 70
1
  0
VPORT
  5
30
100
AcDbSymbolTableRecord
100
AcDbViewportTableRecord
  2
*Active
 70
0
 10
0.0
 20
0.0
 11
1.0
 21
1.0
 12
286.3055555555554861
 22
148.5
 13
0.0
 23
0.0
 14
10.0
 24
10.0
 15
10.0
 25
10.0
 16
0.0
 26
0.0
 36
1.0
 17
0.0
 27
0.0
 37
0.0
 40
297.0
 41
1.92798353909465
 42
50.0
 43
0.0
 44
0.0
 50
0.0
 51
0.0
 71
0
 72
100
 73
1
 74
3
 75
1
 76
1
 77
0
 78
0
281
0
 65
1
110
0.0
120
0.0
130
0.0
111
1.0
121
0.0
131
0.0
112
0.0
122
1.0
132
0.0
 79
0
146
0.0
  0
ENDTAB
  0
TABLE
  2
LTYPE
  5
5
100
AcDbSymbolTable
 70
21
  0
LTYPE
  5
14
100
AcDbSymbolTableRecord
100
AcDbLinetypeTableRecord
  2
ByBlock
 70
0
  3

 72
65
 73
0
 40
0.0
  0
LTYPE
  5
15
100
AcDbSymbolTableRecord
100
AcDbLinetypeTableRecord
  2
ByLayer
 70
0
  3

 72
65
 73
0
 40
0.0
  0
LTYPE
  5
16
100
AcDbSymbolTableRecord
100
AcDbLinetypeTableRecord
  2
CONTINUOUS
 70
0
  3
Solid line
 72
65
 73
0
 40
0.0
  0
LTYPE
  5
31
100
AcDbSymbolTableRecord
100
AcDbLinetypeTableRecord
  2
DOT
 70
0
  3
Dot . . . . . . . . . . . . . . . . . . . . . .
 72
65
 73
2
 40
6.3499999999999996
 49
0.0
 74
0
 49
-6.3499999999999996
 74
0
  0
LTYPE
  5
32
100
AcDbSymbolTableRecord
100
AcDbLinetypeTableRecord
  2
DOT2
 70
0
  3
Dot (.5x) .....................................
 72
65
 73
2
 40
3.1749999999999998
 49
0.0
 74
0
 49
-3.1749999999999998
 74
0
  0
LTYPE
  5
33
100
AcDbSymbolTableRecord
100
AcDbLinetypeTableRecord
  2
DOTX2
 70
0
  3
Dot (2x) .  .  .  .  .  .  .  .  .  .  .  .  .
 72
65
 73
2
 40
12.6999999999999993
 49
0.0
 74
0
 49
-12.6999999999999993
 74
0
  0
LTYPE
  5
34
100
AcDbSymbolTableRecord
100
AcDbLinetypeTableRecord
  2
DASHED
 70
0
  3
Dashed __ __ __ __ __ __ __ __ __ __ __ __ __ _
 72
65
 73
2
 40
19.0500000000000007
 49
12.6999999999999993
 74
0
 49
-6.3499999999999996
 74
0
  0
LTYPE
  5
35
100
AcDbSymbolTableRecord
100
AcDbLinetypeTableRecord
  2
DASHED2
 70
0
  3
Dashed (.5x) _ _ _ _ _ _ _ _ _ _ _ _ _ _ _ _ _
 72
65
 73
2
 40
9.5250000000000004
 49
6.3499999999999996
 74
0
 49
-3.1749999999999998
 74
0
  0
LTYPE
  5
36
100
AcDbSymbolTableRecord
100
AcDbLinetypeTableRecord
  2
DASHEDX2
 70
0
  3
Dashed (2x) ____  ____  ____  ____  ____  ___
 72
65
 73
2
 40
38.1000000000000014
 49
25.3999999999999986
 74
0
 49
-12.6999999999999993
 74
0
  0
LTYPE
  5
37
100
AcDbSymbolTableRecord
100
AcDbLinetypeTableRecord
  2
DASHDOT
 70
0
  3
Dash dot __ . __ . __ . __ . __ . __ . __ . __
 72
65
 73
4
 40
25.3999999999999986
 49
12.6999999999999993
 74
0
 49
-6.3499999999999996
 74
0
 49
0.0
 74
0
 49
-6.3499999999999996
 74
0
  0
LTYPE
  5
38
100
AcDbSymbolTableRecord
100
AcDbLinetypeTableRecord
  2
DASHDOT2
 70
0
  3
Dash dot (.5x) _._._._._._._._._._._._._._._.
 72
65
 73
4
 40
12.6999999999999993
 49
6.3499999999999996
 74
0
 49
-3.1749999999999998
 74
0
 49
0.0
 74
0
 49
-3.1749999999999998
 74
0
  0
LTYPE
  5
39
100
AcDbSymbolTableRecord
100
AcDbLinetypeTableRecord
  2
DASHDOTX2
 70
0
  3
Dash dot (2x) ____  .  ____  .  ____  .  ___
 72
65
 73
4
 40
50.7999999999999972
 49
25.3999999999999986
 74
0
 49
-12.6999999999999993
 74
0
 49
0.0
 74
0
 49
-12.6999999999999993
 74
0
  0
LTYPE
  5
3A
100
AcDbSymbolTableRecord
100
AcDbLinetypeTableRecord
  2
DIVIDE
 70
0
  3
Divide ____ . . ____ . . ____ . . ____ . . ____
 72
65
 73
6
 40
31.75
 49
12.6999999999999993
 74
0
 49
-6.3499999999999996
 74
0
 49
0.0
 74
0
 49
-6.3499999999999996
 74
0
 49
0.0
 74
0
 49
-6.3499999999999996
 74
0
  0
LTYPE
  5
3B
100
AcDbSymbolTableRecord
100
AcDbLinetypeTableRecord
  2
DIVIDE2
 70
0
  3
Divide (.5x) __..__..__..__..__..__..__..__.._
 72
65
 73
6
 40
15.875
 49
6.3499999999999996
 74
0
 49
-3.1749999999999998
 74
0
 49
0.0
 74
0
 49
-3.1749999999999998
 74
0
 49
0.0
 74
0
 49
-3.1749999999999998
 74
0
  0
LTYPE
  5
3C
100
AcDbSymbolTableRecord
100
AcDbLinetypeTableRecord
  2
DIVIDEX2
 70
0
  3
Divide (2x) ________  .  .  ________  .  .  _
 72
65
 73
6
 40
63.5
 49
25.3999999999999986
 74
0
 49
-12.6999999999999993
 74
0
 49
0.0
 74
0
 49
-12.6999999999999993
 74
0
 49
0.0
 74
0
 49
-12.6999999999999993
 74
0
  0
LTYPE
  5
3D
100
AcDbSymbolTableRecord
100
AcDbLinetypeTableRecord
  2
CENTER
 70
0
  3
Center ____ _ ____ _ ____ _ ____ _ ____ _ ____
 72
65
 73
4
 40
50.7999999999999972
 49
31.75
 74
0
 49
-6.3499999999999996
 74
0
 49
6.3499999999999996
 74
0
 49
-6.3499999999999996
 74
0
  0
LTYPE
  5
3E
100
AcDbSymbolTableRecord
100
AcDbLinetypeTableRecord
  2
CENTER2
 70
0
  3
Center (.5x) ___ _ ___ _ ___ _ ___ _ ___ _ ___
 72
65
 73
4
 40
28.5749999999999993
 49
19.0500000000000007
 74
0
 49
-3.1749999999999998
 74
0
 49
3.1749999999999998
 74
0
 49
-3.1749999999999998
 74
0
  0
LTYPE
  5
3F
100
AcDbSymbolTableRecord
100
AcDbLinetypeTableRecord
  2
CENTERX2
 70
0
  3
Center (2x) ________  __  ________  __  _____
 72
65
 73
4
 40
101.5999999999999943
 49
63.5
 74
0
 49
-12.6999999999999993
 74
0
 49
12.6999999999999993
 74
0
 49
-12.6999999999999993
 74
0
  0
LTYPE
  5
40
100
AcDbSymbolTableRecord
100
AcDbLinetypeTableRecord
  2
BORDER
 70
0
  3
Border __ __ . __ __ . __ __ . __ __ . __ __ .
 72
65
 73
6
 40
44.4500000000000028
 49
12.6999999999999993
 74
0
 49
-6.3499999999999996
 74
0
 49
12.6999999999999993
 74
0
 49
-6.3499999999999996
 74
0
 49
0.0
 74
0
 49
-6.3499999999999996
 74
0
  0
LTYPE
  5
41
100
AcDbSymbolTableRecord
100
AcDbLinetypeTableRecord
  2
BORDER2
 70
0
  3
Border (.5x) __.__.__.__.__.__.__.__.__.__.__.
 72
65
 73
6
 40
22.2250000000000014
 49
6.3499999999999996
 74
0
 49
-3.1749999999999998
 74
0
 49
6.3499999999999996
 74
0
 49
-3.1749999999999998
 74
0
 49
0.0
 74
0
 49
-3.1749999999999998
 74
0
  0
LTYPE
  5
42
100
AcDbSymbolTableRecord
100
AcDbLinetypeTableRecord
  2
BORDERX2
 70
0
  3
Border (2x) ____  ____  .  ____  ____  .  ___
 72
65
 73
6
 40
88.9000000000000057
 49
25.3999999999999986
 74
0
 49
-12.6999999999999993
 74
0
 49
25.3999999999999986
 74
0
 49
-12.6999999999999993
 74
0
 49
0.0
 74
0
 49
-12.6999999999999993
 74
0
  0
ENDTAB
  0
TABLE
  2
LAYER
  5
2
100
AcDbSymbolTable
 70
7
  0
LAYER
  5
10
100
AcDbSymbolTableRecord
100
AcDbLayerTableRecord
  2
0
 70
1
 62
7
  6
CONTINUOUS
390
F
  0
LAYER
  5
43
100
AcDbSymbolTableRecord
100
AcDbLayerTableRecord
  2
MERGE
 70
0
 62
7
  6
CONTINUOUS
390
F
  0
LAYER
  5
44
100
AcDbSymbolTableRecord
100
AcDbLayerTableRecord
  2
STANDARD
 70
0
 62
7
  6
CONTINUOUS
370
25
390
F
  0
LAYER
  5
45
100
AcDbSymbolTableRecord
100
AcDbLayerTableRecord
  2
PINS
 70
0
 62
7
  6
CONTINUOUS
390
F
  0
LAYER
  5
46
100
AcDbSymbolTableRecord
100
AcDbLayerTableRecord
  2
PARAMS
 70
0
 62
7
  6
CONTINUOUS
390
F
  0
LAYER
  5
47
100
AcDbSymbolTableRecord
100
AcDbLayerTableRecord
  2
OUTLINE
 70
0
 62
7
  6
CONTINUOUS
390
F
  0
LAYER
  5
48
100
AcDbSymbolTableRecord
100
AcDbLayerTableRecord
  2
INTERNALS
 70
0
 62
7
  6
CONTINUOUS
390
F
  0
ENDTAB
  0
TABLE
  2
STYLE
  5
3
100
AcDbSymbolTable
 70
1
  0
STYLE
  5
11
100
AcDbSymbolTableRecord
100
AcDbTextStyleTableRecord
  2
Standard
 70
0
 40
0.0
 41
0.75
 50
0.0
 71
0
 42
2.5
  3
txt
  4

  0
ENDTAB
  0
TABLE
  2
VIEW
  5
6
100
AcDbSymbolTable
 70
0
  0
ENDTAB
  0
TABLE
  2
UCS
  5
7
100
AcDbSymbolTable
 70
0
  0
ENDTAB
  0
TABLE
  2
APPID
  5
9
100
AcDbSymbolTable
 70
1
  0
APPID
  5
12
100
AcDbSymbolTableRecord
100
AcDbRegAppTableRecord
  2
ACAD
 70
0
  0
ENDTAB
  0
TABLE
  2
DIMSTYLE
  5
A
100
AcDbSymbolTable
 70
1
100
AcDbDimStyleTable
 71
0
  0
DIMSTYLE
105
27
100
AcDbSymbolTableRecord
100
AcDbDimStyleTableRecord
  2
Standard
 41
0.18
 42
0.0625
 43
3.75
 44
0.18
 70
0
 73
0
 74
0
 77
1
 78
8
140
0.18
141
2.5
143
0.03937007874016
147
0.09
171
3
172
1
271
2
272
2
274
3
278
44
283
0
284
8
340
11
  0
ENDTAB
  0
TABLE
  2
BLOCK_RECORD
  5
1
100
AcDbSymbolTable
 70
1
  0
BLOCK_RECORD
  5
1F
100
AcDbSymbolTableRecord
100
AcDbBlockTableRecord
  2
*Model_Space
340
22
  0
BLOCK_RECORD
  5
1B
100
AcDbSymbolTableRecord
100
AcDbBlockTableRecord
  2
*Paper_Space
340
1E
  0
BLOCK_RECORD
  5
23
100
AcDbSymbolTableRecord
100
AcDbBlockTableRecord
  2
*Paper_Space0
340
26
  0
ENDTAB
  0
ENDSEC
  0
SECTION
  2
BLOCKS
  0
BLOCK
  5
20
100
AcDbEntity
  8
0
100
AcDbBlockBegin
  2
*Model_Space
 70
0
 10
0.0
 20
0.0
 30
0.0
  3
*Model_Space
  1

  0
ENDBLK
  5
21
100
AcDbEntity
  8
0
100
AcDbBlockEnd
  0
BLOCK
  5
1C
100
AcDbEntity
 67
1
  8
0
100
AcDbBlockBegin
  2
*Paper_Space
 70
0
 10
0.0
 20
0.0
 30
0.0
  3
*Paper_Space
  1

  0
ENDBLK
  5
1D
100
AcDbEntity
 67
1
  8
0
100
AcDbBlockEnd
  0
BLOCK
  5
24
100
AcDbEntity
  8
0
100
AcDbBlockBegin
  2
*Paper_Space0
 70
0
 10
0.0
 20
0.0
 30
0.0
  3
*Paper_Space0
  1

  0
ENDBLK
  5
25
100
AcDbEntity
  8
0
100
AcDbBlockEnd
  0
ENDSEC
  0
SECTION
  2
ENTITIES
  0
MTEXT
  5
49
100
AcDbEntity
100
AcDbMText
  8
STANDARD
 62
7
370
-1
  6
ByLayer
 10
-105.6234294145320405
 20
3.0236684802967408
 30
0.0
 40
1.5
 41
1500.0
 71
5
 72
2
  1
0
  7
STYLE1
 50
0.0
 73
0
 44
1.0
  0
MTEXT
  5
4A
100
AcDbEntity
100
AcDbMText
  8
STANDARD
 62
7
370
-1
  6
ByLayer
 10
-105.6234294145320405
 20
-29.9763315197032476
 30
0.0
 40
1.5
 41
1500.0
 71
5
 72
2
  1
0
  7
STYLE1
 50
0.0
 73
0
 44
1.0
  0
MTEXT
  5
4B
100
AcDbEntity
100
AcDbMText
  8
STANDARD
 62
7
370
-1
  6
ByLayer
 10
-12.623429414532005
 20
36.0236684802967417
 30
0.0
 40
1.5
 41
1500.0
 71
5
 72
2
  1
0
  7
STYLE1
 50
0.0
 73
0
 44
1.0
  0
MTEXT
  5
4C
100
AcDbEntity
100
AcDbMText
  8
STANDARD
 62
7
370
-1
  6
ByLayer
 10
-105.6234294145320405
 20
36.0236684802967417
 30
0.0
 40
1.5
 41
1500.0
 71
5
 72
2
  1
0
  7
STYLE1
 50
0.0
 73
0
 44
1.0
  0
MTEXT
  5
4D
100
AcDbEntity
100
AcDbMText
  8
STANDARD
 62
7
370
-1
  6
ByLayer
 10
-12.623429414532005
 20
3.0236684802967408
 30
0.0
 40
1.5
 41
1500.0
 71
5
 72
2
  1
0
  7
STYLE1
 50
0.0
 73
0
 44
1.0
  0
MTEXT
  5
4E
100
AcDbEntity
100
AcDbMText
  8
STANDARD
 62
7
370
-1
  6
ByLayer
 10
-12.623429414532005
 20
-29.9763315197032476
 30
0.0
 40
1.5
 41
1500.0
 71
5
 72
2
  1
0
  7
STYLE1
 50
0.0
 73
0
 44
1.0
  0
MTEXT
  5
4F
100
AcDbEntity
100
AcDbMText
  8
STANDARD
 62
7
370
-1
  6
ByLayer
 10
-98.1234294145320405
 20
3.0236684802967408
 30
0.0
 40
1.5
 41
1500.0
 71
5
 72
2
  1
1
  7
STYLE1
 50
0.0
 73
0
 44
1.0
  0
MTEXT
  5
50
100
AcDbEntity
100
AcDbMText
  8
STANDARD
 62
7
370
-1
  6
ByLayer
 10
-98.1234294145320405
 20
-29.9763315197032476
 30
0.0
 40
1.5
 41
1500.0
 71
5
 72
2
  1
1
  7
STYLE1
 50
0.0
 73
0
 44
1.0
  0
MTEXT
  5
51
100
AcDbEntity
100
AcDbMText
  8
STANDARD
 62
7
370
-1
  6
ByLayer
 10
-5.123429414532005
 20
36.0236684802967417
 30
0.0
 40
1.5
 41
1500.0
 71
5
 72
2
  1
1
  7
STYLE1
 50
0.0
 73
0
 44
1.0
  0
MTEXT
  5
52
100
AcDbEntity
100
AcDbMText
  8
STANDARD
 62
7
370
-1
  6
ByLayer
 10
-98.1234294145320405
 20
36.0236684802967417
 30
0.0
 40
1.5
 41
1500.0
 71
5
 72
2
  1
1
  7
STYLE1
 50
0.0
 73
0
 44
1.0
  0
MTEXT
  5
53
100
AcDbEntity
100
AcDbMText
  8
STANDARD
 62
7
370
-1
  6
ByLayer
 10
-5.123429414532005
 20
3.0236684802967408
 30
0.0
 40
1.5
 41
1500.0
 71
5
 72
2
  1
1
  7
STYLE1
 50
0.0
 73
0
 44
1.0
  0
MTEXT
  5
54
100
AcDbEntity
100
AcDbMText
  8
STANDARD
 62
7
370
-1
  6
ByLayer
 10
-5.123429414532005
 20
-29.9763315197032476
 30
0.0
 40
1.5
 41
1500.0
 71
5
 72
2
  1
1
  7
STYLE1
 50
0.0
 73
0
 44
1.0
  0
MTEXT
  5
55
100
AcDbEntity
100
AcDbMText
  8
STANDARD
 62
7
370
-1
  6
ByLayer
 10
-90.6234294145320405
 20
3.0236684802967408
 30
0.0
 40
1.5
 41
1500.0
 71
5
 72
2
  1
2
  7
STYLE1
 50
0.0
 73
0
 44
1.0
  0
MTEXT
  5
56
100
AcDbEntity
100
AcDbMText
  8
STANDARD
 62
7
370
-1
  6
ByLayer
 10
-90.6234294145320405
 20
-29.9763315197032476
 30
0.0
 40
1.5
 41
1500.0
 71
5
 72
2
  1
2
  7
STYLE1
 50
0.0
 73
0
 44
1.0
  0
MTEXT
  5
57
100
AcDbEntity
100
AcDbMText
  8
STANDARD
 62
7
370
-1
  6
ByLayer
 10
2.376570585467995
 20
36.0236684802967417
 30
0.0
 40
1.5
 41
1500.0
 71
5
 72
2
  1
2
  7
STYLE1
 50
0.0
 73
0
 44
1.0
  0
MTEXT
  5
58
100
AcDbEntity
100
AcDbMText
  8
STANDARD
 62
7
370
-1
  6
ByLayer
 10
-90.6234294145320405
 20
36.0236684802967417
 30
0.0
 40
1.5
 41
1500.0
 71
5
 72
2
  1
2
  7
STYLE1
 50
0.0
 73
0
 44
1.0
  0
MTEXT
  5
59
100
AcDbEntity
100
AcDbMText
  8
STANDARD
 62
7
370
-1
  6
ByLayer
 10
2.376570585467995
 20
3.0236684802967408
 30
0.0
 40
1.5
 41
1500.0
 71
5
 72
2
  1
2
  7
STYLE1
 50
0.0
 73
0
 44
1.0
  0
MTEXT
  5
5A
100
AcDbEntity
100
AcDbMText
  8
STANDARD
 62
7
370
-1
  6
ByLayer
 10
2.376570585467995
 20
-29.9763315197032476
 30
0.0
 40
1.5
 41
1500.0
 71
5
 72
2
  1
2
  7
STYLE1
 50
0.0
 73
0
 44
1.0
  0
MTEXT
  5
5B
100
AcDbEntity
100
AcDbMText
  8
STANDARD
 62
7
370
-1
  6
ByLayer
 10
-75.6234294145320405
 20
3.0236684802967408
 30
0.0
 40
1.5
 41
1500.0
 71
5
 72
2
  1
0
  7
STYLE1
 50
0.0
 73
0
 44
1.0
  0
MTEXT
  5
5C
100
AcDbEntity
100
AcDbMText
  8
STANDARD
 62
7
370
-1
  6
ByLayer
 10
-75.6234294145320405
 20
-29.9763315197032476
 30
0.0
 40
1.5
 41
1500.0
 71
5
 72
2
  1
0
  7
STYLE1
 50
0.0
 73
0
 44
1.0
  0
MTEXT
  5
5D
100
AcDbEntity
100
AcDbMText
  8
STANDARD
 62
7
370
-1
  6
ByLayer
 10
17.376570585467995
 20
36.0236684802967417
 30
0.0
 40
1.5
 41
1500.0
 71
5
 72
2
  1
0
  7
STYLE1
 50
0.0
 73
0
 44
1.0
  0
MTEXT
  5
5E
100
AcDbEntity
100
AcDbMText
  8
STANDARD
 62
7
370
-1
  6
ByLayer
 10
-75.6234294145320405
 20
36.0236684802967417
 30
0.0
 40
1.5
 41
1500.0
 71
5
 72
2
  1
0
  7
STYLE1
 50
0.0
 73
0
 44
1.0
  0
MTEXT
  5
5F
100
AcDbEntity
100
AcDbMText
  8
STANDARD
 62
7
370
-1
  6
ByLayer
 10
17.376570585467995
 20
3.0236684802967408
 30
0.0
 40
1.5
 41
1500.0
 71
5
 72
2
  1
4
  7
STYLE1
 50
0.0
 73
0
 44
1.0
  0
MTEXT
  5
60
100
AcDbEntity
100
AcDbMText
  8
STANDARD
 62
7
370
-1
  6
ByLayer
 10
17.376570585467995
 20
-29.9763315197032476
 30
0.0
 40
1.5
 41
1500.0
 71
5
 72
2
  1
4
  7
STYLE1
 50
0.0
 73
0
 44
1.0
  0
MTEXT
  5
61
100
AcDbEntity
100
AcDbMText
  8
STANDARD
 62
7
370
-1
  6
ByLayer
 10
-83.1234294145320405
 20
3.0236684802967408
 30
0.0
 40
1.5
 41
1500.0
 71
5
 72
2
  1
3
  7
STYLE1
 50
0.0
 73
0
 44
1.0
  0
MTEXT
  5
62
100
AcDbEntity
100
AcDbMText
  8
STANDARD
 62
7
370
-1
  6
ByLayer
 10
-83.1234294145320405
 20
-29.9763315197032476
 30
0.0
 40
1.5
 41
1500.0
 71
5
 72
2
  1
3
  7
STYLE1
 50
0.0
 73
0
 44
1.0
  0
MTEXT
  5
63
100
AcDbEntity
100
AcDbMText
  8
STANDARD
 62
7
370
-1
  6
ByLayer
 10
9.876570585467995
 20
36.0236684802967417
 30
0.0
 40
1.5
 41
1500.0
 71
5
 72
2
  1
3
  7
STYLE1
 50
0.0
 73
0
 44
1.0
  0
MTEXT
  5
64
100
AcDbEntity
100
AcDbMText
  8
STANDARD
 62
7
370
-1
  6
ByLayer
 10
-83.1234294145320405
 20
36.0236684802967417
 30
0.0
 40
1.5
 41
1500.0
 71
5
 72
2
  1
3
  7
STYLE1
 50
0.0
 73
0
 44
1.0
  0
MTEXT
  5
65
100
AcDbEntity
100
AcDbMText
  8
STANDARD
 62
7
370
-1
  6
ByLayer
 10
9.876570585467995
 20
3.0236684802967408
 30
0.0
 40
1.5
 41
1500.0
 71
5
 72
2
  1
3
  7
STYLE1
 50
0.0
 73
0
 44
1.0
  0
MTEXT
  5
66
100
AcDbEntity
100
AcDbMText
  8
STANDARD
 62
7
370
-1
  6
ByLayer
 10
9.876570585467995
 20
-29.9763315197032476
 30
0.0
 40
1.5
 41
1500.0
 71
5
 72
2
  1
3
  7
STYLE1
 50
0.0
 73
0
 44
1.0
  0
MTEXT
  5
67
100
AcDbEntity
100
AcDbMText
  8
STANDARD
 62
7
370
-1
  6
ByLayer
 10
-68.1234294145320405
 20
3.0236684802967408
 30
0.0
 40
1.5
 41
1500.0
 71
5
 72
2
  1
1
  7
STYLE1
 50
0.0
 73
0
 44
1.0
  0
MTEXT
  5
68
100
AcDbEntity
100
AcDbMText
  8
STANDARD
 62
7
370
-1
  6
ByLayer
 10
-68.1234294145320405
 20
-29.9763315197032476
 30
0.0
 40
1.5
 41
1500.0
 71
5
 72
2
  1
1
  7
STYLE1
 50
0.0
 73
0
 44
1.0
  0
MTEXT
  5
69
100
AcDbEntity
100
AcDbMText
  8
STANDARD
 62
7
370
-1
  6
ByLayer
 10
24.876570585467995
 20
36.0236684802967417
 30
0.0
 40
1.5
 41
1500.0
 71
5
 72
2
  1
1
  7
STYLE1
 50
0.0
 73
0
 44
1.0
  0
MTEXT
  5
6A
100
AcDbEntity
100
AcDbMText
  8
STANDARD
 62
7
370
-1
  6
ByLayer
 10
-68.1234294145320405
 20
36.0236684802967417
 30
0.0
 40
1.5
 41
1500.0
 71
5
 72
2
  1
1
  7
STYLE1
 50
0.0
 73
0
 44
1.0
  0
MTEXT
  5
6B
100
AcDbEntity
100
AcDbMText
  8
STANDARD
 62
7
370
-1
  6
ByLayer
 10
24.876570585467995
 20
3.0236684802967408
 30
0.0
 40
1.5
 41
1500.0
 71
5
 72
2
  1
5
  7
STYLE1
 50
0.0
 73
0
 44
1.0
  0
MTEXT
  5
6C
100
AcDbEntity
100
AcDbMText
  8
STANDARD
 62
7
370
-1
  6
ByLayer
 10
24.876570585467995
 20
-29.9763315197032476
 30
0.0
 40
1.5
 41
1500.0
 71
5
 72
2
  1
5
  7
STYLE1
 50
0.0
 73
0
 44
1.0
  0
MTEXT
  5
6D
100
AcDbEntity
100
AcDbMText
  8
STANDARD
 62
7
370
-1
  6
ByLayer
 10
-60.6234294145320476
 20
3.0236684802967408
 30
0.0
 40
1.5
 41
1500.0
 71
5
 72
2
  1
2
  7
STYLE1
 50
0.0
 73
0
 44
1.0
  0
MTEXT
  5
6E
100
AcDbEntity
100
AcDbMText
  8
STANDARD
 62
7
370
-1
  6
ByLayer
 10
-60.6234294145320476
 20
-29.9763315197032476
 30
0.0
 40
1.5
 41
1500.0
 71
5
 72
2
  1
2
  7
STYLE1
 50
0.0
 73
0
 44
1.0
  0
MTEXT
  5
6F
100
AcDbEntity
100
AcDbMText
  8
STANDARD
 62
7
370
-1
  6
ByLayer
 10
32.376570585467995
 20
36.0236684802967417
 30
0.0
 40
1.5
 41
1500.0
 71
5
 72
2
  1
2
  7
STYLE1
 50
0.0
 73
0
 44
1.0
  0
MTEXT
  5
70
100
AcDbEntity
100
AcDbMText
  8
STANDARD
 62
7
370
-1
  6
ByLayer
 10
-60.6234294145320476
 20
36.0236684802967417
 30
0.0
 40
1.5
 41
1500.0
 71
5
 72
2
  1
2
  7
STYLE1
 50
0.0
 73
0
 44
1.0
  0
MTEXT
  5
71
100
AcDbEntity
100
AcDbMText
  8
STANDARD
 62
7
370
-1
  6
ByLayer
 10
32.376570585467995
 20
3.0236684802967408
 30
0.0
 40
1.5
 41
1500.0
 71
5
 72
2
  1
6
  7
STYLE1
 50
0.0
 73
0
 44
1.0
  0
MTEXT
  5
72
100
AcDbEntity
100
AcDbMText
  8
STANDARD
 62
7
370
-1
  6
ByLayer
 10
32.376570585467995
 20
-29.9763315197032476
 30
0.0
 40
1.5
 41
1500.0
 71
5
 72
2
  1
6
  7
STYLE1
 50
0.0
 73
0
 44
1.0
  0
MTEXT
  5
73
100
AcDbEntity
100
AcDbMText
  8
STANDARD
 62
7
370
-1
  6
ByLayer
 10
-53.1234294145320476
 20
3.0236684802967408
 30
0.0
 40
1.5
 41
1500.0
 71
5
 72
2
  1
3
  7
STYLE1
 50
0.0
 73
0
 44
1.0
  0
MTEXT
  5
74
100
AcDbEntity
100
AcDbMText
  8
STANDARD
 62
7
370
-1
  6
ByLayer
 10
-53.1234294145320476
 20
-29.9763315197032476
 30
0.0
 40
1.5
 41
1500.0
 71
5
 72
2
  1
3
  7
STYLE1
 50
0.0
 73
0
 44
1.0
  0
MTEXT
  5
75
100
AcDbEntity
100
AcDbMText
  8
STANDARD
 62
7
370
-1
  6
ByLayer
 10
39.876570585467995
 20
36.0236684802967417
 30
0.0
 40
1.5
 41
1500.0
 71
5
 72
2
  1
3
  7
STYLE1
 50
0.0
 73
0
 44
1.0
  0
MTEXT
  5
76
100
AcDbEntity
100
AcDbMText
  8
STANDARD
 62
7
370
-1
  6
ByLayer
 10
-53.1234294145320476
 20
36.0236684802967417
 30
0.0
 40
1.5
 41
1500.0
 71
5
 72
2
  1
3
  7
STYLE1
 50
0.0
 73
0
 44
1.0
  0
MTEXT
  5
77
100
AcDbEntity
100
AcDbMText
  8
STANDARD
 62
7
370
-1
  6
ByLayer
 10
39.876570585467995
 20
3.0236684802967408
 30
0.0
 40
1.5
 41
1500.0
 71
5
 72
2
  1
7
  7
STYLE1
 50
0.0
 73
0
 44
1.0
  0
MTEXT
  5
78
100
AcDbEntity
100
AcDbMText
  8
STANDARD
 62
7
370
-1
  6
ByLayer
 10
39.876570585467995
 20
-29.9763315197032476
 30
0.0
 40
1.5
 41
1500.0
 71
5
 72
2
  1
7
  7
STYLE1
 50
0.0
 73
0
 44
1.0
  0
MTEXT
  5
79
100
AcDbEntity
100
AcDbMText
  8
STANDARD
 62
7
370
-1
  6
ByLayer
 10
-45.6234294145320476
 20
3.0236684802967408
 30
0.0
 40
1.5
 41
1500.0
 71
5
 72
2
  1
0
  7
STYLE1
 50
0.0
 73
0
 44
1.0
  0
MTEXT
  5
7A
100
AcDbEntity
100
AcDbMText
  8
STANDARD
 62
7
370
-1
  6
ByLayer
 10
-45.6234294145320476
 20
-29.9763315197032476
 30
0.0
 40
1.5
 41
1500.0
 71
5
 72
2
  1
0
  7
STYLE1
 50
0.0
 73
0
 44
1.0
  0
MTEXT
  5
7B
100
AcDbEntity
100
AcDbMText
  8
STANDARD
 62
7
370
-1
  6
ByLayer
 10
47.376570585467995
 20
36.0236684802967417
 30
0.0
 40
1.5
 41
1500.0
 71
5
 72
2
  1
0
  7
STYLE1
 50
0.0
 73
0
 44
1.0
  0
MTEXT
  5
7C
100
AcDbEntity
100
AcDbMText
  8
STANDARD
 62
7
370
-1
  6
ByLayer
 10
-45.6234294145320476
 20
36.0236684802967417
 30
0.0
 40
1.5
 41
1500.0
 71
5
 72
2
  1
0
  7
STYLE1
 50
0.0
 73
0
 44
1.0
  0
MTEXT
  5
7D
100
AcDbEntity
100
AcDbMText
  8
STANDARD
 62
7
370
-1
  6
ByLayer
 10
47.376570585467995
 20
3.0236684802967408
 30
0.0
 40
1.5
 41
1500.0
 71
5
 72
2
  1
0
  7
STYLE1
 50
0.0
 73
0
 44
1.0
  0
MTEXT
  5
7E
100
AcDbEntity
100
AcDbMText
  8
STANDARD
 62
7
370
-1
  6
ByLayer
 10
47.376570585467995
 20
-29.9763315197032476
 30
0.0
 40
1.5
 41
1500.0
 71
5
 72
2
  1
0
  7
STYLE1
 50
0.0
 73
0
 44
1.0
  0
MTEXT
  5
7F
100
AcDbEntity
100
AcDbMText
  8
STANDARD
 62
7
370
-1
  6
ByLayer
 10
-119.1234294145320405
 20
36.0236684802967417
 30
0.0
 40
1.5
 41
1500.0
 71
5
 72
2
  1
STEP\~TYPE\~5
  7
STYLE1
 50
0.0
 73
0
 44
1.0
  0
MTEXT
  5
80
100
AcDbEntity
100
AcDbMText
  8
STANDARD
 62
7
370
-1
  6
ByLayer
 10
-119.1234294145320405
 20
3.0236684802967408
 30
0.0
 40
1.5
 41
1500.0
 71
5
 72
2
  1
STEP\~TYPE\~6
  7
STYLE1
 50
0.0
 73
0
 44
1.0
  0
MTEXT
  5
81
100
AcDbEntity
100
AcDbMText
  8
STANDARD
 62
7
370
-1
  6
ByLayer
 10
-119.1234294145320405
 20
-29.9763315197032476
 30
0.0
 40
1.5
 41
1500.0
 71
5
 72
2
  1
STEP\~TYPE\~7
  7
STYLE1
 50
0.0
 73
0
 44
1.0
  0
MTEXT
  5
82
100
AcDbEntity
100
AcDbMText
  8
STANDARD
 62
7
370
-1
  6
ByLayer
 10
-26.1234294145319836
 20
36.0236684802967417
 30
0.0
 40
1.5
 41
1500.0
 71
5
 72
2
  1
STEP\~TYPE\~8
  7
STYLE1
 50
0.0
 73
0
 44
1.0
  0
MTEXT
  5
83
100
AcDbEntity
100
AcDbMText
  8
STANDARD
 62
7
370
-1
  6
ByLayer
 10
-26.1234294145319836
 20
3.0236684802967408
 30
0.0
 40
1.5
 41
1500.0
 71
5
 72
2
  1
STEP\~TYPE\~9
  7
STYLE1
 50
0.0
 73
0
 44
1.0
  0
MTEXT
  5
84
100
AcDbEntity
100
AcDbMText
  8
STANDARD
 62
7
370
-1
  6
ByLayer
 10
-26.1234294145319836
 20
-29.9763315197032476
 30
0.0
 40
1.5
 41
1500.0
 71
5
 72
2
  1
STEP\~TYPE\~10
  7
STYLE1
 50
0.0
 73
0
 44
1.0
  0
MTEXT
  5
85
100
AcDbEntity
100
AcDbMText
  8
STANDARD
 62
7
370
-1
  6
ByLayer
 10
-122.1234294145320689
 20
30.0236684802967559
 30
0.0
 40
1.5
 41
1500.0
 71
4
 72
2
  1
phase-A
  7
STYLE1
 50
0.0
 73
0
 44
1.0
  0
MTEXT
  5
86
100
AcDbEntity
100
AcDbMText
  8
STANDARD
 62
7
370
-1
  6
ByLayer
 10
-122.1234294145320689
 20
-2.9763315197032503
 30
0.0
 40
1.5
 41
1500.0
 71
4
 72
2
  1
phase-A
  7
STYLE1
 50
0.0
 73
0
 44
1.0
  0
MTEXT
  5
87
100
AcDbEntity
100
AcDbMText
  8
STANDARD
 62
7
370
-1
  6
ByLayer
 10
-122.1234294145320689
 20
-35.9763315197032512
 30
0.0
 40
1.5
 41
1500.0
 71
4
 72
2
  1
phase-A
  7
STYLE1
 50
0.0
 73
0
 44
1.0
  0
MTEXT
  5
88
100
AcDbEntity
100
AcDbMText
  8
STANDARD
 62
7
370
-1
  6
ByLayer
 10
-29.1234294145320263
 20
30.0236684802967559
 30
0.0
 40
1.5
 41
1500.0
 71
4
 72
2
  1
phase-A
  7
STYLE1
 50
0.0
 73
0
 44
1.0
  0
MTEXT
  5
89
100
AcDbEntity
100
AcDbMText
  8
STANDARD
 62
7
370
-1
  6
ByLayer
 10
-29.1234294145320263
 20
-2.9763315197032503
 30
0.0
 40
1.5
 41
1500.0
 71
4
 72
2
  1
phase-A
  7
STYLE1
 50
0.0
 73
0
 44
1.0
  0
MTEXT
  5
8A
100
AcDbEntity
100
AcDbMText
  8
STANDARD
 62
7
370
-1
  6
ByLayer
 10
-29.1234294145320263
 20
-35.9763315197032512
 30
0.0
 40
1.5
 41
1500.0
 71
4
 72
2
  1
phase-A
  7
STYLE1
 50
0.0
 73
0
 44
1.0
  0
MTEXT
  5
8B
100
AcDbEntity
100
AcDbMText
  8
STANDARD
 62
7
370
-1
  6
ByLayer
 10
-122.1234294145320689
 20
24.0236684802967488
 30
0.0
 40
1.5
 41
1500.0
 71
4
 72
2
  1
phase-B
  7
STYLE1
 50
0.0
 73
0
 44
1.0
  0
MTEXT
  5
8C
100
AcDbEntity
100
AcDbMText
  8
STANDARD
 62
7
370
-1
  6
ByLayer
 10
-122.1234294145320689
 20
-8.9763315197032547
 30
0.0
 40
1.5
 41
1500.0
 71
4
 72
2
  1
phase-B
  7
STYLE1
 50
0.0
 73
0
 44
1.0
  0
MTEXT
  5
8D
100
AcDbEntity
100
AcDbMText
  8
STANDARD
 62
7
370
-1
  6
ByLayer
 10
-122.1234294145320689
 20
-41.9763315197032583
 30
0.0
 40
1.5
 41
1500.0
 71
4
 72
2
  1
phase-B
  7
STYLE1
 50
0.0
 73
0
 44
1.0
  0
MTEXT
  5
8E
100
AcDbEntity
100
AcDbMText
  8
STANDARD
 62
7
370
-1
  6
ByLayer
 10
-29.1234294145320263
 20
24.0236684802967488
 30
0.0
 40
1.5
 41
1500.0
 71
4
 72
2
  1
phase-B
  7
STYLE1
 50
0.0
 73
0
 44
1.0
  0
MTEXT
  5
8F
100
AcDbEntity
100
AcDbMText
  8
STANDARD
 62
7
370
-1
  6
ByLayer
 10
-29.1234294145320263
 20
-8.9763315197032547
 30
0.0
 40
1.5
 41
1500.0
 71
4
 72
2
  1
phase-B
  7
STYLE1
 50
0.0
 73
0
 44
1.0
  0
MTEXT
  5
90
100
AcDbEntity
100
AcDbMText
  8
STANDARD
 62
7
370
-1
  6
ByLayer
 10
-29.1234294145320263
 20
-41.9763315197032583
 30
0.0
 40
1.5
 41
1500.0
 71
4
 72
2
  1
phase-B
  7
STYLE1
 50
0.0
 73
0
 44
1.0
  0
MTEXT
  5
91
100
AcDbEntity
100
AcDbMText
  8
STANDARD
 62
7
370
-1
  6
ByLayer
 10
-122.1234294145320689
 20
18.0236684802967417
 30
0.0
 40
1.5
 41
1500.0
 71
4
 72
2
  1
phase-C
  7
STYLE1
 50
0.0
 73
0
 44
1.0
  0
MTEXT
  5
92
100
AcDbEntity
100
AcDbMText
  8
STANDARD
 62
7
370
-1
  6
ByLayer
 10
-122.1234294145320689
 20
-14.9763315197032476
 30
0.0
 40
1.5
 41
1500.0
 71
4
 72
2
  1
phase-C
  7
STYLE1
 50
0.0
 73
0
 44
1.0
  0
MTEXT
  5
93
100
AcDbEntity
100
AcDbMText
  8
STANDARD
 62
7
370
-1
  6
ByLayer
 10
-122.1234294145320689
 20
-47.9763315197032654
 30
0.0
 40
1.5
 41
1500.0
 71
4
 72
2
  1
phase-C
  7
STYLE1
 50
0.0
 73
0
 44
1.0
  0
MTEXT
  5
94
100
AcDbEntity
100
AcDbMText
  8
STANDARD
 62
7
370
-1
  6
ByLayer
 10
-29.1234294145320263
 20
18.0236684802967417
 30
0.0
 40
1.5
 41
1500.0
 71
4
 72
2
  1
phase-C
  7
STYLE1
 50
0.0
 73
0
 44
1.0
  0
MTEXT
  5
95
100
AcDbEntity
100
AcDbMText
  8
STANDARD
 62
7
370
-1
  6
ByLayer
 10
-29.1234294145320263
 20
-14.9763315197032476
 30
0.0
 40
1.5
 41
1500.0
 71
4
 72
2
  1
phase-C
  7
STYLE1
 50
0.0
 73
0
 44
1.0
  0
MTEXT
  5
96
100
AcDbEntity
100
AcDbMText
  8
STANDARD
 62
7
370
-1
  6
ByLayer
 10
-29.1234294145320263
 20
-47.9763315197032654
 30
0.0
 40
1.5
 41
1500.0
 71
4
 72
2
  1
phase-C
  7
STYLE1
 50
0.0
 73
0
 44
1.0
  0
MTEXT
  5
97
100
AcDbEntity
100
AcDbMText
  8
STANDARD
 62
7
370
-1
  6
ByLayer
 10
-122.1234294145320689
 20
12.0236684802967488
 30
0.0
 40
1.5
 41
1500.0
 71
4
 72
2
  1
phase-D
  7
STYLE1
 50
0.0
 73
0
 44
1.0
  0
MTEXT
  5
98
100
AcDbEntity
100
AcDbMText
  8
STANDARD
 62
7
370
-1
  6
ByLayer
 10
-122.1234294145320689
 20
-20.9763315197032512
 30
0.0
 40
1.5
 41
1500.0
 71
4
 72
2
  1
phase-D
  7
STYLE1
 50
0.0
 73
0
 44
1.0
  0
MTEXT
  5
99
100
AcDbEntity
100
AcDbMText
  8
STANDARD
 62
7
370
-1
  6
ByLayer
 10
-122.1234294145320689
 20
-53.9763315197032441
 30
0.0
 40
1.5
 41
1500.0
 71
4
 72
2
  1
phase-D
  7
STYLE1
 50
0.0
 73
0
 44
1.0
  0
MTEXT
  5
9A
100
AcDbEntity
100
AcDbMText
  8
STANDARD
 62
7
370
-1
  6
ByLayer
 10
-29.1234294145320263
 20
12.0236684802967488
 30
0.0
 40
1.5
 41
1500.0
 71
4
 72
2
  1
phase-D
  7
STYLE1
 50
0.0
 73
0
 44
1.0
  0
MTEXT
  5
9B
100
AcDbEntity
100
AcDbMText
  8
STANDARD
 62
7
370
-1
  6
ByLayer
 10
-29.1234294145320263
 20
-20.9763315197032512
 30
0.0
 40
1.5
 41
1500.0
 71
4
 72
2
  1
phase-D
  7
STYLE1
 50
0.0
 73
0
 44
1.0
  0
MTEXT
  5
9C
100
AcDbEntity
100
AcDbMText
  8
STANDARD
 62
7
370
-1
  6
ByLayer
 10
-29.1234294145320263
 20
-53.9763315197032441
 30
0.0
 40
1.5
 41
1500.0
 71
4
 72
2
  1
phase-D
  7
STYLE1
 50
0.0
 73
0
 44
1.0
  0
LINE
  5
9D
100
AcDbEntity
100
AcDbLine
  8
STANDARD
 62
7
370
-1
  6
CONTINUOUS
 10
-94.3734294145320405
 20
5.273668480296748
 30
0.0
 11
-94.3734294145320405
 21
-23.9763315197032405
 31
0.0
  0
LINE
  5
9E
100
AcDbEntity
100
AcDbLine
  8
STANDARD
 62
7
370
-1
  6
CONTINUOUS
 10
-94.3734294145320405
 20
-27.7263315197032405
 30
0.0
 11
-94.3734294145320405
 21
-56.9763315197032583
 31
0.0
  0
LINE
  5
9F
100
AcDbEntity
100
AcDbLine
  8
STANDARD
 62
7
370
-1
  6
CONTINUOUS
 10
-1.373429414532005
 20
5.273668480296748
 30
0.0
 11
-1.373429414532005
 21
-23.9763315197032405
 31
0.0
  0
LINE
  5
A0
100
AcDbEntity
100
AcDbLine
  8
STANDARD
 62
7
370
-1
  6
CONTINUOUS
 10
-1.373429414532005
 20
-27.7263315197032405
 30
0.0
 11
-1.373429414532005
 21
-56.9763315197032583
 31
0.0
  0
LINE
  5
A1
100
AcDbEntity
100
AcDbLine
  8
STANDARD
 62
7
370
-1
  6
CONTINUOUS
 10
-1.373429414532005
 20
38.2736684802967488
 30
0.0
 11
-1.373429414532005
 21
9.0236684802967488
 31
0.0
  0
LINE
  5
A2
100
AcDbEntity
100
AcDbLine
  8
STANDARD
 62
7
370
-1
  6
CONTINUOUS
 10
-94.3734294145320405
 20
38.2736684802967488
 30
0.0
 11
-94.3734294145320405
 21
9.0236684802967488
 31
0.0
  0
LINE
  5
A3
100
AcDbEntity
100
AcDbLine
  8
STANDARD
 62
7
370
-1
  6
CONTINUOUS
 10
-86.8734294145320405
 20
5.273668480296748
 30
0.0
 11
-86.8734294145320405
 21
-23.9763315197032405
 31
0.0
  0
LINE
  5
A4
100
AcDbEntity
100
AcDbLine
  8
STANDARD
 62
7
370
-1
  6
CONTINUOUS
 10
-86.8734294145320405
 20
-27.7263315197032405
 30
0.0
 11
-86.8734294145320405
 21
-56.9763315197032583
 31
0.0
  0
LINE
  5
A5
100
AcDbEntity
100
AcDbLine
  8
STANDARD
 62
7
370
-1
  6
CONTINUOUS
 10
6.126570585467995
 20
5.273668480296748
 30
0.0
 11
6.126570585467995
 21
-23.9763315197032405
 31
0.0
  0
LINE
  5
A6
100
AcDbEntity
100
AcDbLine
  8
STANDARD
 62
7
370
-1
  6
CONTINUOUS
 10
6.126570585467995
 20
-27.7263315197032405
 30
0.0
 11
6.126570585467995
 21
-56.9763315197032583
 31
0.0
  0
LINE
  5
A7
100
AcDbEntity
100
AcDbLine
  8
STANDARD
 62
7
370
-1
  6
CONTINUOUS
 10
6.126570585467995
 20
38.2736684802967488
 30
0.0
 11
6.126570585467995
 21
9.0236684802967488
 31
0.0
  0
LINE
  5
A8
100
AcDbEntity
100
AcDbLine
  8
STANDARD
 62
7
370
-1
  6
CONTINUOUS
 10
-86.8734294145320405
 20
38.2736684802967488
 30
0.0
 11
-86.8734294145320405
 21
9.0236684802967488
 31
0.0
  0
LINE
  5
A9
100
AcDbEntity
100
AcDbLine
  8
STANDARD
 62
7
370
-1
  6
CONTINUOUS
 10
-79.3734294145320405
 20
5.273668480296748
 30
0.0
 11
-79.3734294145320405
 21
-23.9763315197032405
 31
0.0
  0
LINE
  5
AA
100
AcDbEntity
100
AcDbLine
  8
STANDARD
 62
7
370
-1
  6
CONTINUOUS
 10
-79.3734294145320405
 20
-27.7263315197032405
 30
0.0
 11
-79.3734294145320405
 21
-56.9763315197032583
 31
0.0
  0
LINE
  5
AB
100
AcDbEntity
100
AcDbLine
  8
STANDARD
 62
7
370
-1
  6
CONTINUOUS
 10
13.626570585467995
 20
5.273668480296748
 30
0.0
 11
13.626570585467995
 21
-23.9763315197032405
 31
0.0
  0
LINE
  5
AC
100
AcDbEntity
100
AcDbLine
  8
STANDARD
 62
7
370
-1
  6
CONTINUOUS
 10
13.626570585467995
 20
-27.7263315197032405
 30
0.0
 11
13.626570585467995
 21
-56.9763315197032583
 31
0.0
  0
LINE
  5
AD
100
AcDbEntity
100
AcDbLine
  8
STANDARD
 62
7
370
-1
  6
CONTINUOUS
 10
13.626570585467995
 20
38.2736684802967488
 30
0.0
 11
13.626570585467995
 21
9.0236684802967488
 31
0.0
  0
LINE
  5
AE
100
AcDbEntity
100
AcDbLine
  8
STANDARD
 62
7
370
-1
  6
CONTINUOUS
 10
-79.3734294145320405
 20
38.2736684802967488
 30
0.0
 11
-79.3734294145320405
 21
9.0236684802967488
 31
0.0
  0
LINE
  5
AF
100
AcDbEntity
100
AcDbLine
  8
STANDARD
 62
7
370
-1
  6
CONTINUOUS
 10
-71.8734294145320405
 20
5.273668480296748
 30
0.0
 11
-71.8734294145320405
 21
-23.9763315197032405
 31
0.0
  0
LINE
  5
B0
100
AcDbEntity
100
AcDbLine
  8
STANDARD
 62
7
370
-1
  6
CONTINUOUS
 10
-71.8734294145320405
 20
-27.7263315197032405
 30
0.0
 11
-71.8734294145320405
 21
-56.9763315197032583
 31
0.0
  0
LINE
  5
B1
100
AcDbEntity
100
AcDbLine
  8
STANDARD
 62
7
370
-1
  6
CONTINUOUS
 10
21.126570585467995
 20
5.273668480296748
 30
0.0
 11
21.126570585467995
 21
-23.9763315197032405
 31
0.0
  0
LINE
  5
B2
100
AcDbEntity
100
AcDbLine
  8
STANDARD
 62
7
370
-1
  6
CONTINUOUS
 10
21.126570585467995
 20
-27.7263315197032405
 30
0.0
 11
21.126570585467995
 21
-56.9763315197032583
 31
0.0
  0
LINE
  5
B3
100
AcDbEntity
100
AcDbLine
  8
STANDARD
 62
7
370
-1
  6
CONTINUOUS
 10
21.126570585467995
 20
38.2736684802967488
 30
0.0
 11
21.126570585467995
 21
9.0236684802967488
 31
0.0
  0
LINE
  5
B4
100
AcDbEntity
100
AcDbLine
  8
STANDARD
 62
7
370
-1
  6
CONTINUOUS
 10
-71.8734294145320405
 20
38.2736684802967488
 30
0.0
 11
-71.8734294145320405
 21
9.0236684802967488
 31
0.0
  0
LINE
  5
B5
100
AcDbEntity
100
AcDbLine
  8
STANDARD
 62
7
370
-1
  6
CONTINUOUS
 10
-64.3734294145320405
 20
5.273668480296748
 30
0.0
 11
-64.3734294145320405
 21
-23.9763315197032405
 31
0.0
  0
LINE
  5
B6
100
AcDbEntity
100
AcDbLine
  8
STANDARD
 62
7
370
-1
  6
CONTINUOUS
 10
-64.3734294145320405
 20
-27.7263315197032405
 30
0.0
 11
-64.3734294145320405
 21
-56.9763315197032583
 31
0.0
  0
LINE
  5
B7
100
AcDbEntity
100
AcDbLine
  8
STANDARD
 62
7
370
-1
  6
CONTINUOUS
 10
28.626570585467995
 20
5.273668480296748
 30
0.0
 11
28.626570585467995
 21
-23.9763315197032405
 31
0.0
  0
LINE
  5
B8
100
AcDbEntity
100
AcDbLine
  8
STANDARD
 62
7
370
-1
  6
CONTINUOUS
 10
28.626570585467995
 20
-27.7263315197032405
 30
0.0
 11
28.626570585467995
 21
-56.9763315197032583
 31
0.0
  0
LINE
  5
B9
100
AcDbEntity
100
AcDbLine
  8
STANDARD
 62
7
370
-1
  6
CONTINUOUS
 10
28.626570585467995
 20
38.2736684802967488
 30
0.0
 11
28.626570585467995
 21
9.0236684802967488
 31
0.0
  0
LINE
  5
BA
100
AcDbEntity
100
AcDbLine
  8
STANDARD
 62
7
370
-1
  6
CONTINUOUS
 10
-64.3734294145320405
 20
38.2736684802967488
 30
0.0
 11
-64.3734294145320405
 21
9.0236684802967488
 31
0.0
  0
LINE
  5
BB
100
AcDbEntity
100
AcDbLine
  8
STANDARD
 62
7
370
-1
  6
CONTINUOUS
 10
-56.8734294145320476
 20
5.273668480296748
 30
0.0
 11
-56.8734294145320476
 21
-23.9763315197032405
 31
0.0
  0
LINE
  5
BC
100
AcDbEntity
100
AcDbLine
  8
STANDARD
 62
7
370
-1
  6
CONTINUOUS
 10
-56.8734294145320476
 20
-27.7263315197032405
 30
0.0
 11
-56.8734294145320476
 21
-56.9763315197032583
 31
0.0
  0
LINE
  5
BD
100
AcDbEntity
100
AcDbLine
  8
STANDARD
 62
7
370
-1
  6
CONTINUOUS
 10
36.126570585467995
 20
5.273668480296748
 30
0.0
 11
36.126570585467995
 21
-23.9763315197032405
 31
0.0
  0
LINE
  5
BE
100
AcDbEntity
100
AcDbLine
  8
STANDARD
 62
7
370
-1
  6
CONTINUOUS
 10
36.126570585467995
 20
-27.7263315197032405
 30
0.0
 11
36.126570585467995
 21
-56.9763315197032583
 31
0.0
  0
LINE
  5
BF
100
AcDbEntity
100
AcDbLine
  8
STANDARD
 62
7
370
-1
  6
CONTINUOUS
 10
36.126570585467995
 20
38.2736684802967488
 30
0.0
 11
36.126570585467995
 21
9.0236684802967488
 31
0.0
  0
LINE
  5
C0
100
AcDbEntity
100
AcDbLine
  8
STANDARD
 62
7
370
-1
  6
CONTINUOUS
 10
-56.8734294145320476
 20
38.2736684802967488
 30
0.0
 11
-56.8734294145320476
 21
9.0236684802967488
 31
0.0
  0
LINE
  5
C1
100
AcDbEntity
100
AcDbLine
  8
STANDARD
 62
7
370
-1
  6
CONTINUOUS
 10
-49.3734294145320476
 20
5.273668480296748
 30
0.0
 11
-49.3734294145320476
 21
-23.9763315197032405
 31
0.0
  0
LINE
  5
C2
100
AcDbEntity
100
AcDbLine
  8
STANDARD
 62
7
370
-1
  6
CONTINUOUS
 10
-49.3734294145320476
 20
-27.7263315197032405
 30
0.0
 11
-49.3734294145320476
 21
-56.9763315197032583
 31
0.0
  0
LINE
  5
C3
100
AcDbEntity
100
AcDbLine
  8
STANDARD
 62
7
370
-1
  6
CONTINUOUS
 10
43.626570585467995
 20
5.273668480296748
 30
0.0
 11
43.626570585467995
 21
-23.9763315197032405
 31
0.0
  0
LINE
  5
C4
100
AcDbEntity
100
AcDbLine
  8
STANDARD
 62
7
370
-1
  6
CONTINUOUS
 10
43.626570585467995
 20
-27.7263315197032405
 30
0.0
 11
43.626570585467995
 21
-56.9763315197032583
 31
0.0
  0
LINE
  5
C5
100
AcDbEntity
100
AcDbLine
  8
STANDARD
 62
7
370
-1
  6
CONTINUOUS
 10
43.626570585467995
 20
38.2736684802967488
 30
0.0
 11
43.626570585467995
 21
9.0236684802967488
 31
0.0
  0
LINE
  5
C6
100
AcDbEntity
100
AcDbLine
  8
STANDARD
 62
7
370
-1
  6
CONTINUOUS
 10
-49.3734294145320476
 20
38.2736684802967488
 30
0.0
 11
-49.3734294145320476
 21
9.0236684802967488
 31
0.0
  0
LINE
  5
C7
100
AcDbEntity
100
AcDbLine
  8
STANDARD
 62
7
370
-1
  6
CONTINUOUS
 10
-41.8734294145320476
 20
5.273668480296748
 30
0.0
 11
-41.8734294145320476
 21
-23.9763315197032405
 31
0.0
  0
LINE
  5
C8
100
AcDbEntity
100
AcDbLine
  8
STANDARD
 62
7
370
-1
  6
CONTINUOUS
 10
-41.8734294145320476
 20
-27.7263315197032405
 30
0.0
 11
-41.8734294145320476
 21
-56.9763315197032583
 31
0.0
  0
LINE
  5
C9
100
AcDbEntity
100
AcDbLine
  8
STANDARD
 62
7
370
-1
  6
CONTINUOUS
 10
51.126570585467995
 20
5.273668480296748
 30
0.0
 11
51.126570585467995
 21
-23.9763315197032405
 31
0.0
  0
LINE
  5
CA
100
AcDbEntity
100
AcDbLine
  8
STANDARD
 62
7
370
-1
  6
CONTINUOUS
 10
51.126570585467995
 20
-27.7263315197032405
 30
0.0
 11
51.126570585467995
 21
-56.9763315197032583
 31
0.0
  0
LINE
  5
CB
100
AcDbEntity
100
AcDbLine
  8
STANDARD
 62
7
370
-1
  6
CONTINUOUS
 10
51.126570585467995
 20
38.2736684802967488
 30
0.0
 11
51.126570585467995
 21
9.0236684802967488
 31
0.0
  0
LINE
  5
CC
100
AcDbEntity
100
AcDbLine
  8
STANDARD
 62
7
370
-1
  6
CONTINUOUS
 10
-41.8734294145320476
 20
38.2736684802967488
 30
0.0
 11
-41.8734294145320476
 21
9.0236684802967488
 31
0.0
  0
LINE
  5
CD
100
AcDbEntity
100
AcDbLine
  8
STANDARD
 62
7
370
-1
  6
CONTINUOUS
 10
-109.3734294145320405
 20
5.273668480296748
 30
0.0
 11
-109.3734294145320405
 21
-23.9763315197032405
 31
0.0
  0
LINE
  5
CE
100
AcDbEntity
100
AcDbLine
  8
STANDARD
 62
7
370
-1
  6
CONTINUOUS
 10
-109.3734294145320405
 20
-27.7263315197032405
 30
0.0
 11
-109.3734294145320405
 21
-56.9763315197032583
 31
0.0
  0
LINE
  5
CF
100
AcDbEntity
100
AcDbLine
  8
STANDARD
 62
7
370
-1
  6
CONTINUOUS
 10
-16.373429414532005
 20
5.273668480296748
 30
0.0
 11
-16.373429414532005
 21
-23.9763315197032405
 31
0.0
  0
LINE
  5
D0
100
AcDbEntity
100
AcDbLine
  8
STANDARD
 62
7
370
-1
  6
CONTINUOUS
 10
-16.373429414532005
 20
-27.7263315197032405
 30
0.0
 11
-16.373429414532005
 21
-56.9763315197032583
 31
0.0
  0
LINE
  5
D1
100
AcDbEntity
100
AcDbLine
  8
STANDARD
 62
7
370
-1
  6
CONTINUOUS
 10
-16.373429414532005
 20
38.2736684802967488
 30
0.0
 11
-16.373429414532005
 21
9.0236684802967488
 31
0.0
  0
LINE
  5
D2
100
AcDbEntity
100
AcDbLine
  8
STANDARD
 62
7
370
-1
  6
CONTINUOUS
 10
-109.3734294145320405
 20
38.2736684802967488
 30
0.0
 11
-109.3734294145320405
 21
9.0236684802967488
 31
0.0
  0
LINE
  5
D3
100
AcDbEntity
100
AcDbLine
  8
STANDARD
 62
7
370
-1
  6
CONTINUOUS
 10
-101.8734294145320405
 20
5.273668480296748
 30
0.0
 11
-101.8734294145320405
 21
-23.9763315197032405
 31
0.0
  0
LINE
  5
D4
100
AcDbEntity
100
AcDbLine
  8
STANDARD
 62
7
370
-1
  6
CONTINUOUS
 10
-101.8734294145320405
 20
-27.7263315197032405
 30
0.0
 11
-101.8734294145320405
 21
-56.9763315197032583
 31
0.0
  0
LINE
  5
D5
100
AcDbEntity
100
AcDbLine
  8
STANDARD
 62
7
370
-1
  6
CONTINUOUS
 10
-8.873429414532005
 20
5.273668480296748
 30
0.0
 11
-8.873429414532005
 21
-23.9763315197032405
 31
0.0
  0
LINE
  5
D6
100
AcDbEntity
100
AcDbLine
  8
STANDARD
 62
7
370
-1
  6
CONTINUOUS
 10
-8.873429414532005
 20
-27.7263315197032405
 30
0.0
 11
-8.873429414532005
 21
-56.9763315197032583
 31
0.0
  0
LINE
  5
D7
100
AcDbEntity
100
AcDbLine
  8
STANDARD
 62
7
370
-1
  6
CONTINUOUS
 10
-8.873429414532005
 20
38.2736684802967488
 30
0.0
 11
-8.873429414532005
 21
9.0236684802967488
 31
0.0
  0
LINE
  5
D8
100
AcDbEntity
100
AcDbLine
  8
STANDARD
 62
7
370
-1
  6
CONTINUOUS
 10
-101.8734294145320405
 20
38.2736684802967488
 30
0.0
 11
-101.8734294145320405
 21
9.0236684802967488
 31
0.0
  0
LINE
  5
D9
100
AcDbEntity
100
AcDbLine
  8
STANDARD
 62
7
370
-1
  6
ByLayer
 10
-108.6234294145319836
 20
31.5236684802967488
 30
0.0
 11
-102.6234294145320121
 21
31.5236684802967488
 31
0.0
  0
LINE
  5
DA
100
AcDbEntity
100
AcDbLine
  8
STANDARD
 62
7
370
-1
  6
ByLayer
 10
-102.6234294145320121
 20
31.5236684802967488
 30
0.0
 11
-101.1234294145319836
 21
28.5236684802967417
 31
0.0
  0
LINE
  5
DB
100
AcDbEntity
100
AcDbLine
  8
STANDARD
 62
7
370
-1
  6
ByLayer
 10
-101.1234294145319836
 20
28.5236684802967417
 30
0.0
 11
-80.1234294145320121
 21
28.5236684802967417
 31
0.0
  0
LINE
  5
DC
100
AcDbEntity
100
AcDbLine
  8
STANDARD
 62
7
370
-1
  6
ByLayer
 10
-80.1234294145320121
 20
28.5236684802967417
 30
0.0
 11
-78.6234294145319836
 21
31.5236684802967488
 31
0.0
  0
LINE
  5
DD
100
AcDbEntity
100
AcDbLine
  8
STANDARD
 62
7
370
-1
  6
ByLayer
 10
-78.6234294145319836
 20
31.5236684802967488
 30
0.0
 11
-72.6234294145320121
 21
31.5236684802967488
 31
0.0
  0
LINE
  5
DE
100
AcDbEntity
100
AcDbLine
  8
STANDARD
 62
7
370
-1
  6
ByLayer
 10
-72.6234294145320121
 20
31.5236684802967488
 30
0.0
 11
-71.1234294145319836
 21
28.5236684802967417
 31
0.0
  0
LINE
  5
DF
100
AcDbEntity
100
AcDbLine
  8
STANDARD
 62
7
370
-1
  6
ByLayer
 10
-71.1234294145319836
 20
28.5236684802967417
 30
0.0
 11
-50.123429414532005
 21
28.5236684802967417
 31
0.0
  0
LINE
  5
E0
100
AcDbEntity
100
AcDbLine
  8
STANDARD
 62
7
370
-1
  6
ByLayer
 10
-50.123429414532005
 20
28.5236684802967417
 30
0.0
 11
-48.6234294145319836
 21
31.5236684802967488
 31
0.0
  0
LINE
  5
E1
100
AcDbEntity
100
AcDbLine
  8
STANDARD
 62
7
370
-1
  6
ByLayer
 10
-48.6234294145319836
 20
31.5236684802967488
 30
0.0
 11
-42.623429414532005
 21
31.5236684802967488
 31
0.0
  0
LINE
  5
E2
100
AcDbEntity
100
AcDbLine
  8
STANDARD
 62
7
370
-1
  6
ByLayer
 10
-108.6234294145319836
 20
16.5236684802967488
 30
0.0
 11
-95.1234294145320121
 21
16.5236684802967488
 31
0.0
  0
LINE
  5
E3
100
AcDbEntity
100
AcDbLine
  8
STANDARD
 62
7
370
-1
  6
ByLayer
 10
-108.6234294145319836
 20
10.5236684802967417
 30
0.0
 11
-87.6234294145320121
 21
10.5236684802967417
 31
0.0
  0
LINE
  5
E4
100
AcDbEntity
100
AcDbLine
  8
STANDARD
 62
7
370
-1
  6
ByLayer
 10
-108.6234294145319836
 20
22.5236684802967524
 30
0.0
 11
-102.6234294145320121
 21
22.5236684802967524
 31
0.0
  0
LINE
  5
E5
100
AcDbEntity
100
AcDbLine
  8
STANDARD
 62
7
370
-1
  6
ByLayer
 10
-95.1234294145320121
 20
16.5236684802967488
 30
0.0
 11
-93.6234294145319836
 21
19.5236684802967488
 31
0.0
  0
LINE
  5
E6
100
AcDbEntity
100
AcDbLine
  8
STANDARD
 62
7
370
-1
  6
ByLayer
 10
-87.6234294145320121
 20
10.5236684802967417
 30
0.0
 11
-86.1234294145319836
 21
13.5236684802967453
 31
0.0
  0
LINE
  5
E7
100
AcDbEntity
100
AcDbLine
  8
STANDARD
 62
7
370
-1
  6
ByLayer
 10
-102.6234294145320121
 20
22.5236684802967524
 30
0.0
 11
-101.1234294145319836
 21
25.5236684802967417
 31
0.0
  0
LINE
  5
E8
100
AcDbEntity
100
AcDbLine
  8
STANDARD
 62
7
370
-1
  6
ByLayer
 10
-93.6234294145319836
 20
19.5236684802967488
 30
0.0
 11
-87.6234294145320121
 21
19.5236684802967488
 31
0.0
  0
LINE
  5
E9
100
AcDbEntity
100
AcDbLine
  8
STANDARD
 62
7
370
-1
  6
ByLayer
 10
-86.1234294145319836
 20
13.5236684802967453
 30
0.0
 11
-80.1234294145320121
 21
13.5236684802967453
 31
0.0
  0
LINE
  5
EA
100
AcDbEntity
100
AcDbLine
  8
STANDARD
 62
7
370
-1
  6
ByLayer
 10
-101.1234294145319836
 20
25.5236684802967417
 30
0.0
 11
-95.1234294145320121
 21
25.5236684802967417
 31
0.0
  0
LINE
  5
EB
100
AcDbEntity
100
AcDbLine
  8
STANDARD
 62
7
370
-1
  6
ByLayer
 10
-87.6234294145320121
 20
19.5236684802967488
 30
0.0
 11
-86.1234294145319836
 21
16.5236684802967488
 31
0.0
  0
LINE
  5
EC
100
AcDbEntity
100
AcDbLine
  8
STANDARD
 62
7
370
-1
  6
ByLayer
 10
-80.1234294145320121
 20
13.5236684802967453
 30
0.0
 11
-78.6234294145319836
 21
10.5236684802967417
 31
0.0
  0
LINE
  5
ED
100
AcDbEntity
100
AcDbLine
  8
STANDARD
 62
7
370
-1
  6
ByLayer
 10
-95.1234294145320121
 20
25.5236684802967417
 30
0.0
 11
-93.6234294145319836
 21
22.5236684802967524
 31
0.0
  0
LINE
  5
EE
100
AcDbEntity
100
AcDbLine
  8
STANDARD
 62
7
370
-1
  6
ByLayer
 10
-86.1234294145319836
 20
16.5236684802967488
 30
0.0
 11
-65.1234294145320121
 21
16.5236684802967488
 31
0.0
  0
LINE
  5
EF
100
AcDbEntity
100
AcDbLine
  8
STANDARD
 62
7
370
-1
  6
ByLayer
 10
-78.6234294145319836
 20
10.5236684802967417
 30
0.0
 11
-57.623429414532005
 21
10.5236684802967417
 31
0.0
  0
LINE
  5
F0
100
AcDbEntity
100
AcDbLine
  8
STANDARD
 62
7
370
-1
  6
ByLayer
 10
-93.6234294145319836
 20
22.5236684802967524
 30
0.0
 11
-72.6234294145320121
 21
22.5236684802967524
 31
0.0
  0
LINE
  5
F1
100
AcDbEntity
100
AcDbLine
  8
STANDARD
 62
7
370
-1
  6
ByLayer
 10
-65.1234294145320121
 20
16.5236684802967488
 30
0.0
 11
-63.6234294145319836
 21
19.5236684802967488
 31
0.0
  0
LINE
  5
F2
100
AcDbEntity
100
AcDbLine
  8
STANDARD
 62
7
370
-1
  6
ByLayer
 10
-57.623429414532005
 20
10.5236684802967417
 30
0.0
 11
-56.1234294145319836
 21
13.5236684802967453
 31
0.0
  0
LINE
  5
F3
100
AcDbEntity
100
AcDbLine
  8
STANDARD
 62
7
370
-1
  6
ByLayer
 10
-72.6234294145320121
 20
22.5236684802967524
 30
0.0
 11
-71.1234294145319836
 21
25.5236684802967417
 31
0.0
  0
LINE
  5
F4
100
AcDbEntity
100
AcDbLine
  8
STANDARD
 62
7
370
-1
  6
ByLayer
 10
-63.6234294145319836
 20
19.5236684802967488
 30
0.0
 11
-57.623429414532005
 21
19.5236684802967488
 31
0.0
  0
LINE
  5
F5
100
AcDbEntity
100
AcDbLine
  8
STANDARD
 62
7
370
-1
  6
ByLayer
 10
-56.1234294145319836
 20
13.5236684802967453
 30
0.0
 11
-50.123429414532005
 21
13.5236684802967453
 31
0.0
  0
LINE
  5
F6
100
AcDbEntity
100
AcDbLine
  8
STANDARD
 62
7
370
-1
  6
ByLayer
 10
-71.1234294145319836
 20
25.5236684802967417
 30
0.0
 11
-65.1234294145320121
 21
25.5236684802967417
 31
0.0
  0
LINE
  5
F7
100
AcDbEntity
100
AcDbLine
  8
STANDARD
 62
7
370
-1
  6
ByLayer
 10
-57.623429414532005
 20
19.5236684802967488
 30
0.0
 11
-56.1234294145319836
 21
16.5236684802967488
 31
0.0
  0
LINE
  5
F8
100
AcDbEntity
100
AcDbLine
  8
STANDARD
 62
7
370
-1
  6
ByLayer
 10
-50.123429414532005
 20
13.5236684802967453
 30
0.0
 11
-48.6234294145319836
 21
10.5236684802967417
 31
0.0
  0
LINE
  5
F9
100
AcDbEntity
100
AcDbLine
  8
STANDARD
 62
7
370
-1
  6
ByLayer
 10
-65.1234294145320121
 20
25.5236684802967417
 30
0.0
 11
-63.6234294145319836
 21
22.5236684802967524
 31
0.0
  0
LINE
  5
FA
100
AcDbEntity
100
AcDbLine
  8
STANDARD
 62
7
370
-1
  6
ByLayer
 10
-56.1234294145319836
 20
16.5236684802967488
 30
0.0
 11
-42.623429414532005
 21
16.5236684802967488
 31
0.0
  0
LINE
  5
FB
100
AcDbEntity
100
AcDbLine
  8
STANDARD
 62
7
370
-1
  6
ByLayer
 10
-48.6234294145319836
 20
10.5236684802967417
 30
0.0
 11
-42.623429414532005
 21
10.5236684802967417
 31
0.0
  0
LINE
  5
FC
100
AcDbEntity
100
AcDbLine
  8
STANDARD
 62
7
370
-1
  6
ByLayer
 10
-63.6234294145319836
 20
22.5236684802967524
 30
0.0
 11
-42.623429414532005
 21
22.5236684802967524
 31
0.0
  0
LINE
  5
FD
100
AcDbEntity
100
AcDbLine
  8
STANDARD
 62
7
370
-1
  6
ByLayer
 10
-8.1234294145320476
 20
28.5236684802967417
 30
0.0
 11
5.3765705854679311
 21
28.5236684802967417
 31
0.0
  0
LINE
  5
FE
100
AcDbEntity
100
AcDbLine
  8
STANDARD
 62
7
370
-1
  6
ByLayer
 10
-8.1234294145320476
 20
25.5236684802967417
 30
0.0
 11
5.3765705854679311
 21
25.5236684802967417
 31
0.0
  0
LINE
  5
FF
100
AcDbEntity
100
AcDbLine
  8
STANDARD
 62
7
370
-1
  6
ByLayer
 10
-101.1234294145319836
 20
-40.4763315197032654
 30
0.0
 11
-87.6234294145320121
 21
-40.4763315197032654
 31
0.0
  0
LINE
  5
100
100
AcDbEntity
100
AcDbLine
  8
STANDARD
 62
7
370
-1
  6
ByLayer
 10
-101.1234294145319836
 20
-46.4763315197032441
 30
0.0
 11
-87.6234294145320121
 21
-46.4763315197032441
 31
0.0
  0
LINE
  5
101
100
AcDbEntity
100
AcDbLine
  8
STANDARD
 62
7
370
-1
  6
ByLayer
 10
-101.1234294145319836
 20
-13.4763315197032529
 30
0.0
 11
-87.6234294145320121
 21
-13.4763315197032529
 31
0.0
  0
LINE
  5
102
100
AcDbEntity
100
AcDbLine
  8
STANDARD
 62
7
370
-1
  6
ByLayer
 10
-93.6234294145319836
 20
-52.4763315197032441
 30
0.0
 11
-80.1234294145320121
 21
-52.4763315197032441
 31
0.0
  0
LINE
  5
103
100
AcDbEntity
100
AcDbLine
  8
STANDARD
 62
7
370
-1
  6
ByLayer
 10
-93.6234294145319836
 20
-19.4763315197032583
 30
0.0
 11
-80.1234294145320121
 21
-19.4763315197032583
 31
0.0
  0
LINE
  5
104
100
AcDbEntity
100
AcDbLine
  8
STANDARD
 62
7
370
-1
  6
ByLayer
 10
-15.6234294145320476
 20
10.5236684802967417
 30
0.0
 11
-2.1234294145320689
 21
10.5236684802967417
 31
0.0
  0
LINE
  5
105
100
AcDbEntity
100
AcDbLine
  8
STANDARD
 62
7
370
-1
  6
ByLayer
 10
-15.6234294145320476
 20
19.5236684802967488
 30
0.0
 11
-2.1234294145320689
 21
19.5236684802967488
 31
0.0
  0
LINE
  5
106
100
AcDbEntity
100
AcDbLine
  8
STANDARD
 62
7
370
-1
  6
ByLayer
 10
-108.6234294145319836
 20
-34.4763315197032583
 30
0.0
 11
-95.1234294145320121
 21
-34.4763315197032583
 31
0.0
  0
LINE
  5
107
100
AcDbEntity
100
AcDbLine
  8
STANDARD
 62
7
370
-1
  6
ByLayer
 10
-108.6234294145319836
 20
-7.4763315197032476
 30
0.0
 11
-95.1234294145320121
 21
-7.4763315197032476
 31
0.0
  0
LINE
  5
108
100
AcDbEntity
100
AcDbLine
  8
STANDARD
 62
7
370
-1
  6
ByLayer
 10
-108.6234294145319836
 20
-1.4763315197032556
 30
0.0
 11
-102.6234294145320121
 21
-1.4763315197032556
 31
0.0
  0
LINE
  5
109
100
AcDbEntity
100
AcDbLine
  8
STANDARD
 62
7
370
-1
  6
ByLayer
 10
5.3765705854679311
 20
28.5236684802967417
 30
0.0
 11
6.8765705854679524
 21
31.5236684802967488
 31
0.0
  0
LINE
  5
10A
100
AcDbEntity
100
AcDbLine
  8
STANDARD
 62
7
370
-1
  6
ByLayer
 10
5.3765705854679311
 20
25.5236684802967417
 30
0.0
 11
6.8765705854679524
 21
22.5236684802967524
 31
0.0
  0
LINE
  5
10B
100
AcDbEntity
100
AcDbLine
  8
STANDARD
 62
7
370
-1
  6
ByLayer
 10
-87.6234294145320121
 20
-40.4763315197032654
 30
0.0
 11
-86.1234294145319836
 21
-43.4763315197032512
 31
0.0
  0
LINE
  5
10C
100
AcDbEntity
100
AcDbLine
  8
STANDARD
 62
7
370
-1
  6
ByLayer
 10
-87.6234294145320121
 20
-46.4763315197032441
 30
0.0
 11
-86.1234294145319836
 21
-49.4763315197032583
 31
0.0
  0
LINE
  5
10D
100
AcDbEntity
100
AcDbLine
  8
STANDARD
 62
7
370
-1
  6
ByLayer
 10
-87.6234294145320121
 20
-13.4763315197032529
 30
0.0
 11
-86.1234294145319836
 21
-16.4763315197032547
 31
0.0
  0
LINE
  5
10E
100
AcDbEntity
100
AcDbLine
  8
STANDARD
 62
7
370
-1
  6
ByLayer
 10
-80.1234294145320121
 20
-52.4763315197032441
 30
0.0
 11
-78.6234294145319836
 21
-55.4763315197032654
 31
0.0
  0
LINE
  5
10F
100
AcDbEntity
100
AcDbLine
  8
STANDARD
 62
7
370
-1
  6
ByLayer
 10
-80.1234294145320121
 20
-19.4763315197032583
 30
0.0
 11
-78.6234294145319836
 21
-22.4763315197032476
 31
0.0
  0
LINE
  5
110
100
AcDbEntity
100
AcDbLine
  8
STANDARD
 62
7
370
-1
  6
ByLayer
 10
-2.1234294145320689
 20
10.5236684802967417
 30
0.0
 11
-0.6234294145320476
 21
13.5236684802967453
 31
0.0
  0
LINE
  5
111
100
AcDbEntity
100
AcDbLine
  8
STANDARD
 62
7
370
-1
  6
ByLayer
 10
-2.1234294145320689
 20
19.5236684802967488
 30
0.0
 11
-0.6234294145320476
 21
16.5236684802967488
 31
0.0
  0
LINE
  5
112
100
AcDbEntity
100
AcDbLine
  8
STANDARD
 62
7
370
-1
  6
ByLayer
 10
-95.1234294145320121
 20
-34.4763315197032583
 30
0.0
 11
-93.6234294145319836
 21
-37.4763315197032512
 31
0.0
  0
LINE
  5
113
100
AcDbEntity
100
AcDbLine
  8
STANDARD
 62
7
370
-1
  6
ByLayer
 10
-95.1234294145320121
 20
-7.4763315197032476
 30
0.0
 11
-93.6234294145319836
 21
-10.4763315197032512
 31
0.0
  0
LINE
  5
114
100
AcDbEntity
100
AcDbLine
  8
STANDARD
 62
7
370
-1
  6
ByLayer
 10
-102.6234294145320121
 20
-1.4763315197032556
 30
0.0
 11
-101.1234294145319836
 21
-4.4763315197032583
 31
0.0
  0
LINE
  5
115
100
AcDbEntity
100
AcDbLine
  8
STANDARD
 62
7
370
-1
  6
ByLayer
 10
6.8765705854679524
 20
31.5236684802967488
 30
0.0
 11
20.3765705854679311
 21
31.5236684802967488
 31
0.0
  0
LINE
  5
116
100
AcDbEntity
100
AcDbLine
  8
STANDARD
 62
7
370
-1
  6
ByLayer
 10
6.8765705854679524
 20
22.5236684802967524
 30
0.0
 11
20.3765705854679311
 21
22.5236684802967524
 31
0.0
  0
LINE
  5
117
100
AcDbEntity
100
AcDbLine
  8
STANDARD
 62
7
370
-1
  6
ByLayer
 10
-86.1234294145319836
 20
-43.4763315197032512
 30
0.0
 11
-72.6234294145320121
 21
-43.4763315197032512
 31
0.0
  0
LINE
  5
118
100
AcDbEntity
100
AcDbLine
  8
STANDARD
 62
7
370
-1
  6
ByLayer
 10
-86.1234294145319836
 20
-49.4763315197032583
 30
0.0
 11
-72.6234294145320121
 21
-49.4763315197032583
 31
0.0
  0
LINE
  5
119
100
AcDbEntity
100
AcDbLine
  8
STANDARD
 62
7
370
-1
  6
ByLayer
 10
-86.1234294145319836
 20
-16.4763315197032547
 30
0.0
 11
-72.6234294145320121
 21
-16.4763315197032547
 31
0.0
  0
LINE
  5
11A
100
AcDbEntity
100
AcDbLine
  8
STANDARD
 62
7
370
-1
  6
ByLayer
 10
-78.6234294145319836
 20
-55.4763315197032654
 30
0.0
 11
-65.1234294145320121
 21
-55.4763315197032654
 31
0.0
  0
LINE
  5
11B
100
AcDbEntity
100
AcDbLine
  8
STANDARD
 62
7
370
-1
  6
ByLayer
 10
-78.6234294145319836
 20
-22.4763315197032476
 30
0.0
 11
-65.1234294145320121
 21
-22.4763315197032476
 31
0.0
  0
LINE
  5
11C
100
AcDbEntity
100
AcDbLine
  8
STANDARD
 62
7
370
-1
  6
ByLayer
 10
-0.6234294145320476
 20
13.5236684802967453
 30
0.0
 11
12.8765705854679311
 21
13.5236684802967453
 31
0.0
  0
LINE
  5
11D
100
AcDbEntity
100
AcDbLine
  8
STANDARD
 62
7
370
-1
  6
ByLayer
 10
-0.6234294145320476
 20
16.5236684802967488
 30
0.0
 11
12.8765705854679311
 21
16.5236684802967488
 31
0.0
  0
LINE
  5
11E
100
AcDbEntity
100
AcDbLine
  8
STANDARD
 62
7
370
-1
  6
ByLayer
 10
-93.6234294145319836
 20
-37.4763315197032512
 30
0.0
 11
-80.1234294145320121
 21
-37.4763315197032512
 31
0.0
  0
LINE
  5
11F
100
AcDbEntity
100
AcDbLine
  8
STANDARD
 62
7
370
-1
  6
ByLayer
 10
-93.6234294145319836
 20
-10.4763315197032512
 30
0.0
 11
-80.1234294145320121
 21
-10.4763315197032512
 31
0.0
  0
LINE
  5
120
100
AcDbEntity
100
AcDbLine
  8
STANDARD
 62
7
370
-1
  6
ByLayer
 10
-101.1234294145319836
 20
-4.4763315197032583
 30
0.0
 11
-87.6234294145320121
 21
-4.4763315197032583
 31
0.0
  0
LINE
  5
121
100
AcDbEntity
100
AcDbLine
  8
STANDARD
 62
7
370
-1
  6
ByLayer
 10
20.3765705854679311
 20
31.5236684802967488
 30
0.0
 11
21.8765705854679524
 21
28.5236684802967417
 31
0.0
  0
LINE
  5
122
100
AcDbEntity
100
AcDbLine
  8
STANDARD
 62
7
370
-1
  6
ByLayer
 10
20.3765705854679311
 20
22.5236684802967524
 30
0.0
 11
21.8765705854679524
 21
25.5236684802967417
 31
0.0
  0
LINE
  5
123
100
AcDbEntity
100
AcDbLine
  8
STANDARD
 62
7
370
-1
  6
ByLayer
 10
-72.6234294145320121
 20
-43.4763315197032512
 30
0.0
 11
-71.1234294145319836
 21
-40.4763315197032654
 31
0.0
  0
LINE
  5
124
100
AcDbEntity
100
AcDbLine
  8
STANDARD
 62
7
370
-1
  6
ByLayer
 10
-72.6234294145320121
 20
-49.4763315197032583
 30
0.0
 11
-71.1234294145319836
 21
-46.4763315197032441
 31
0.0
  0
LINE
  5
125
100
AcDbEntity
100
AcDbLine
  8
STANDARD
 62
7
370
-1
  6
ByLayer
 10
-72.6234294145320121
 20
-16.4763315197032547
 30
0.0
 11
-71.1234294145319836
 21
-13.4763315197032529
 31
0.0
  0
LINE
  5
126
100
AcDbEntity
100
AcDbLine
  8
STANDARD
 62
7
370
-1
  6
ByLayer
 10
-65.1234294145320121
 20
-55.4763315197032654
 30
0.0
 11
-63.6234294145319836
 21
-52.4763315197032441
 31
0.0
  0
LINE
  5
127
100
AcDbEntity
100
AcDbLine
  8
STANDARD
 62
7
370
-1
  6
ByLayer
 10
-65.1234294145320121
 20
-22.4763315197032476
 30
0.0
 11
-63.6234294145319836
 21
-19.4763315197032583
 31
0.0
  0
LINE
  5
128
100
AcDbEntity
100
AcDbLine
  8
STANDARD
 62
7
370
-1
  6
ByLayer
 10
12.8765705854679311
 20
13.5236684802967453
 30
0.0
 11
14.3765705854679524
 21
10.5236684802967417
 31
0.0
  0
LINE
  5
129
100
AcDbEntity
100
AcDbLine
  8
STANDARD
 62
7
370
-1
  6
ByLayer
 10
12.8765705854679311
 20
16.5236684802967488
 30
0.0
 11
14.3765705854679524
 21
19.5236684802967488
 31
0.0
  0
LINE
  5
12A
100
AcDbEntity
100
AcDbLine
  8
STANDARD
 62
7
370
-1
  6
ByLayer
 10
-80.1234294145320121
 20
-37.4763315197032512
 30
0.0
 11
-78.6234294145319836
 21
-34.4763315197032583
 31
0.0
  0
LINE
  5
12B
100
AcDbEntity
100
AcDbLine
  8
STANDARD
 62
7
370
-1
  6
ByLayer
 10
-80.1234294145320121
 20
-10.4763315197032512
 30
0.0
 11
-78.6234294145319836
 21
-7.4763315197032476
 31
0.0
  0
LINE
  5
12C
100
AcDbEntity
100
AcDbLine
  8
STANDARD
 62
7
370
-1
  6
ByLayer
 10
-87.6234294145320121
 20
-4.4763315197032583
 30
0.0
 11
-86.1234294145319836
 21
-1.4763315197032556
 31
0.0
  0
LINE
  5
12D
100
AcDbEntity
100
AcDbLine
  8
STANDARD
 62
7
370
-1
  6
ByLayer
 10
21.8765705854679524
 20
28.5236684802967417
 30
0.0
 11
35.3765705854679382
 21
28.5236684802967417
 31
0.0
  0
LINE
  5
12E
100
AcDbEntity
100
AcDbLine
  8
STANDARD
 62
7
370
-1
  6
ByLayer
 10
21.8765705854679524
 20
25.5236684802967417
 30
0.0
 11
35.3765705854679382
 21
25.5236684802967417
 31
0.0
  0
LINE
  5
12F
100
AcDbEntity
100
AcDbLine
  8
STANDARD
 62
7
370
-1
  6
ByLayer
 10
-71.1234294145319836
 20
-40.4763315197032654
 30
0.0
 11
-57.623429414532005
 21
-40.4763315197032654
 31
0.0
  0
LINE
  5
130
100
AcDbEntity
100
AcDbLine
  8
STANDARD
 62
7
370
-1
  6
ByLayer
 10
-71.1234294145319836
 20
-46.4763315197032441
 30
0.0
 11
-57.623429414532005
 21
-46.4763315197032441
 31
0.0
  0
LINE
  5
131
100
AcDbEntity
100
AcDbLine
  8
STANDARD
 62
7
370
-1
  6
ByLayer
 10
-71.1234294145319836
 20
-13.4763315197032529
 30
0.0
 11
-57.623429414532005
 21
-13.4763315197032529
 31
0.0
  0
LINE
  5
132
100
AcDbEntity
100
AcDbLine
  8
STANDARD
 62
7
370
-1
  6
ByLayer
 10
-63.6234294145319836
 20
-52.4763315197032441
 30
0.0
 11
-50.123429414532005
 21
-52.4763315197032441
 31
0.0
  0
LINE
  5
133
100
AcDbEntity
100
AcDbLine
  8
STANDARD
 62
7
370
-1
  6
ByLayer
 10
-63.6234294145319836
 20
-19.4763315197032583
 30
0.0
 11
-50.123429414532005
 21
-19.4763315197032583
 31
0.0
  0
LINE
  5
134
100
AcDbEntity
100
AcDbLine
  8
STANDARD
 62
7
370
-1
  6
ByLayer
 10
14.3765705854679524
 20
10.5236684802967417
 30
0.0
 11
27.8765705854679382
 21
10.5236684802967417
 31
0.0
  0
LINE
  5
135
100
AcDbEntity
100
AcDbLine
  8
STANDARD
 62
7
370
-1
  6
ByLayer
 10
14.3765705854679524
 20
19.5236684802967488
 30
0.0
 11
27.8765705854679382
 21
19.5236684802967488
 31
0.0
  0
LINE
  5
136
100
AcDbEntity
100
AcDbLine
  8
STANDARD
 62
7
370
-1
  6
ByLayer
 10
-78.6234294145319836
 20
-34.4763315197032583
 30
0.0
 11
-65.1234294145320121
 21
-34.4763315197032583
 31
0.0
  0
LINE
  5
137
100
AcDbEntity
100
AcDbLine
  8
STANDARD
 62
7
370
-1
  6
ByLayer
 10
-78.6234294145319836
 20
-7.4763315197032476
 30
0.0
 11
-65.1234294145320121
 21
-7.4763315197032476
 31
0.0
  0
LINE
  5
138
100
AcDbEntity
100
AcDbLine
  8
STANDARD
 62
7
370
-1
  6
ByLayer
 10
-86.1234294145319836
 20
-1.4763315197032556
 30
0.0
 11
-72.6234294145320121
 21
-1.4763315197032556
 31
0.0
  0
LINE
  5
139
100
AcDbEntity
100
AcDbLine
  8
STANDARD
 62
7
370
-1
  6
ByLayer
 10
35.3765705854679382
 20
28.5236684802967417
 30
0.0
 11
36.8765705854679524
 21
31.5236684802967488
 31
0.0
  0
LINE
  5
13A
100
AcDbEntity
100
AcDbLine
  8
STANDARD
 62
7
370
-1
  6
ByLayer
 10
35.3765705854679382
 20
25.5236684802967417
 30
0.0
 11
36.8765705854679524
 21
22.5236684802967524
 31
0.0
  0
LINE
  5
13B
100
AcDbEntity
100
AcDbLine
  8
STANDARD
 62
7
370
-1
  6
ByLayer
 10
-57.623429414532005
 20
-40.4763315197032654
 30
0.0
 11
-56.1234294145319836
 21
-43.4763315197032512
 31
0.0
  0
LINE
  5
13C
100
AcDbEntity
100
AcDbLine
  8
STANDARD
 62
7
370
-1
  6
ByLayer
 10
-57.623429414532005
 20
-46.4763315197032441
 30
0.0
 11
-56.1234294145319836
 21
-49.4763315197032583
 31
0.0
  0
LINE
  5
13D
100
AcDbEntity
100
AcDbLine
  8
STANDARD
 62
7
370
-1
  6
ByLayer
 10
-57.623429414532005
 20
-13.4763315197032529
 30
0.0
 11
-56.1234294145319836
 21
-16.4763315197032547
 31
0.0
  0
LINE
  5
13E
100
AcDbEntity
100
AcDbLine
  8
STANDARD
 62
7
370
-1
  6
ByLayer
 10
-50.123429414532005
 20
-52.4763315197032441
 30
0.0
 11
-48.6234294145319836
 21
-55.4763315197032654
 31
0.0
  0
LINE
  5
13F
100
AcDbEntity
100
AcDbLine
  8
STANDARD
 62
7
370
-1
  6
ByLayer
 10
-50.123429414532005
 20
-19.4763315197032583
 30
0.0
 11
-48.6234294145319836
 21
-22.4763315197032476
 31
0.0
  0
LINE
  5
140
100
AcDbEntity
100
AcDbLine
  8
STANDARD
 62
7
370
-1
  6
ByLayer
 10
27.8765705854679382
 20
10.5236684802967417
 30
0.0
 11
29.3765705854679524
 21
13.5236684802967453
 31
0.0
  0
LINE
  5
141
100
AcDbEntity
100
AcDbLine
  8
STANDARD
 62
7
370
-1
  6
ByLayer
 10
27.8765705854679382
 20
19.5236684802967488
 30
0.0
 11
29.3765705854679524
 21
16.5236684802967488
 31
0.0
  0
LINE
  5
142
100
AcDbEntity
100
AcDbLine
  8
STANDARD
 62
7
370
-1
  6
ByLayer
 10
-65.1234294145320121
 20
-34.4763315197032583
 30
0.0
 11
-63.6234294145319836
 21
-37.4763315197032512
 31
0.0
  0
LINE
  5
143
100
AcDbEntity
100
AcDbLine
  8
STANDARD
 62
7
370
-1
  6
ByLayer
 10
-65.1234294145320121
 20
-7.4763315197032476
 30
0.0
 11
-63.6234294145319836
 21
-10.4763315197032512
 31
0.0
  0
LINE
  5
144
100
AcDbEntity
100
AcDbLine
  8
STANDARD
 62
7
370
-1
  6
ByLayer
 10
-72.6234294145320121
 20
-1.4763315197032556
 30
0.0
 11
-71.1234294145319836
 21
-4.4763315197032583
 31
0.0
  0
LINE
  5
145
100
AcDbEntity
100
AcDbLine
  8
STANDARD
 62
7
370
-1
  6
ByLayer
 10
36.8765705854679524
 20
31.5236684802967488
 30
0.0
 11
50.3765705854679808
 21
31.5236684802967488
 31
0.0
  0
LINE
  5
146
100
AcDbEntity
100
AcDbLine
  8
STANDARD
 62
7
370
-1
  6
ByLayer
 10
36.8765705854679524
 20
22.5236684802967524
 30
0.0
 11
50.3765705854679808
 21
22.5236684802967524
 31
0.0
  0
LINE
  5
147
100
AcDbEntity
100
AcDbLine
  8
STANDARD
 62
7
370
-1
  6
ByLayer
 10
-56.1234294145319836
 20
-43.4763315197032512
 30
0.0
 11
-42.623429414532005
 21
-43.4763315197032512
 31
0.0
  0
LINE
  5
148
100
AcDbEntity
100
AcDbLine
  8
STANDARD
 62
7
370
-1
  6
ByLayer
 10
-56.1234294145319836
 20
-49.4763315197032583
 30
0.0
 11
-42.623429414532005
 21
-49.4763315197032583
 31
0.0
  0
LINE
  5
149
100
AcDbEntity
100
AcDbLine
  8
STANDARD
 62
7
370
-1
  6
ByLayer
 10
-56.1234294145319836
 20
-16.4763315197032547
 30
0.0
 11
-42.623429414532005
 21
-16.4763315197032547
 31
0.0
  0
LINE
  5
14A
100
AcDbEntity
100
AcDbLine
  8
STANDARD
 62
7
370
-1
  6
ByLayer
 10
-48.6234294145319836
 20
-55.4763315197032654
 30
0.0
 11
-42.623429414532005
 21
-55.4763315197032654
 31
0.0
  0
LINE
  5
14B
100
AcDbEntity
100
AcDbLine
  8
STANDARD
 62
7
370
-1
  6
ByLayer
 10
-48.6234294145319836
 20
-22.4763315197032476
 30
0.0
 11
-42.623429414532005
 21
-22.4763315197032476
 31
0.0
  0
LINE
  5
14C
100
AcDbEntity
100
AcDbLine
  8
STANDARD
 62
7
370
-1
  6
ByLayer
 10
29.3765705854679524
 20
13.5236684802967453
 30
0.0
 11
42.8765705854679808
 21
13.5236684802967453
 31
0.0
  0
LINE
  5
14D
100
AcDbEntity
100
AcDbLine
  8
STANDARD
 62
7
370
-1
  6
ByLayer
 10
29.3765705854679524
 20
16.5236684802967488
 30
0.0
 11
42.8765705854679808
 21
16.5236684802967488
 31
0.0
  0
LINE
  5
14E
100
AcDbEntity
100
AcDbLine
  8
STANDARD
 62
7
370
-1
  6
ByLayer
 10
-63.6234294145319836
 20
-37.4763315197032512
 30
0.0
 11
-50.123429414532005
 21
-37.4763315197032512
 31
0.0
  0
LINE
  5
14F
100
AcDbEntity
100
AcDbLine
  8
STANDARD
 62
7
370
-1
  6
ByLayer
 10
-63.6234294145319836
 20
-10.4763315197032512
 30
0.0
 11
-50.123429414532005
 21
-10.4763315197032512
 31
0.0
  0
LINE
  5
150
100
AcDbEntity
100
AcDbLine
  8
STANDARD
 62
7
370
-1
  6
ByLayer
 10
-71.1234294145319836
 20
-4.4763315197032583
 30
0.0
 11
-57.623429414532005
 21
-4.4763315197032583
 31
0.0
  0
LINE
  5
151
100
AcDbEntity
100
AcDbLine
  8
STANDARD
 62
7
370
-1
  6
ByLayer
 10
42.8765705854679808
 20
13.5236684802967453
 30
0.0
 11
44.3765705854679524
 21
10.5236684802967417
 31
0.0
  0
LINE
  5
152
100
AcDbEntity
100
AcDbLine
  8
STANDARD
 62
7
370
-1
  6
ByLayer
 10
42.8765705854679808
 20
16.5236684802967488
 30
0.0
 11
44.3765705854679524
 21
19.5236684802967488
 31
0.0
  0
LINE
  5
153
100
AcDbEntity
100
AcDbLine
  8
STANDARD
 62
7
370
-1
  6
ByLayer
 10
-50.123429414532005
 20
-37.4763315197032512
 30
0.0
 11
-48.6234294145319836
 21
-34.4763315197032583
 31
0.0
  0
LINE
  5
154
100
AcDbEntity
100
AcDbLine
  8
STANDARD
 62
7
370
-1
  6
ByLayer
 10
-50.123429414532005
 20
-10.4763315197032512
 30
0.0
 11
-48.6234294145319836
 21
-7.4763315197032476
 31
0.0
  0
LINE
  5
155
100
AcDbEntity
100
AcDbLine
  8
STANDARD
 62
7
370
-1
  6
ByLayer
 10
-57.623429414532005
 20
-4.4763315197032583
 30
0.0
 11
-56.1234294145319836
 21
-1.4763315197032556
 31
0.0
  0
LINE
  5
156
100
AcDbEntity
100
AcDbLine
  8
STANDARD
 62
7
370
-1
  6
ByLayer
 10
44.3765705854679524
 20
10.5236684802967417
 30
0.0
 11
50.3765705854679808
 21
10.5236684802967417
 31
0.0
  0
LINE
  5
157
100
AcDbEntity
100
AcDbLine
  8
STANDARD
 62
7
370
-1
  6
ByLayer
 10
44.3765705854679524
 20
19.5236684802967488
 30
0.0
 11
50.3765705854679808
 21
19.5236684802967488
 31
0.0
  0
LINE
  5
158
100
AcDbEntity
100
AcDbLine
  8
STANDARD
 62
7
370
-1
  6
ByLayer
 10
-48.6234294145319836
 20
-34.4763315197032583
 30
0.0
 11
-42.623429414532005
 21
-34.4763315197032583
 31
0.0
  0
LINE
  5
159
100
AcDbEntity
100
AcDbLine
  8
STANDARD
 62
7
370
-1
  6
ByLayer
 10
-48.6234294145319836
 20
-7.4763315197032476
 30
0.0
 11
-42.623429414532005
 21
-7.4763315197032476
 31
0.0
  0
LINE
  5
15A
100
AcDbEntity
100
AcDbLine
  8
STANDARD
 62
7
370
-1
  6
ByLayer
 10
-56.1234294145319836
 20
-1.4763315197032556
 30
0.0
 11
-42.623429414532005
 21
-1.4763315197032556
 31
0.0
  0
LINE
  5
15B
100
AcDbEntity
100
AcDbLine
  8
STANDARD
 62
7
370
-1
  6
ByLayer
 10
-8.1234294145320476
 20
28.5236684802967417
 30
0.0
 11
-9.6234294145320689
 21
31.5236684802967488
 31
0.0
  0
LINE
  5
15C
100
AcDbEntity
100
AcDbLine
  8
STANDARD
 62
7
370
-1
  6
ByLayer
 10
-8.1234294145320476
 20
25.5236684802967417
 30
0.0
 11
-9.6234294145320689
 21
22.5236684802967524
 31
0.0
  0
LINE
  5
15D
100
AcDbEntity
100
AcDbLine
  8
STANDARD
 62
7
370
-1
  6
ByLayer
 10
-101.1234294145319836
 20
-40.4763315197032654
 30
0.0
 11
-102.6234294145320121
 21
-43.4763315197032512
 31
0.0
  0
LINE
  5
15E
100
AcDbEntity
100
AcDbLine
  8
STANDARD
 62
7
370
-1
  6
ByLayer
 10
-101.1234294145319836
 20
-46.4763315197032441
 30
0.0
 11
-102.6234294145320121
 21
-49.4763315197032583
 31
0.0
  0
LINE
  5
15F
100
AcDbEntity
100
AcDbLine
  8
STANDARD
 62
7
370
-1
  6
ByLayer
 10
-101.1234294145319836
 20
-13.4763315197032529
 30
0.0
 11
-102.6234294145320121
 21
-16.4763315197032547
 31
0.0
  0
LINE
  5
160
100
AcDbEntity
100
AcDbLine
  8
STANDARD
 62
7
370
-1
  6
ByLayer
 10
-9.6234294145320689
 20
31.5236684802967488
 30
0.0
 11
-15.6234294145320476
 21
31.5236684802967488
 31
0.0
  0
LINE
  5
161
100
AcDbEntity
100
AcDbLine
  8
STANDARD
 62
7
370
-1
  6
ByLayer
 10
-9.6234294145320689
 20
22.5236684802967524
 30
0.0
 11
-15.6234294145320476
 21
22.5236684802967524
 31
0.0
  0
LINE
  5
162
100
AcDbEntity
100
AcDbLine
  8
STANDARD
 62
7
370
-1
  6
ByLayer
 10
-102.6234294145320121
 20
-43.4763315197032512
 30
0.0
 11
-108.6234294145319836
 21
-43.4763315197032512
 31
0.0
  0
LINE
  5
163
100
AcDbEntity
100
AcDbLine
  8
STANDARD
 62
7
370
-1
  6
ByLayer
 10
-102.6234294145320121
 20
-49.4763315197032583
 30
0.0
 11
-108.6234294145319836
 21
-49.4763315197032583
 31
0.0
  0
LINE
  5
164
100
AcDbEntity
100
AcDbLine
  8
STANDARD
 62
7
370
-1
  6
ByLayer
 10
-102.6234294145320121
 20
-16.4763315197032547
 30
0.0
 11
-108.6234294145319836
 21
-16.4763315197032547
 31
0.0
  0
LINE
  5
165
100
AcDbEntity
100
AcDbLine
  8
STANDARD
 62
7
370
-1
  6
ByLayer
 10
-93.6234294145319836
 20
-52.4763315197032441
 30
0.0
 11
-95.1234294145320121
 21
-55.4763315197032654
 31
0.0
  0
LINE
  5
166
100
AcDbEntity
100
AcDbLine
  8
STANDARD
 62
7
370
-1
  6
ByLayer
 10
-93.6234294145319836
 20
-19.4763315197032583
 30
0.0
 11
-95.1234294145320121
 21
-22.4763315197032476
 31
0.0
  0
LINE
  5
167
100
AcDbEntity
100
AcDbLine
  8
STANDARD
 62
7
370
-1
  6
ByLayer
 10
-95.1234294145320121
 20
-55.4763315197032654
 30
0.0
 11
-108.6234294145319836
 21
-55.4763315197032654
 31
0.0
  0
LINE
  5
168
100
AcDbEntity
100
AcDbLine
  8
STANDARD
 62
7
370
-1
  6
ByLayer
 10
-95.1234294145320121
 20
-22.4763315197032476
 30
0.0
 11
-108.6234294145319836
 21
-22.4763315197032476
 31
0.0
  0
LINE
  5
169
100
AcDbEntity
100
AcDbLine
  8
STANDARD
 62
7
370
-1
  6
ByLayer
 10
-15.6234294145320476
 20
-16.4763315197032547
 30
0.0
 11
5.3765705854679311
 21
-16.4763315197032547
 31
0.0
  0
LINE
  5
16A
100
AcDbEntity
100
AcDbLine
  8
STANDARD
 62
7
370
-1
  6
ByLayer
 10
-15.6234294145320476
 20
-22.4763315197032476
 30
0.0
 11
20.3765705854679311
 21
-22.4763315197032476
 31
0.0
  0
LINE
  5
16B
100
AcDbEntity
100
AcDbLine
  8
STANDARD
 62
7
370
-1
  6
ByLayer
 10
-15.6234294145320476
 20
-10.4763315197032512
 30
0.0
 11
-9.6234294145320689
 21
-10.4763315197032512
 31
0.0
  0
LINE
  5
16C
100
AcDbEntity
100
AcDbLine
  8
STANDARD
 62
7
370
-1
  6
ByLayer
 10
5.3765705854679311
 20
-16.4763315197032547
 30
0.0
 11
6.8765705854679524
 21
-13.4763315197032529
 31
0.0
  0
LINE
  5
16D
100
AcDbEntity
100
AcDbLine
  8
STANDARD
 62
7
370
-1
  6
ByLayer
 10
20.3765705854679311
 20
-22.4763315197032476
 30
0.0
 11
21.8765705854679524
 21
-19.4763315197032583
 31
0.0
  0
LINE
  5
16E
100
AcDbEntity
100
AcDbLine
  8
STANDARD
 62
7
370
-1
  6
ByLayer
 10
-9.6234294145320689
 20
-10.4763315197032512
 30
0.0
 11
-8.1234294145320476
 21
-7.4763315197032476
 31
0.0
  0
LINE
  5
16F
100
AcDbEntity
100
AcDbLine
  8
STANDARD
 62
7
370
-1
  6
ByLayer
 10
-15.6234294145320476
 20
-1.4763315197032556
 30
0.0
 11
-2.1234294145320689
 21
-1.4763315197032556
 31
0.0
  0
LINE
  5
170
100
AcDbEntity
100
AcDbLine
  8
STANDARD
 62
7
370
-1
  6
ByLayer
 10
6.8765705854679524
 20
-13.4763315197032529
 30
0.0
 11
27.8765705854679382
 21
-13.4763315197032529
 31
0.0
  0
LINE
  5
171
100
AcDbEntity
100
AcDbLine
  8
STANDARD
 62
7
370
-1
  6
ByLayer
 10
21.8765705854679524
 20
-19.4763315197032583
 30
0.0
 11
42.8765705854679808
 21
-19.4763315197032583
 31
0.0
  0
LINE
  5
172
100
AcDbEntity
100
AcDbLine
  8
STANDARD
 62
7
370
-1
  6
ByLayer
 10
-8.1234294145320476
 20
-7.4763315197032476
 30
0.0
 11
12.8765705854679311
 21
-7.4763315197032476
 31
0.0
  0
LINE
  5
173
100
AcDbEntity
100
AcDbLine
  8
STANDARD
 62
7
370
-1
  6
ByLayer
 10
-2.1234294145320689
 20
-1.4763315197032556
 30
0.0
 11
-0.6234294145320476
 21
-4.4763315197032583
 31
0.0
  0
LINE
  5
174
100
AcDbEntity
100
AcDbLine
  8
STANDARD
 62
7
370
-1
  6
ByLayer
 10
27.8765705854679382
 20
-13.4763315197032529
 30
0.0
 11
29.3765705854679524
 21
-16.4763315197032547
 31
0.0
  0
LINE
  5
175
100
AcDbEntity
100
AcDbLine
  8
STANDARD
 62
7
370
-1
  6
ByLayer
 10
42.8765705854679808
 20
-19.4763315197032583
 30
0.0
 11
44.3765705854679524
 21
-22.4763315197032476
 31
0.0
  0
LINE
  5
176
100
AcDbEntity
100
AcDbLine
  8
STANDARD
 62
7
370
-1
  6
ByLayer
 10
12.8765705854679311
 20
-7.4763315197032476
 30
0.0
 11
14.3765705854679524
 21
-10.4763315197032512
 31
0.0
  0
LINE
  5
177
100
AcDbEntity
100
AcDbLine
  8
STANDARD
 62
7
370
-1
  6
ByLayer
 10
-0.6234294145320476
 20
-4.4763315197032583
 30
0.0
 11
35.3765705854679382
 21
-4.4763315197032583
 31
0.0
  0
LINE
  5
178
100
AcDbEntity
100
AcDbLine
  8
STANDARD
 62
7
370
-1
  6
ByLayer
 10
29.3765705854679524
 20
-16.4763315197032547
 30
0.0
 11
50.3765705854679808
 21
-16.4763315197032547
 31
0.0
  0
LINE
  5
179
100
AcDbEntity
100
AcDbLine
  8
STANDARD
 62
7
370
-1
  6
ByLayer
 10
44.3765705854679524
 20
-22.4763315197032476
 30
0.0
 11
50.3765705854679808
 21
-22.4763315197032476
 31
0.0
  0
LINE
  5
17A
100
AcDbEntity
100
AcDbLine
  8
STANDARD
 62
7
370
-1
  6
ByLayer
 10
14.3765705854679524
 20
-10.4763315197032512
 30
0.0
 11
50.3765705854679808
 21
-10.4763315197032512
 31
0.0
  0
LINE
  5
17B
100
AcDbEntity
100
AcDbLine
  8
STANDARD
 62
7
370
-1
  6
ByLayer
 10
35.3765705854679382
 20
-4.4763315197032583
 30
0.0
 11
36.8765705854679524
 21
-1.4763315197032556
 31
0.0
  0
LINE
  5
17C
100
AcDbEntity
100
AcDbLine
  8
STANDARD
 62
7
370
-1
  6
ByLayer
 10
36.8765705854679524
 20
-1.4763315197032556
 30
0.0
 11
50.3765705854679808
 21
-1.4763315197032556
 31
0.0
  0
LINE
  5
17D
100
AcDbEntity
100
AcDbLine
  8
STANDARD
 62
7
370
-1
  6
ByLayer
 10
-15.6234294145320476
 20
-34.4763315197032583
 30
0.0
 11
5.3765705854679311
 21
-34.4763315197032583
 31
0.0
  0
LINE
  5
17E
100
AcDbEntity
100
AcDbLine
  8
STANDARD
 62
7
370
-1
  6
ByLayer
 10
5.3765705854679311
 20
-34.4763315197032583
 30
0.0
 11
6.8765705854679524
 21
-37.4763315197032512
 31
0.0
  0
LINE
  5
17F
100
AcDbEntity
100
AcDbLine
  8
STANDARD
 62
7
370
-1
  6
ByLayer
 10
6.8765705854679524
 20
-37.4763315197032512
 30
0.0
 11
35.3765705854679382
 21
-37.4763315197032512
 31
0.0
  0
LINE
  5
180
100
AcDbEntity
100
AcDbLine
  8
STANDARD
 62
7
370
-1
  6
ByLayer
 10
35.3765705854679382
 20
-37.4763315197032512
 30
0.0
 11
36.8765705854679524
 21
-34.4763315197032583
 31
0.0
  0
LINE
  5
181
100
AcDbEntity
100
AcDbLine
  8
STANDARD
 62
7
370
-1
  6
ByLayer
 10
36.8765705854679524
 20
-34.4763315197032583
 30
0.0
 11
50.3765705854679808
 21
-34.4763315197032583
 31
0.0
  0
LINE
  5
182
100
AcDbEntity
100
AcDbLine
  8
STANDARD
 62
7
370
-1
  6
ByLayer
 10
-15.6234294145320476
 20
-43.4763315197032512
 30
0.0
 11
-2.1234294145320689
 21
-43.4763315197032512
 31
0.0
  0
LINE
  5
183
100
AcDbEntity
100
AcDbLine
  8
STANDARD
 62
7
370
-1
  6
ByLayer
 10
-2.1234294145320689
 20
-43.4763315197032512
 30
0.0
 11
-0.6234294145320476
 21
-40.4763315197032654
 31
0.0
  0
LINE
  5
184
100
AcDbEntity
100
AcDbLine
  8
STANDARD
 62
7
370
-1
  6
ByLayer
 10
-0.6234294145320476
 20
-40.4763315197032654
 30
0.0
 11
27.8765705854679382
 21
-40.4763315197032654
 31
0.0
  0
LINE
  5
185
100
AcDbEntity
100
AcDbLine
  8
STANDARD
 62
7
370
-1
  6
ByLayer
 10
27.8765705854679382
 20
-40.4763315197032654
 30
0.0
 11
29.3765705854679524
 21
-43.4763315197032512
 31
0.0
  0
LINE
  5
186
100
AcDbEntity
100
AcDbLine
  8
STANDARD
 62
7
370
-1
  6
ByLayer
 10
29.3765705854679524
 20
-43.4763315197032512
 30
0.0
 11
50.3765705854679808
 21
-43.4763315197032512
 31
0.0
  0
LINE
  5
187
100
AcDbEntity
100
AcDbLine
  8
STANDARD
 62
7
370
-1
  6
ByLayer
 10
-15.6234294145320476
 20
-49.4763315197032583
 30
0.0
 11
-9.6234294145320689
 21
-49.4763315197032583
 31
0.0
  0
LINE
  5
188
100
AcDbEntity
100
AcDbLine
  8
STANDARD
 62
7
370
-1
  6
ByLayer
 10
-9.6234294145320689
 20
-49.4763315197032583
 30
0.0
 11
-8.1234294145320476
 21
-46.4763315197032441
 31
0.0
  0
LINE
  5
189
100
AcDbEntity
100
AcDbLine
  8
STANDARD
 62
7
370
-1
  6
ByLayer
 10
-8.1234294145320476
 20
-46.4763315197032441
 30
0.0
 11
20.3765705854679311
 21
-46.4763315197032441
 31
0.0
  0
LINE
  5
18A
100
AcDbEntity
100
AcDbLine
  8
STANDARD
 62
7
370
-1
  6
ByLayer
 10
20.3765705854679311
 20
-46.4763315197032441
 30
0.0
 11
21.8765705854679524
 21
-49.4763315197032583
 31
0.0
  0
LINE
  5
18B
100
AcDbEntity
100
AcDbLine
  8
STANDARD
 62
7
370
-1
  6
ByLayer
 10
21.8765705854679524
 20
-49.4763315197032583
 30
0.0
 11
50.3765705854679808
 21
-49.4763315197032583
 31
0.0
  0
LINE
  5
18C
100
AcDbEntity
100
AcDbLine
  8
STANDARD
 62
7
370
-1
  6
ByLayer
 10
-15.6234294145320476
 20
-55.4763315197032654
 30
0.0
 11
12.8765705854679311
 21
-55.4763315197032654
 31
0.0
  0
LINE
  5
18D
100
AcDbEntity
100
AcDbLine
  8
STANDARD
 62
7
370
-1
  6
ByLayer
 10
12.8765705854679311
 20
-55.4763315197032654
 30
0.0
 11
14.3765705854679524
 21
-52.4763315197032441
 31
0.0
  0
LINE
  5
18E
100
AcDbEntity
100
AcDbLine
  8
STANDARD
 62
7
370
-1
  6
ByLayer
 10
14.3765705854679524
 20
-52.4763315197032441
 30
0.0
 11
42.8765705854679808
 21
-52.4763315197032441
 31
0.0
  0
LINE
  5
18F
100
AcDbEntity
100
AcDbLine
  8
STANDARD
 62
7
370
-1
  6
ByLayer
 10
42.8765705854679808
 20
-52.4763315197032441
 30
0.0
 11
44.3765705854679524
 21
-55.4763315197032654
 31
0.0
  0
LINE
  5
190
100
AcDbEntity
100
AcDbLine
  8
STANDARD
 62
7
370
-1
  6
ByLayer
 10
44.3765705854679524
 20
-55.4763315197032654
 30
0.0
 11
50.3765705854679808
 21
-55.4763315197032654
 31
0.0
  0
ENDSEC
  0
SECTION
  2
OBJECTS
  0
DICTIONARY
  5
C
100
AcDbDictionary
280
0
281
1
  3
ACAD_GROUP
350
D
  3
ACAD_LAYOUT
350
1A
  3
ACAD_MLINESTYLE
350
17
  3
ACAD_PLOTSETTINGS
350
19
  3
ACAD_PLOTSTYLENAME
350
E
  3
AcDbVariableDictionary
350
191
  0
DICTIONARY
  5
D
100
AcDbDictionary
280
0
281
1
  0
ACDBDICTIONARYWDFLT
  5
E
100
AcDbDictionary
281
1
  3
Normal
350
F
100
AcDbDictionaryWithDefault
340
F
  0
ACDBPLACEHOLDER
  5
F
  0
DICTIONARY
  5
17
100
AcDbDictionary
280
0
281
1
  3
Standard
350
18
  0
MLINESTYLE
  5
18
100
AcDbMlineStyle
  2
STANDARD
 70
0
  3

 62
256
 51
90.0
 52
90.0
 71
2
 49
0.5
 62
256
  6
BYLAYER
 49
-0.5
 62
256
  6
BYLAYER
  0
DICTIONARY
  5
19
100
AcDbDictionary
280
0
281
1
  0
DICTIONARY
  5
1A
100
AcDbDictionary
281
1
  3
Layout1
350
1E
  3
Layout2
350
26
  3
Model
350
22
  0
LAYOUT
  5
1E
100
AcDbPlotSettings
  1

  2
C:\Program Files\AutoCAD 2002\plotters\DWF ePlot (optimized for plotting).pc3
  4

  6

 40
0.0
 41
0.0
 42
0.0
 43
0.0
 44
0.0
 45
0.0
 46
0.0
 47
0.0
 48
0.0
 49
0.0
140
0.0
141
0.0
142
1.0
143
1.0
 70
688
 72
0
 73
0
 74
5
  7

 75
16
147
1.0
148
0.0
149
0.0
100
AcDbLayout
  1
Layout1
 70
1
 71
1
 10
0.0
 20
0.0
 11
420.0
 21
297.0
 12
0.0
 22
0.0
 32
0.0
 14
100000000000000000000.0
 24
100000000000000000000.0
 34
100000000000000000000.0
 15
-100000000000000000000.0
 25
-100000000000000000000.0
 35
-100000000000000000000.0
146
0.0
 13
0.0
 23
0.0
 33
0.0
 16
1.0
 26
0.0
 36
0.0
 17
0.0
 27
1.0
 37
0.0
 76
0
330
1B
  0
LAYOUT
  5
22
100
AcDbPlotSettings
  1

  2
C:\Program Files\AutoCAD 2002\plotters\DWF ePlot (optimized for plotting).pc3
  4

  6

 40
0.0
 41
0.0
 42
0.0
 43
0.0
 44
0.0
 45
0.0
 46
0.0
 47
0.0
 48
0.0
 49
0.0
140
0.0
141
0.0
142
1.0
143
1.0
 70
1712
 72
0
 73
0
 74
0
  7

 75
0
147
1.0
148
0.0
149
0.0
100
AcDbLayout
  1
Model
 70
1
 71
0
 10
0.0
 20
0.0
 11
12.0
 21
9.0
 12
0.0
 22
0.0
 32
0.0
 14
0.0
 24
0.0
 34
0.0
 15
0.0
 25
0.0
 35
0.0
146
0.0
 13
0.0
 23
0.0
 33
0.0
 16
1.0
 26
0.0
 36
0.0
 17
0.0
 27
1.0
 37
0.0
 76
0
330
1F
  0
LAYOUT
  5
26
100
AcDbPlotSettings
  1

  2
C:\Program Files\AutoCAD 2002\plotters\DWF ePlot (optimized for plotting).pc3
  4

  6

 40
0.0
 41
0.0
 42
0.0
 43
0.0
 44
0.0
 45
0.0
 46
0.0
 47
0.0
 48
0.0
 49
0.0
140
0.0
141
0.0
142
1.0
143
1.0
 70
688
 72
0
 73
0
 74
5
  7

 75
16
147
1.0
148
0.0
149
0.0
100
AcDbLayout
  1
Layout2
 70
1
 71
2
 10
0.0
 20
0.0
 11
12.0
 21
9.0
 12
0.0
 22
0.0
 32
0.0
 14
0.0
 24
0.0
 34
0.0
 15
0.0
 25
0.0
 35
0.0
146
0.0
 13
0.0
 23
0.0
 33
0.0
 16
1.0
 26
0.0
 36
0.0
 17
0.0
 27
1.0
 37
0.0
 76
0
330
23
  0
DICTIONARY
  5
191
100
AcDbDictionary
281
1
  3
DIMASSOC
350
193
  3
HIDETEXT
350
192
  0
DICTIONARYVAR
  5
192
100
DictionaryVariables
280
0
  1
2
  0
DICTIONARYVAR
  5
193
100
DictionaryVariables
280
0
  1
1
  0
ENDSEC
  0
EOF
