999
dxflib 2.0.4.8
  0
SECTION
  2
HEADER
  9
$ACADVER
  1
AC1015
  9
$HANDSEED
  5
FFFF
  9
$USERR4
 40
0.0
  9
$AXISUNIT
 10
0.0
 20
0.0
 30
0.0
  9
$DIMTAD
 70
0
  9
$VISRETAIN
 70
0
  9
$TILEMODE
 70
1
  9
$SHADEDIF
 70
70
  9
$USERR5
 40
0.0
  9
$UCSYDIR
 10
0.0
 20
1.0
 30
0.0
  9
$ATTREQ
 70
1
  9
$CHAMFERA
 40
0.0
  9
$MENU
  1
acad
  9
$CLAYER
  8
0
  9
$DIMASZ
 40
0.18
  9
$GRIDUNIT
 10
0.0
 20
0.0
  9
$DIMADEC
 70
0
  9
$UCSXDIR
 10
1.0
 20
0.0
 30
0.0
  9
$CHAMFERB
 40
0.0
  9
$TRACEWID
 40
0.05
  9
$REGENMODE
 70
1
  9
$ORTHOMODE
 70
0
  9
$EXTMIN
 10
-30.7347619999999999
 20
6.7742500000000003
 30
0.0
  9
$DIMGAP
 40
0.09
  9
$PUCSYDIR
 10
0.0
 20
1.0
 30
0.0
  9
$ANGBASE
 50
0.0
  9
$USRTIMER
 70
1
  9
$SKETCHINC
 40
0.1
  9
$DIMTFAC
 40
1.0
  9
$DIMSAH
 70
0
  9
$DIMALT
 70
0
  9
$DIMSHO
 70
1
  9
$PUCSXDIR
 10
1.0
 20
0.0
 30
0.0
  9
$SURFTYPE
 70
6
  9
$SPLFRAME
 70
0
  9
$AXISMODE
 70
0
  9
$DIMTSZ
 40
0.0
  9
$LIMMIN
 10
0.0
 20
0.0
  9
$SPLINESEGS
 70
8
  9
$AUPREC
 70
0
  9
$LUNITS
 70
2
  9
$DWGCODEPAGE
  3
dos850
  9
$SURFTAB1
 70
6
  9
$BLIPMODE
 70
1
  9
$UNITMODE
 70
0
  9
$USERI1
 70
0
  9
$SURFTAB2
 70
6
  9
$SKPOLY
 70
0
  9
$ELEVATION
 40
0.0
  9
$DIMCEN
 40
0.09
  9
$DIMRND
 40
0.0
  9
$INSBASE
 10
0.0
 20
0.0
 30
0.0
  9
$DIMEXO
 40
0.0625
  9
$INSUNITS
 70
4
  9
$USERI2
 70
0
  9
$UCSORG
 10
0.0
 20
0.0
 30
0.0
  9
$PELEVATION
 40
0.0
  9
$TEXTSIZE
 40
0.2
  9
$DRAGMODE
 70
2
  9
$FILLMODE
 70
1
  9
$EXTMAX
 10
-24.2177380000000007
 20
11.9757499999999997
 30
0.0
  9
$USERI3
 70
0
  9
$SURFU
 70
6
  9
$ANGDIR
 70
0
  9
$TDUSRTIMER
 40
0.0
  9
$DIMZIN
 70
0
  9
$DIMDLE
 40
0.0
  9
$DIMSCALE
 40
1.0
  9
$DIMLUNIT
 70
2
  9
$WORLDVIEW
 70
1
  9
$USERI4
 70
0
  9
$SURFV
 70
6
  9
$OSMODE
 70
0
  9
$QTEXTMODE
 70
0
  9
$LIMMAX
 10
0.0
 20
0.0
  9
$DIMTXT
 40
0.18
  9
$GRIDMODE
 70
1
  9
$USERI5
 70
0
  9
$HANDLING
 70
1
  9
$PDMODE
 70
0
  9
$LIMCHECK
 70
0
  9
$THICKNESS
 40
0.0
  9
$DIMSE1
 70
0
  9
$DIMLIM
 70
0
  9
$ATTMODE
 70
1
  9
$LUPREC
 70
4
  9
$PEXTMAX
 10
-100000000000000000000.0
 20
-100000000000000000000.0
 30
-100000000000000000000.0
  9
$PEXTMIN
 10
100000000000000000000.0
 20
100000000000000000000.0
 30
100000000000000000000.0
  9
$PUCSORG
 10
0.0
 20
0.0
 30
0.0
  9
$SPLINETYPE
 70
6
  9
$TDINDWG
 40
0.0
  9
$DIMSOXD
 70
0
  9
$DIMLFAC
 40
1.0
  9
$DIMSE2
 70
0
  9
$DIMTOH
 70
1
  9
$CELTYPE
  6
CONTINUOUS
  9
$PLIMCHECK
 70
0
  9
$PLINEWID
 40
0.0
  9
$DIMSTYLE
  2
STANDARD
  9
$DIMTVP
 40
0.0
  9
$DIMASO
 70
1
  9
$DIMTM
 40
0.0
  9
$DIMDLI
 40
0.38
  9
$CECOLOR
 62
256
  9
$PLIMMAX
 10
210.0
 20
297.0
  9
$PLIMMIN
 10
0.0
 20
0.0
  9
$TREEDEPTH
 70
3020
  9
$MAXACTVP
 70
16
  9
$TDUPDATE
 40
0.0
  9
$FILLETRAD
 40
0.0
  9
$DIMCLRT
 70
0
  9
$DIMALTD
 70
2
  9
$DIMTIH
 70
1
  9
$LTSCALE
 40
1.0
  9
$PINSBASE
 10
132.7054828367227515
 20
138.5934770742358353
 30
0.0
  9
$DIMEXE
 40
0.18
  9
$USERR1
 40
0.0
  9
$ATTDIA
 70
0
  9
$PDSIZE
 40
0.0
  9
$DIMCLRD
 70
0
  9
$DIMAUNIT
 70
0
  9
$PSLTSCALE
 70
0
  9
$PLINEGEN
 70
1
  9
$SHADEDGE
 70
3
  9
$USERR2
 40
0.0
  9
$COORDS
 70
0
  9
$TDCREATE
 40
0.0
  9
$DIMCLRE
 70
0
  9
$DIMTOFL
 70
0
  9
$DIMALTF
 40
25.3999999999999986
  9
$DIMTOL
 70
0
  9
$DIMTP
 40
0.0
  9
$TEXTSTYLE
  7
STANDARD
  9
$AUNITS
 70
0
  9
$USERR3
 40
0.0
  9
$DIMTIX
 70
0
  9
$MIRRTEXT
 70
1
  0
ENDSEC
  0
SECTION
  2
TABLES
  0
TABLE
  2
VPORT
  5
8
100
AcDbSymbolTable
 70
1
  0
VPORT
  5
30
100
AcDbSymbolTableRecord
100
AcDbViewportTableRecord
  2
*Active
 70
0
 10
0.0
 20
0.0
 11
1.0
 21
1.0
 12
286.3055555555554861
 22
148.5
 13
0.0
 23
0.0
 14
10.0
 24
10.0
 15
10.0
 25
10.0
 16
0.0
 26
0.0
 36
1.0
 17
0.0
 27
0.0
 37
0.0
 40
297.0
 41
1.92798353909465
 42
50.0
 43
0.0
 44
0.0
 50
0.0
 51
0.0
 71
0
 72
100
 73
1
 74
3
 75
1
 76
1
 77
0
 78
0
281
0
 65
1
110
0.0
120
0.0
130
0.0
111
1.0
121
0.0
131
0.0
112
0.0
122
1.0
132
0.0
 79
0
146
0.0
  0
ENDTAB
  0
TABLE
  2
LTYPE
  5
5
100
AcDbSymbolTable
 70
21
  0
LTYPE
  5
14
100
AcDbSymbolTableRecord
100
AcDbLinetypeTableRecord
  2
ByBlock
 70
0
  3

 72
65
 73
0
 40
0.0
  0
LTYPE
  5
15
100
AcDbSymbolTableRecord
100
AcDbLinetypeTableRecord
  2
ByLayer
 70
0
  3

 72
65
 73
0
 40
0.0
  0
LTYPE
  5
16
100
AcDbSymbolTableRecord
100
AcDbLinetypeTableRecord
  2
CONTINUOUS
 70
0
  3
Solid line
 72
65
 73
0
 40
0.0
  0
LTYPE
  5
31
100
AcDbSymbolTableRecord
100
AcDbLinetypeTableRecord
  2
DOT
 70
0
  3
Dot . . . . . . . . . . . . . . . . . . . . . .
 72
65
 73
2
 40
6.3499999999999996
 49
0.0
 74
0
 49
-6.3499999999999996
 74
0
  0
LTYPE
  5
32
100
AcDbSymbolTableRecord
100
AcDbLinetypeTableRecord
  2
DOT2
 70
0
  3
Dot (.5x) .....................................
 72
65
 73
2
 40
3.1749999999999998
 49
0.0
 74
0
 49
-3.1749999999999998
 74
0
  0
LTYPE
  5
33
100
AcDbSymbolTableRecord
100
AcDbLinetypeTableRecord
  2
DOTX2
 70
0
  3
Dot (2x) .  .  .  .  .  .  .  .  .  .  .  .  .
 72
65
 73
2
 40
12.6999999999999993
 49
0.0
 74
0
 49
-12.6999999999999993
 74
0
  0
LTYPE
  5
34
100
AcDbSymbolTableRecord
100
AcDbLinetypeTableRecord
  2
DASHED
 70
0
  3
Dashed __ __ __ __ __ __ __ __ __ __ __ __ __ _
 72
65
 73
2
 40
19.0500000000000007
 49
12.6999999999999993
 74
0
 49
-6.3499999999999996
 74
0
  0
LTYPE
  5
35
100
AcDbSymbolTableRecord
100
AcDbLinetypeTableRecord
  2
DASHED2
 70
0
  3
Dashed (.5x) _ _ _ _ _ _ _ _ _ _ _ _ _ _ _ _ _
 72
65
 73
2
 40
9.5250000000000004
 49
6.3499999999999996
 74
0
 49
-3.1749999999999998
 74
0
  0
LTYPE
  5
36
100
AcDbSymbolTableRecord
100
AcDbLinetypeTableRecord
  2
DASHEDX2
 70
0
  3
Dashed (2x) ____  ____  ____  ____  ____  ___
 72
65
 73
2
 40
38.1000000000000014
 49
25.3999999999999986
 74
0
 49
-12.6999999999999993
 74
0
  0
LTYPE
  5
37
100
AcDbSymbolTableRecord
100
AcDbLinetypeTableRecord
  2
DASHDOT
 70
0
  3
Dash dot __ . __ . __ . __ . __ . __ . __ . __
 72
65
 73
4
 40
25.3999999999999986
 49
12.6999999999999993
 74
0
 49
-6.3499999999999996
 74
0
 49
0.0
 74
0
 49
-6.3499999999999996
 74
0
  0
LTYPE
  5
38
100
AcDbSymbolTableRecord
100
AcDbLinetypeTableRecord
  2
DASHDOT2
 70
0
  3
Dash dot (.5x) _._._._._._._._._._._._._._._.
 72
65
 73
4
 40
12.6999999999999993
 49
6.3499999999999996
 74
0
 49
-3.1749999999999998
 74
0
 49
0.0
 74
0
 49
-3.1749999999999998
 74
0
  0
LTYPE
  5
39
100
AcDbSymbolTableRecord
100
AcDbLinetypeTableRecord
  2
DASHDOTX2
 70
0
  3
Dash dot (2x) ____  .  ____  .  ____  .  ___
 72
65
 73
4
 40
50.7999999999999972
 49
25.3999999999999986
 74
0
 49
-12.6999999999999993
 74
0
 49
0.0
 74
0
 49
-12.6999999999999993
 74
0
  0
LTYPE
  5
3A
100
AcDbSymbolTableRecord
100
AcDbLinetypeTableRecord
  2
DIVIDE
 70
0
  3
Divide ____ . . ____ . . ____ . . ____ . . ____
 72
65
 73
6
 40
31.75
 49
12.6999999999999993
 74
0
 49
-6.3499999999999996
 74
0
 49
0.0
 74
0
 49
-6.3499999999999996
 74
0
 49
0.0
 74
0
 49
-6.3499999999999996
 74
0
  0
LTYPE
  5
3B
100
AcDbSymbolTableRecord
100
AcDbLinetypeTableRecord
  2
DIVIDE2
 70
0
  3
Divide (.5x) __..__..__..__..__..__..__..__.._
 72
65
 73
6
 40
15.875
 49
6.3499999999999996
 74
0
 49
-3.1749999999999998
 74
0
 49
0.0
 74
0
 49
-3.1749999999999998
 74
0
 49
0.0
 74
0
 49
-3.1749999999999998
 74
0
  0
LTYPE
  5
3C
100
AcDbSymbolTableRecord
100
AcDbLinetypeTableRecord
  2
DIVIDEX2
 70
0
  3
Divide (2x) ________  .  .  ________  .  .  _
 72
65
 73
6
 40
63.5
 49
25.3999999999999986
 74
0
 49
-12.6999999999999993
 74
0
 49
0.0
 74
0
 49
-12.6999999999999993
 74
0
 49
0.0
 74
0
 49
-12.6999999999999993
 74
0
  0
LTYPE
  5
3D
100
AcDbSymbolTableRecord
100
AcDbLinetypeTableRecord
  2
CENTER
 70
0
  3
Center ____ _ ____ _ ____ _ ____ _ ____ _ ____
 72
65
 73
4
 40
50.7999999999999972
 49
31.75
 74
0
 49
-6.3499999999999996
 74
0
 49
6.3499999999999996
 74
0
 49
-6.3499999999999996
 74
0
  0
LTYPE
  5
3E
100
AcDbSymbolTableRecord
100
AcDbLinetypeTableRecord
  2
CENTER2
 70
0
  3
Center (.5x) ___ _ ___ _ ___ _ ___ _ ___ _ ___
 72
65
 73
4
 40
28.5749999999999993
 49
19.0500000000000007
 74
0
 49
-3.1749999999999998
 74
0
 49
3.1749999999999998
 74
0
 49
-3.1749999999999998
 74
0
  0
LTYPE
  5
3F
100
AcDbSymbolTableRecord
100
AcDbLinetypeTableRecord
  2
CENTERX2
 70
0
  3
Center (2x) ________  __  ________  __  _____
 72
65
 73
4
 40
101.5999999999999943
 49
63.5
 74
0
 49
-12.6999999999999993
 74
0
 49
12.6999999999999993
 74
0
 49
-12.6999999999999993
 74
0
  0
LTYPE
  5
40
100
AcDbSymbolTableRecord
100
AcDbLinetypeTableRecord
  2
BORDER
 70
0
  3
Border __ __ . __ __ . __ __ . __ __ . __ __ .
 72
65
 73
6
 40
44.4500000000000028
 49
12.6999999999999993
 74
0
 49
-6.3499999999999996
 74
0
 49
12.6999999999999993
 74
0
 49
-6.3499999999999996
 74
0
 49
0.0
 74
0
 49
-6.3499999999999996
 74
0
  0
LTYPE
  5
41
100
AcDbSymbolTableRecord
100
AcDbLinetypeTableRecord
  2
BORDER2
 70
0
  3
Border (.5x) __.__.__.__.__.__.__.__.__.__.__.
 72
65
 73
6
 40
22.2250000000000014
 49
6.3499999999999996
 74
0
 49
-3.1749999999999998
 74
0
 49
6.3499999999999996
 74
0
 49
-3.1749999999999998
 74
0
 49
0.0
 74
0
 49
-3.1749999999999998
 74
0
  0
LTYPE
  5
42
100
AcDbSymbolTableRecord
100
AcDbLinetypeTableRecord
  2
BORDERX2
 70
0
  3
Border (2x) ____  ____  .  ____  ____  .  ___
 72
65
 73
6
 40
88.9000000000000057
 49
25.3999999999999986
 74
0
 49
-12.6999999999999993
 74
0
 49
25.3999999999999986
 74
0
 49
-12.6999999999999993
 74
0
 49
0.0
 74
0
 49
-12.6999999999999993
 74
0
  0
ENDTAB
  0
TABLE
  2
LAYER
  5
2
100
AcDbSymbolTable
 70
7
  0
LAYER
  5
10
100
AcDbSymbolTableRecord
100
AcDbLayerTableRecord
  2
0
 70
0
 62
7
  6
CONTINUOUS
390
F
  0
LAYER
  5
43
100
AcDbSymbolTableRecord
100
AcDbLayerTableRecord
  2
MERGE
 70
0
 62
7
  6
CONTINUOUS
390
F
  0
LAYER
  5
44
100
AcDbSymbolTableRecord
100
AcDbLayerTableRecord
  2
STANDARD
 70
0
 62
7
  6
CONTINUOUS
370
25
390
F
  0
LAYER
  5
45
100
AcDbSymbolTableRecord
100
AcDbLayerTableRecord
  2
PINS
 70
0
 62
7
  6
CONTINUOUS
390
F
  0
LAYER
  5
46
100
AcDbSymbolTableRecord
100
AcDbLayerTableRecord
  2
PARAMS
 70
0
 62
7
  6
CONTINUOUS
390
F
  0
LAYER
  5
47
100
AcDbSymbolTableRecord
100
AcDbLayerTableRecord
  2
OUTLINE
 70
0
 62
7
  6
CONTINUOUS
390
F
  0
LAYER
  5
48
100
AcDbSymbolTableRecord
100
AcDbLayerTableRecord
  2
INTERNALS
 70
0
 62
7
  6
CONTINUOUS
390
F
  0
ENDTAB
  0
TABLE
  2
STYLE
  5
3
100
AcDbSymbolTable
 70
1
  0
STYLE
  5
11
100
AcDbSymbolTableRecord
100
AcDbTextStyleTableRecord
  2
Standard
 70
0
 40
0.0
 41
0.75
 50
0.0
 71
0
 42
2.5
  3
txt
  4

  0
ENDTAB
  0
TABLE
  2
VIEW
  5
6
100
AcDbSymbolTable
 70
0
  0
ENDTAB
  0
TABLE
  2
UCS
  5
7
100
AcDbSymbolTable
 70
0
  0
ENDTAB
  0
TABLE
  2
APPID
  5
9
100
AcDbSymbolTable
 70
1
  0
APPID
  5
12
100
AcDbSymbolTableRecord
100
AcDbRegAppTableRecord
  2
ACAD
 70
0
  0
ENDTAB
  0
TABLE
  2
DIMSTYLE
  5
A
100
AcDbSymbolTable
 70
1
100
AcDbDimStyleTable
 71
0
  0
DIMSTYLE
105
27
100
AcDbSymbolTableRecord
100
AcDbDimStyleTableRecord
  2
Standard
 41
0.18
 42
0.0625
 43
3.75
 44
0.18
 70
0
 73
0
 74
0
 77
1
 78
8
140
0.18
141
2.5
143
0.03937007874016
147
0.09
171
3
172
1
271
2
272
2
274
3
278
44
283
0
284
8
340
11
  0
ENDTAB
  0
TABLE
  2
BLOCK_RECORD
  5
1
100
AcDbSymbolTable
 70
1
  0
BLOCK_RECORD
  5
1F
100
AcDbSymbolTableRecord
100
AcDbBlockTableRecord
  2
*Model_Space
340
22
  0
BLOCK_RECORD
  5
1B
100
AcDbSymbolTableRecord
100
AcDbBlockTableRecord
  2
*Paper_Space
340
1E
  0
BLOCK_RECORD
  5
23
100
AcDbSymbolTableRecord
100
AcDbBlockTableRecord
  2
*Paper_Space0
340
26
  0
ENDTAB
  0
ENDSEC
  0
SECTION
  2
BLOCKS
  0
BLOCK
  5
20
100
AcDbEntity
  8
0
100
AcDbBlockBegin
  2
*Model_Space
 70
0
 10
0.0
 20
0.0
 30
0.0
  3
*Model_Space
  1

  0
ENDBLK
  5
21
100
AcDbEntity
  8
0
100
AcDbBlockEnd
  0
BLOCK
  5
1C
100
AcDbEntity
 67
1
  8
0
100
AcDbBlockBegin
  2
*Paper_Space
 70
0
 10
0.0
 20
0.0
 30
0.0
  3
*Paper_Space
  1

  0
ENDBLK
  5
1D
100
AcDbEntity
 67
1
  8
0
100
AcDbBlockEnd
  0
BLOCK
  5
24
100
AcDbEntity
  8
0
100
AcDbBlockBegin
  2
*Paper_Space0
 70
0
 10
0.0
 20
0.0
 30
0.0
  3
*Paper_Space0
  1

  0
ENDBLK
  5
25
100
AcDbEntity
  8
0
100
AcDbBlockEnd
  0
ENDSEC
  0
SECTION
  2
ENTITIES
  0
MTEXT
  5
49
100
AcDbEntity
100
AcDbMText
  8
STANDARD
 62
7
370
-1
  6
ByLayer
 10
-73.5880492226093565
 20
26.1857174395327661
 30
0.0
 40
2.25
 41
2250.0
 71
5
 72
2
  1
0
  7
STYLE1
 50
0.0
 73
0
 44
1.0
  0
MTEXT
  5
4A
100
AcDbEntity
100
AcDbMText
  8
STANDARD
 62
7
370
-1
  6
ByLayer
 10
-73.5880492226093565
 20
-16.5642825604672197
 30
0.0
 40
2.25
 41
2250.0
 71
5
 72
2
  1
0
  7
STYLE1
 50
0.0
 73
0
 44
1.0
  0
MTEXT
  5
4B
100
AcDbEntity
100
AcDbMText
  8
STANDARD
 62
7
370
-1
  6
ByLayer
 10
-73.5880492226093565
 20
62.1857174395328016
 30
0.0
 40
2.25
 41
2250.0
 71
5
 72
2
  1
0
  7
STYLE1
 50
0.0
 73
0
 44
1.0
  0
MTEXT
  5
4C
100
AcDbEntity
100
AcDbMText
  8
STANDARD
 62
7
370
-1
  6
ByLayer
 10
-62.3380492226093637
 20
26.1857174395327661
 30
0.0
 40
2.25
 41
2250.0
 71
5
 72
2
  1
1
  7
STYLE1
 50
0.0
 73
0
 44
1.0
  0
MTEXT
  5
4D
100
AcDbEntity
100
AcDbMText
  8
STANDARD
 62
7
370
-1
  6
ByLayer
 10
-62.3380492226093637
 20
-16.5642825604672197
 30
0.0
 40
2.25
 41
2250.0
 71
5
 72
2
  1
1
  7
STYLE1
 50
0.0
 73
0
 44
1.0
  0
MTEXT
  5
4E
100
AcDbEntity
100
AcDbMText
  8
STANDARD
 62
7
370
-1
  6
ByLayer
 10
-62.3380492226093637
 20
62.1857174395328016
 30
0.0
 40
2.25
 41
2250.0
 71
5
 72
2
  1
1
  7
STYLE1
 50
0.0
 73
0
 44
1.0
  0
MTEXT
  5
4F
100
AcDbEntity
100
AcDbMText
  8
STANDARD
 62
7
370
-1
  6
ByLayer
 10
-51.0880492226093708
 20
26.1857174395327661
 30
0.0
 40
2.25
 41
2250.0
 71
5
 72
2
  1
2
  7
STYLE1
 50
0.0
 73
0
 44
1.0
  0
MTEXT
  5
50
100
AcDbEntity
100
AcDbMText
  8
STANDARD
 62
7
370
-1
  6
ByLayer
 10
-51.0880492226093708
 20
-16.5642825604672197
 30
0.0
 40
2.25
 41
2250.0
 71
5
 72
2
  1
2
  7
STYLE1
 50
0.0
 73
0
 44
1.0
  0
MTEXT
  5
51
100
AcDbEntity
100
AcDbMText
  8
STANDARD
 62
7
370
-1
  6
ByLayer
 10
-51.0880492226093708
 20
62.1857174395328016
 30
0.0
 40
2.25
 41
2250.0
 71
5
 72
2
  1
2
  7
STYLE1
 50
0.0
 73
0
 44
1.0
  0
MTEXT
  5
52
100
AcDbEntity
100
AcDbMText
  8
STANDARD
 62
7
370
-1
  6
ByLayer
 10
-28.5880492226093708
 20
26.1857174395327661
 30
0.0
 40
2.25
 41
2250.0
 71
5
 72
2
  1
1
  7
STYLE1
 50
0.0
 73
0
 44
1.0
  0
MTEXT
  5
53
100
AcDbEntity
100
AcDbMText
  8
STANDARD
 62
7
370
-1
  6
ByLayer
 10
-28.5880492226093708
 20
-16.5642825604672197
 30
0.0
 40
2.25
 41
2250.0
 71
5
 72
2
  1
4
  7
STYLE1
 50
0.0
 73
0
 44
1.0
  0
MTEXT
  5
54
100
AcDbEntity
100
AcDbMText
  8
STANDARD
 62
7
370
-1
  6
ByLayer
 10
-28.5880492226093708
 20
62.1857174395328016
 30
0.0
 40
2.25
 41
2250.0
 71
5
 72
2
  1
0
  7
STYLE1
 50
0.0
 73
0
 44
1.0
  0
MTEXT
  5
55
100
AcDbEntity
100
AcDbMText
  8
STANDARD
 62
7
370
-1
  6
ByLayer
 10
-39.8380492226093708
 20
26.1857174395327661
 30
0.0
 40
2.25
 41
2250.0
 71
5
 72
2
  1
0
  7
STYLE1
 50
0.0
 73
0
 44
1.0
  0
MTEXT
  5
56
100
AcDbEntity
100
AcDbMText
  8
STANDARD
 62
7
370
-1
  6
ByLayer
 10
-39.8380492226093708
 20
-16.5642825604672197
 30
0.0
 40
2.25
 41
2250.0
 71
5
 72
2
  1
3
  7
STYLE1
 50
0.0
 73
0
 44
1.0
  0
MTEXT
  5
57
100
AcDbEntity
100
AcDbMText
  8
STANDARD
 62
7
370
-1
  6
ByLayer
 10
-39.8380492226093708
 20
62.1857174395328016
 30
0.0
 40
2.25
 41
2250.0
 71
5
 72
2
  1
3
  7
STYLE1
 50
0.0
 73
0
 44
1.0
  0
MTEXT
  5
58
100
AcDbEntity
100
AcDbMText
  8
STANDARD
 62
7
370
-1
  6
ByLayer
 10
-17.3380492226093708
 20
26.1857174395327661
 30
0.0
 40
2.25
 41
2250.0
 71
5
 72
2
  1
2
  7
STYLE1
 50
0.0
 73
0
 44
1.0
  0
MTEXT
  5
59
100
AcDbEntity
100
AcDbMText
  8
STANDARD
 62
7
370
-1
  6
ByLayer
 10
-17.3380492226093708
 20
-16.5642825604672197
 30
0.0
 40
2.25
 41
2250.0
 71
5
 72
2
  1
5
  7
STYLE1
 50
0.0
 73
0
 44
1.0
  0
MTEXT
  5
5A
100
AcDbEntity
100
AcDbMText
  8
STANDARD
 62
7
370
-1
  6
ByLayer
 10
-17.3380492226093708
 20
62.1857174395328016
 30
0.0
 40
2.25
 41
2250.0
 71
5
 72
2
  1
1
  7
STYLE1
 50
0.0
 73
0
 44
1.0
  0
MTEXT
  5
5B
100
AcDbEntity
100
AcDbMText
  8
STANDARD
 62
7
370
-1
  6
ByLayer
 10
-6.0880492226093708
 20
26.1857174395327661
 30
0.0
 40
2.25
 41
2250.0
 71
5
 72
2
  1
0
  7
STYLE1
 50
0.0
 73
0
 44
1.0
  0
MTEXT
  5
5C
100
AcDbEntity
100
AcDbMText
  8
STANDARD
 62
7
370
-1
  6
ByLayer
 10
-6.0880492226093708
 20
-16.5642825604672197
 30
0.0
 40
2.25
 41
2250.0
 71
5
 72
2
  1
0
  7
STYLE1
 50
0.0
 73
0
 44
1.0
  0
MTEXT
  5
5D
100
AcDbEntity
100
AcDbMText
  8
STANDARD
 62
7
370
-1
  6
ByLayer
 10
-6.0880492226093708
 20
62.1857174395328016
 30
0.0
 40
2.25
 41
2250.0
 71
5
 72
2
  1
2
  7
STYLE1
 50
0.0
 73
0
 44
1.0
  0
MTEXT
  5
5E
100
AcDbEntity
100
AcDbMText
  8
STANDARD
 62
7
370
-1
  6
ByLayer
 10
5.1619507773906292
 20
26.1857174395327661
 30
0.0
 40
2.25
 41
2250.0
 71
5
 72
2
  1
1
  7
STYLE1
 50
0.0
 73
0
 44
1.0
  0
MTEXT
  5
5F
100
AcDbEntity
100
AcDbMText
  8
STANDARD
 62
7
370
-1
  6
ByLayer
 10
5.1619507773906292
 20
-16.5642825604672197
 30
0.0
 40
2.25
 41
2250.0
 71
5
 72
2
  1
1
  7
STYLE1
 50
0.0
 73
0
 44
1.0
  0
MTEXT
  5
60
100
AcDbEntity
100
AcDbMText
  8
STANDARD
 62
7
370
-1
  6
ByLayer
 10
5.1619507773906292
 20
62.1857174395328016
 30
0.0
 40
2.25
 41
2250.0
 71
5
 72
2
  1
3
  7
STYLE1
 50
0.0
 73
0
 44
1.0
  0
MTEXT
  5
61
100
AcDbEntity
100
AcDbMText
  8
STANDARD
 62
7
370
-1
  6
ByLayer
 10
16.4119507773906292
 20
26.1857174395327661
 30
0.0
 40
2.25
 41
2250.0
 71
5
 72
2
  1
2
  7
STYLE1
 50
0.0
 73
0
 44
1.0
  0
MTEXT
  5
62
100
AcDbEntity
100
AcDbMText
  8
STANDARD
 62
7
370
-1
  6
ByLayer
 10
16.4119507773906292
 20
-16.5642825604672197
 30
0.0
 40
2.25
 41
2250.0
 71
5
 72
2
  1
2
  7
STYLE1
 50
0.0
 73
0
 44
1.0
  0
MTEXT
  5
63
100
AcDbEntity
100
AcDbMText
  8
STANDARD
 62
7
370
-1
  6
ByLayer
 10
16.4119507773906292
 20
62.1857174395328016
 30
0.0
 40
2.25
 41
2250.0
 71
5
 72
2
  1
0
  7
STYLE1
 50
0.0
 73
0
 44
1.0
  0
MTEXT
  5
64
100
AcDbEntity
100
AcDbMText
  8
STANDARD
 62
7
370
-1
  6
ByLayer
 10
27.6619507773906221
 20
26.1857174395327661
 30
0.0
 40
2.25
 41
2250.0
 71
5
 72
2
  1
0
  7
STYLE1
 50
0.0
 73
0
 44
1.0
  0
MTEXT
  5
65
100
AcDbEntity
100
AcDbMText
  8
STANDARD
 62
7
370
-1
  6
ByLayer
 10
27.6619507773906221
 20
-16.5642825604672197
 30
0.0
 40
2.25
 41
2250.0
 71
5
 72
2
  1
3
  7
STYLE1
 50
0.0
 73
0
 44
1.0
  0
MTEXT
  5
66
100
AcDbEntity
100
AcDbMText
  8
STANDARD
 62
7
370
-1
  6
ByLayer
 10
38.9119507773906221
 20
-16.5642825604672197
 30
0.0
 40
2.25
 41
2250.0
 71
5
 72
2
  1
4
  7
STYLE1
 50
0.0
 73
0
 44
1.0
  0
MTEXT
  5
67
100
AcDbEntity
100
AcDbMText
  8
STANDARD
 62
7
370
-1
  6
ByLayer
 10
-93.8380492226093565
 20
26.1857174395327661
 30
0.0
 40
2.25
 41
2250.0
 71
5
 72
2
  1
STEP\~TYPE\~3
  7
STYLE1
 50
0.0
 73
0
 44
1.0
  0
MTEXT
  5
68
100
AcDbEntity
100
AcDbMText
  8
STANDARD
 62
7
370
-1
  6
ByLayer
 10
-93.8380492226093565
 20
-16.5642825604672197
 30
0.0
 40
2.25
 41
2250.0
 71
5
 72
2
  1
STEP\~TYPE\~4
  7
STYLE1
 50
0.0
 73
0
 44
1.0
  0
MTEXT
  5
69
100
AcDbEntity
100
AcDbMText
  8
STANDARD
 62
7
370
-1
  6
ByLayer
 10
-93.8380492226093565
 20
62.1857174395328016
 30
0.0
 40
2.25
 41
2250.0
 71
5
 72
2
  1
STEP\~TYPE\~2
  7
STYLE1
 50
0.0
 73
0
 44
1.0
  0
MTEXT
  5
6A
100
AcDbEntity
100
AcDbMText
  8
STANDARD
 62
7
370
-1
  6
ByLayer
 10
-98.3380492226094134
 20
17.1857174395327981
 30
0.0
 40
2.25
 41
2250.0
 71
4
 72
2
  1
phase-A
  7
STYLE1
 50
0.0
 73
0
 44
1.0
  0
MTEXT
  5
6B
100
AcDbEntity
100
AcDbMText
  8
STANDARD
 62
7
370
-1
  6
ByLayer
 10
-98.3380492226094134
 20
-25.5642825604672268
 30
0.0
 40
2.25
 41
2250.0
 71
4
 72
2
  1
phase-A
  7
STYLE1
 50
0.0
 73
0
 44
1.0
  0
MTEXT
  5
6C
100
AcDbEntity
100
AcDbMText
  8
STANDARD
 62
7
370
-1
  6
ByLayer
 10
-98.3380492226094134
 20
53.1857174395327945
 30
0.0
 40
2.25
 41
2250.0
 71
4
 72
2
  1
phase-A
  7
STYLE1
 50
0.0
 73
0
 44
1.0
  0
MTEXT
  5
6D
100
AcDbEntity
100
AcDbMText
  8
STANDARD
 62
7
370
-1
  6
ByLayer
 10
-98.3380492226094134
 20
8.1857174395327696
 30
0.0
 40
2.25
 41
2250.0
 71
4
 72
2
  1
phase-B
  7
STYLE1
 50
0.0
 73
0
 44
1.0
  0
MTEXT
  5
6E
100
AcDbEntity
100
AcDbMText
  8
STANDARD
 62
7
370
-1
  6
ByLayer
 10
-98.3380492226094134
 20
-34.564282560467241
 30
0.0
 40
2.25
 41
2250.0
 71
4
 72
2
  1
phase-B
  7
STYLE1
 50
0.0
 73
0
 44
1.0
  0
MTEXT
  5
6F
100
AcDbEntity
100
AcDbMText
  8
STANDARD
 62
7
370
-1
  6
ByLayer
 10
-98.3380492226094134
 20
44.1857174395327803
 30
0.0
 40
2.25
 41
2250.0
 71
4
 72
2
  1
phase-B
  7
STYLE1
 50
0.0
 73
0
 44
1.0
  0
MTEXT
  5
70
100
AcDbEntity
100
AcDbMText
  8
STANDARD
 62
7
370
-1
  6
ByLayer
 10
-98.3380492226094134
 20
-0.8142825604672375
 30
0.0
 40
2.25
 41
2250.0
 71
4
 72
2
  1
phase-C
  7
STYLE1
 50
0.0
 73
0
 44
1.0
  0
MTEXT
  5
71
100
AcDbEntity
100
AcDbMText
  8
STANDARD
 62
7
370
-1
  6
ByLayer
 10
-98.3380492226094134
 20
-43.5642825604672197
 30
0.0
 40
2.25
 41
2250.0
 71
4
 72
2
  1
phase-C
  7
STYLE1
 50
0.0
 73
0
 44
1.0
  0
LINE
  5
72
100
AcDbEntity
100
AcDbLine
  8
STANDARD
 62
7
370
-1
  6
ByLayer
 10
-78.0880492226093565
 20
41.9357174395327945
 30
0.0
 11
-69.088049222609385
 21
41.9357174395327945
 31
0.0
  0
LINE
  5
73
100
AcDbEntity
100
AcDbLine
  8
STANDARD
 62
7
370
-1
  6
ByLayer
 10
-69.088049222609385
 20
41.9357174395327945
 30
0.0
 11
-66.8380492226093565
 21
46.4357174395327661
 31
0.0
  0
LINE
  5
74
100
AcDbEntity
100
AcDbLine
  8
STANDARD
 62
7
370
-1
  6
ByLayer
 10
-66.8380492226093565
 20
46.4357174395327661
 30
0.0
 11
-46.588049222609385
 21
46.4357174395327661
 31
0.0
  0
LINE
  5
75
100
AcDbEntity
100
AcDbLine
  8
STANDARD
 62
7
370
-1
  6
ByLayer
 10
-46.588049222609385
 20
46.4357174395327661
 30
0.0
 11
-44.3380492226093565
 21
41.9357174395327945
 31
0.0
  0
LINE
  5
76
100
AcDbEntity
100
AcDbLine
  8
STANDARD
 62
7
370
-1
  6
ByLayer
 10
-44.3380492226093565
 20
41.9357174395327945
 30
0.0
 11
-24.0880492226093885
 21
41.9357174395327945
 31
0.0
  0
LINE
  5
77
100
AcDbEntity
100
AcDbLine
  8
STANDARD
 62
7
370
-1
  6
ByLayer
 10
-24.0880492226093885
 20
41.9357174395327945
 30
0.0
 11
-21.8380492226093565
 21
46.4357174395327661
 31
0.0
  0
LINE
  5
78
100
AcDbEntity
100
AcDbLine
  8
STANDARD
 62
7
370
-1
  6
ByLayer
 10
-21.8380492226093565
 20
46.4357174395327661
 30
0.0
 11
-1.5880492226093885
 21
46.4357174395327661
 31
0.0
  0
LINE
  5
79
100
AcDbEntity
100
AcDbLine
  8
STANDARD
 62
7
370
-1
  6
ByLayer
 10
-1.5880492226093885
 20
46.4357174395327661
 30
0.0
 11
0.6619507773906435
 21
41.9357174395327945
 31
0.0
  0
LINE
  5
7A
100
AcDbEntity
100
AcDbLine
  8
STANDARD
 62
7
370
-1
  6
ByLayer
 10
0.6619507773906435
 20
41.9357174395327945
 30
0.0
 11
20.911950777390615
 21
41.9357174395327945
 31
0.0
  0
LINE
  5
7B
100
AcDbEntity
100
AcDbLine
  8
STANDARD
 62
7
370
-1
  6
ByLayer
 10
-78.0880492226093565
 20
55.4357174395327803
 30
0.0
 11
-57.8380492226093921
 21
55.4357174395327803
 31
0.0
  0
LINE
  5
7C
100
AcDbEntity
100
AcDbLine
  8
STANDARD
 62
7
370
-1
  6
ByLayer
 10
-57.8380492226093921
 20
55.4357174395327803
 30
0.0
 11
-55.5880492226093565
 21
50.9357174395328016
 31
0.0
  0
LINE
  5
7D
100
AcDbEntity
100
AcDbLine
  8
STANDARD
 62
7
370
-1
  6
ByLayer
 10
-55.5880492226093565
 20
50.9357174395328016
 30
0.0
 11
-35.338049222609385
 21
50.9357174395328016
 31
0.0
  0
LINE
  5
7E
100
AcDbEntity
100
AcDbLine
  8
STANDARD
 62
7
370
-1
  6
ByLayer
 10
-35.338049222609385
 20
50.9357174395328016
 30
0.0
 11
-33.0880492226093565
 21
55.4357174395327803
 31
0.0
  0
LINE
  5
7F
100
AcDbEntity
100
AcDbLine
  8
STANDARD
 62
7
370
-1
  6
ByLayer
 10
-33.0880492226093565
 20
55.4357174395327803
 30
0.0
 11
-12.8380492226093885
 21
55.4357174395327803
 31
0.0
  0
LINE
  5
80
100
AcDbEntity
100
AcDbLine
  8
STANDARD
 62
7
370
-1
  6
ByLayer
 10
-12.8380492226093885
 20
55.4357174395327803
 30
0.0
 11
-10.5880492226093565
 21
50.9357174395328016
 31
0.0
  0
LINE
  5
81
100
AcDbEntity
100
AcDbLine
  8
STANDARD
 62
7
370
-1
  6
ByLayer
 10
-10.5880492226093565
 20
50.9357174395328016
 30
0.0
 11
9.6619507773906079
 21
50.9357174395328016
 31
0.0
  0
LINE
  5
82
100
AcDbEntity
100
AcDbLine
  8
STANDARD
 62
7
370
-1
  6
ByLayer
 10
9.6619507773906079
 20
50.9357174395328016
 30
0.0
 11
11.9119507773906435
 21
55.4357174395327803
 31
0.0
  0
LINE
  5
83
100
AcDbEntity
100
AcDbLine
  8
STANDARD
 62
7
370
-1
  6
ByLayer
 10
11.9119507773906435
 20
55.4357174395327803
 30
0.0
 11
20.911950777390615
 21
55.4357174395327803
 31
0.0
  0
LINE
  5
84
100
AcDbEntity
100
AcDbLine
  8
STANDARD
 62
7
370
-1
  6
CONTINUOUS
 10
-56.7130492226093637
 20
65.5607174395327661
 30
0.0
 11
-56.7130492226093637
 21
37.4357174395327732
 31
0.0
  0
LINE
  5
85
100
AcDbEntity
100
AcDbLine
  8
STANDARD
 62
7
370
-1
  6
CONTINUOUS
 10
-56.7130492226093637
 20
-13.1892825604672534
 30
0.0
 11
-56.7130492226093637
 21
-50.314282560467241
 31
0.0
  0
LINE
  5
86
100
AcDbEntity
100
AcDbLine
  8
STANDARD
 62
7
370
-1
  6
CONTINUOUS
 10
-56.7130492226093637
 20
29.5607174395327732
 30
0.0
 11
-56.7130492226093637
 21
-7.5642825604672552
 31
0.0
  0
LINE
  5
87
100
AcDbEntity
100
AcDbLine
  8
STANDARD
 62
7
370
-1
  6
CONTINUOUS
 10
-45.4630492226093708
 20
65.5607174395327661
 30
0.0
 11
-45.4630492226093708
 21
37.4357174395327732
 31
0.0
  0
LINE
  5
88
100
AcDbEntity
100
AcDbLine
  8
STANDARD
 62
7
370
-1
  6
CONTINUOUS
 10
-45.4630492226093708
 20
-13.1892825604672534
 30
0.0
 11
-45.4630492226093708
 21
-50.314282560467241
 31
0.0
  0
LINE
  5
89
100
AcDbEntity
100
AcDbLine
  8
STANDARD
 62
7
370
-1
  6
CONTINUOUS
 10
-45.4630492226093708
 20
29.5607174395327732
 30
0.0
 11
-45.4630492226093708
 21
-7.5642825604672552
 31
0.0
  0
LINE
  5
8A
100
AcDbEntity
100
AcDbLine
  8
STANDARD
 62
7
370
-1
  6
CONTINUOUS
 10
-34.2130492226093708
 20
65.5607174395327661
 30
0.0
 11
-34.2130492226093708
 21
37.4357174395327732
 31
0.0
  0
LINE
  5
8B
100
AcDbEntity
100
AcDbLine
  8
STANDARD
 62
7
370
-1
  6
CONTINUOUS
 10
-34.2130492226093708
 20
-13.1892825604672534
 30
0.0
 11
-34.2130492226093708
 21
-50.314282560467241
 31
0.0
  0
LINE
  5
8C
100
AcDbEntity
100
AcDbLine
  8
STANDARD
 62
7
370
-1
  6
CONTINUOUS
 10
-34.2130492226093708
 20
29.5607174395327732
 30
0.0
 11
-34.2130492226093708
 21
-7.5642825604672552
 31
0.0
  0
LINE
  5
8D
100
AcDbEntity
100
AcDbLine
  8
STANDARD
 62
7
370
-1
  6
CONTINUOUS
 10
-22.9630492226093708
 20
65.5607174395327661
 30
0.0
 11
-22.9630492226093708
 21
37.4357174395327732
 31
0.0
  0
LINE
  5
8E
100
AcDbEntity
100
AcDbLine
  8
STANDARD
 62
7
370
-1
  6
CONTINUOUS
 10
-22.9630492226093708
 20
-13.1892825604672534
 30
0.0
 11
-22.9630492226093708
 21
-50.314282560467241
 31
0.0
  0
LINE
  5
8F
100
AcDbEntity
100
AcDbLine
  8
STANDARD
 62
7
370
-1
  6
CONTINUOUS
 10
-22.9630492226093708
 20
29.5607174395327732
 30
0.0
 11
-22.9630492226093708
 21
-7.5642825604672552
 31
0.0
  0
LINE
  5
90
100
AcDbEntity
100
AcDbLine
  8
STANDARD
 62
7
370
-1
  6
CONTINUOUS
 10
-11.7130492226093725
 20
65.5607174395327661
 30
0.0
 11
-11.7130492226093725
 21
37.4357174395327732
 31
0.0
  0
LINE
  5
91
100
AcDbEntity
100
AcDbLine
  8
STANDARD
 62
7
370
-1
  6
CONTINUOUS
 10
-11.7130492226093725
 20
-13.1892825604672534
 30
0.0
 11
-11.7130492226093725
 21
-50.314282560467241
 31
0.0
  0
LINE
  5
92
100
AcDbEntity
100
AcDbLine
  8
STANDARD
 62
7
370
-1
  6
CONTINUOUS
 10
-11.7130492226093725
 20
29.5607174395327732
 30
0.0
 11
-11.7130492226093725
 21
-7.5642825604672552
 31
0.0
  0
LINE
  5
93
100
AcDbEntity
100
AcDbLine
  8
STANDARD
 62
7
370
-1
  6
CONTINUOUS
 10
-0.4630492226093708
 20
65.5607174395327661
 30
0.0
 11
-0.4630492226093708
 21
37.4357174395327732
 31
0.0
  0
LINE
  5
94
100
AcDbEntity
100
AcDbLine
  8
STANDARD
 62
7
370
-1
  6
CONTINUOUS
 10
-0.4630492226093708
 20
-13.1892825604672534
 30
0.0
 11
-0.4630492226093708
 21
-50.314282560467241
 31
0.0
  0
LINE
  5
95
100
AcDbEntity
100
AcDbLine
  8
STANDARD
 62
7
370
-1
  6
CONTINUOUS
 10
-0.4630492226093708
 20
29.5607174395327732
 30
0.0
 11
-0.4630492226093708
 21
-7.5642825604672552
 31
0.0
  0
LINE
  5
96
100
AcDbEntity
100
AcDbLine
  8
STANDARD
 62
7
370
-1
  6
CONTINUOUS
 10
10.7869507773906292
 20
65.5607174395327661
 30
0.0
 11
10.7869507773906292
 21
37.4357174395327732
 31
0.0
  0
LINE
  5
97
100
AcDbEntity
100
AcDbLine
  8
STANDARD
 62
7
370
-1
  6
CONTINUOUS
 10
10.7869507773906292
 20
-13.1892825604672534
 30
0.0
 11
10.7869507773906292
 21
-50.314282560467241
 31
0.0
  0
LINE
  5
98
100
AcDbEntity
100
AcDbLine
  8
STANDARD
 62
7
370
-1
  6
CONTINUOUS
 10
10.7869507773906292
 20
29.5607174395327732
 30
0.0
 11
10.7869507773906292
 21
-7.5642825604672552
 31
0.0
  0
LINE
  5
99
100
AcDbEntity
100
AcDbLine
  8
STANDARD
 62
7
370
-1
  6
CONTINUOUS
 10
22.0369507773906292
 20
65.5607174395327661
 30
0.0
 11
22.0369507773906292
 21
37.4357174395327732
 31
0.0
  0
LINE
  5
9A
100
AcDbEntity
100
AcDbLine
  8
STANDARD
 62
7
370
-1
  6
CONTINUOUS
 10
22.0369507773906292
 20
-13.1892825604672534
 30
0.0
 11
22.0369507773906292
 21
-50.314282560467241
 31
0.0
  0
LINE
  5
9B
100
AcDbEntity
100
AcDbLine
  8
STANDARD
 62
7
370
-1
  6
CONTINUOUS
 10
22.0369507773906292
 20
29.5607174395327732
 30
0.0
 11
22.0369507773906292
 21
-7.5642825604672552
 31
0.0
  0
LINE
  5
9C
100
AcDbEntity
100
AcDbLine
  8
STANDARD
 62
7
370
-1
  6
CONTINUOUS
 10
44.5369507773906221
 20
-13.1892825604672534
 30
0.0
 11
44.5369507773906221
 21
-50.314282560467241
 31
0.0
  0
LINE
  5
9D
100
AcDbEntity
100
AcDbLine
  8
STANDARD
 62
7
370
-1
  6
CONTINUOUS
 10
33.2869507773906221
 20
-13.1892825604672534
 30
0.0
 11
33.2869507773906221
 21
-50.314282560467241
 31
0.0
  0
LINE
  5
9E
100
AcDbEntity
100
AcDbLine
  8
STANDARD
 62
7
370
-1
  6
CONTINUOUS
 10
33.2869507773906221
 20
29.5607174395327732
 30
0.0
 11
33.2869507773906221
 21
-7.5642825604672552
 31
0.0
  0
LINE
  5
9F
100
AcDbEntity
100
AcDbLine
  8
STANDARD
 62
7
370
-1
  6
CONTINUOUS
 10
-79.2130492226093565
 20
65.5607174395327661
 30
0.0
 11
-79.2130492226093565
 21
37.4357174395327732
 31
0.0
  0
LINE
  5
A0
100
AcDbEntity
100
AcDbLine
  8
STANDARD
 62
7
370
-1
  6
CONTINUOUS
 10
-79.2130492226093565
 20
-13.1892825604672534
 30
0.0
 11
-79.2130492226093565
 21
-50.314282560467241
 31
0.0
  0
LINE
  5
A1
100
AcDbEntity
100
AcDbLine
  8
STANDARD
 62
7
370
-1
  6
CONTINUOUS
 10
-79.2130492226093565
 20
29.5607174395327732
 30
0.0
 11
-79.2130492226093565
 21
-7.5642825604672552
 31
0.0
  0
LINE
  5
A2
100
AcDbEntity
100
AcDbLine
  8
STANDARD
 62
7
370
-1
  6
CONTINUOUS
 10
-67.9630492226093565
 20
65.5607174395327661
 30
0.0
 11
-67.9630492226093565
 21
37.4357174395327732
 31
0.0
  0
LINE
  5
A3
100
AcDbEntity
100
AcDbLine
  8
STANDARD
 62
7
370
-1
  6
CONTINUOUS
 10
-67.9630492226093565
 20
-13.1892825604672534
 30
0.0
 11
-67.9630492226093565
 21
-50.314282560467241
 31
0.0
  0
LINE
  5
A4
100
AcDbEntity
100
AcDbLine
  8
STANDARD
 62
7
370
-1
  6
CONTINUOUS
 10
-67.9630492226093565
 20
29.5607174395327732
 30
0.0
 11
-67.9630492226093565
 21
-7.5642825604672552
 31
0.0
  0
LINE
  5
A5
100
AcDbEntity
100
AcDbLine
  8
STANDARD
 62
7
370
-1
  6
ByLayer
 10
-78.0880492226093565
 20
19.4357174395327874
 30
0.0
 11
-69.088049222609385
 21
19.4357174395327874
 31
0.0
  0
LINE
  5
A6
100
AcDbEntity
100
AcDbLine
  8
STANDARD
 62
7
370
-1
  6
ByLayer
 10
-69.088049222609385
 20
19.4357174395327874
 30
0.0
 11
-66.8380492226093565
 21
14.9357174395327661
 31
0.0
  0
LINE
  5
A7
100
AcDbEntity
100
AcDbLine
  8
STANDARD
 62
7
370
-1
  6
ByLayer
 10
-66.8380492226093565
 20
14.9357174395327661
 30
0.0
 11
-46.588049222609385
 21
14.9357174395327661
 31
0.0
  0
LINE
  5
A8
100
AcDbEntity
100
AcDbLine
  8
STANDARD
 62
7
370
-1
  6
ByLayer
 10
-46.588049222609385
 20
14.9357174395327661
 30
0.0
 11
-44.3380492226093565
 21
19.4357174395327874
 31
0.0
  0
LINE
  5
A9
100
AcDbEntity
100
AcDbLine
  8
STANDARD
 62
7
370
-1
  6
ByLayer
 10
-44.3380492226093565
 20
19.4357174395327874
 30
0.0
 11
-35.338049222609385
 21
19.4357174395327874
 31
0.0
  0
LINE
  5
AA
100
AcDbEntity
100
AcDbLine
  8
STANDARD
 62
7
370
-1
  6
ByLayer
 10
-35.338049222609385
 20
19.4357174395327874
 30
0.0
 11
-33.0880492226093565
 21
14.9357174395327661
 31
0.0
  0
LINE
  5
AB
100
AcDbEntity
100
AcDbLine
  8
STANDARD
 62
7
370
-1
  6
ByLayer
 10
-33.0880492226093565
 20
14.9357174395327661
 30
0.0
 11
-12.8380492226093885
 21
14.9357174395327661
 31
0.0
  0
LINE
  5
AC
100
AcDbEntity
100
AcDbLine
  8
STANDARD
 62
7
370
-1
  6
ByLayer
 10
-12.8380492226093885
 20
14.9357174395327661
 30
0.0
 11
-10.5880492226093565
 21
19.4357174395327874
 31
0.0
  0
LINE
  5
AD
100
AcDbEntity
100
AcDbLine
  8
STANDARD
 62
7
370
-1
  6
ByLayer
 10
-10.5880492226093565
 20
19.4357174395327874
 30
0.0
 11
-1.5880492226093885
 21
19.4357174395327874
 31
0.0
  0
LINE
  5
AE
100
AcDbEntity
100
AcDbLine
  8
STANDARD
 62
7
370
-1
  6
ByLayer
 10
-1.5880492226093885
 20
19.4357174395327874
 30
0.0
 11
0.6619507773906435
 21
14.9357174395327661
 31
0.0
  0
LINE
  5
AF
100
AcDbEntity
100
AcDbLine
  8
STANDARD
 62
7
370
-1
  6
ByLayer
 10
0.6619507773906435
 20
14.9357174395327661
 30
0.0
 11
20.911950777390615
 21
14.9357174395327661
 31
0.0
  0
LINE
  5
B0
100
AcDbEntity
100
AcDbLine
  8
STANDARD
 62
7
370
-1
  6
ByLayer
 10
20.911950777390615
 20
14.9357174395327661
 30
0.0
 11
23.1619507773906363
 21
19.4357174395327874
 31
0.0
  0
LINE
  5
B1
100
AcDbEntity
100
AcDbLine
  8
STANDARD
 62
7
370
-1
  6
ByLayer
 10
23.1619507773906363
 20
19.4357174395327874
 30
0.0
 11
32.1619507773906221
 21
19.4357174395327874
 31
0.0
  0
LINE
  5
B2
100
AcDbEntity
100
AcDbLine
  8
STANDARD
 62
7
370
-1
  6
ByLayer
 10
-78.0880492226093565
 20
5.9357174395327785
 30
0.0
 11
-69.088049222609385
 21
5.9357174395327785
 31
0.0
  0
LINE
  5
B3
100
AcDbEntity
100
AcDbLine
  8
STANDARD
 62
7
370
-1
  6
ByLayer
 10
-69.088049222609385
 20
5.9357174395327785
 30
0.0
 11
-66.8380492226093565
 21
10.4357174395327821
 31
0.0
  0
LINE
  5
B4
100
AcDbEntity
100
AcDbLine
  8
STANDARD
 62
7
370
-1
  6
ByLayer
 10
-66.8380492226093565
 20
10.4357174395327821
 30
0.0
 11
-57.8380492226093921
 21
10.4357174395327821
 31
0.0
  0
LINE
  5
B5
100
AcDbEntity
100
AcDbLine
  8
STANDARD
 62
7
370
-1
  6
ByLayer
 10
-57.8380492226093921
 20
10.4357174395327821
 30
0.0
 11
-55.5880492226093565
 21
5.9357174395327785
 31
0.0
  0
LINE
  5
B6
100
AcDbEntity
100
AcDbLine
  8
STANDARD
 62
7
370
-1
  6
ByLayer
 10
-55.5880492226093565
 20
5.9357174395327785
 30
0.0
 11
-35.338049222609385
 21
5.9357174395327785
 31
0.0
  0
LINE
  5
B7
100
AcDbEntity
100
AcDbLine
  8
STANDARD
 62
7
370
-1
  6
ByLayer
 10
-35.338049222609385
 20
5.9357174395327785
 30
0.0
 11
-33.0880492226093565
 21
10.4357174395327821
 31
0.0
  0
LINE
  5
B8
100
AcDbEntity
100
AcDbLine
  8
STANDARD
 62
7
370
-1
  6
ByLayer
 10
-33.0880492226093565
 20
10.4357174395327821
 30
0.0
 11
-24.0880492226093885
 21
10.4357174395327821
 31
0.0
  0
LINE
  5
B9
100
AcDbEntity
100
AcDbLine
  8
STANDARD
 62
7
370
-1
  6
ByLayer
 10
-24.0880492226093885
 20
10.4357174395327821
 30
0.0
 11
-21.8380492226093565
 21
5.9357174395327785
 31
0.0
  0
LINE
  5
BA
100
AcDbEntity
100
AcDbLine
  8
STANDARD
 62
7
370
-1
  6
ByLayer
 10
-21.8380492226093565
 20
5.9357174395327785
 30
0.0
 11
-1.5880492226093885
 21
5.9357174395327785
 31
0.0
  0
LINE
  5
BB
100
AcDbEntity
100
AcDbLine
  8
STANDARD
 62
7
370
-1
  6
ByLayer
 10
-1.5880492226093885
 20
5.9357174395327785
 30
0.0
 11
0.6619507773906435
 21
10.4357174395327821
 31
0.0
  0
LINE
  5
BC
100
AcDbEntity
100
AcDbLine
  8
STANDARD
 62
7
370
-1
  6
ByLayer
 10
0.6619507773906435
 20
10.4357174395327821
 30
0.0
 11
9.6619507773906079
 21
10.4357174395327821
 31
0.0
  0
LINE
  5
BD
100
AcDbEntity
100
AcDbLine
  8
STANDARD
 62
7
370
-1
  6
ByLayer
 10
9.6619507773906079
 20
10.4357174395327821
 30
0.0
 11
11.9119507773906435
 21
5.9357174395327785
 31
0.0
  0
LINE
  5
BE
100
AcDbEntity
100
AcDbLine
  8
STANDARD
 62
7
370
-1
  6
ByLayer
 10
11.9119507773906435
 20
5.9357174395327785
 30
0.0
 11
32.1619507773906221
 21
5.9357174395327785
 31
0.0
  0
LINE
  5
BF
100
AcDbEntity
100
AcDbLine
  8
STANDARD
 62
7
370
-1
  6
ByLayer
 10
-78.0880492226093565
 20
-3.0642825604672304
 30
0.0
 11
-57.8380492226093921
 21
-3.0642825604672304
 31
0.0
  0
LINE
  5
C0
100
AcDbEntity
100
AcDbLine
  8
STANDARD
 62
7
370
-1
  6
ByLayer
 10
-57.8380492226093921
 20
-3.0642825604672304
 30
0.0
 11
-55.5880492226093565
 21
1.4357174395327537
 31
0.0
  0
LINE
  5
C1
100
AcDbEntity
100
AcDbLine
  8
STANDARD
 62
7
370
-1
  6
ByLayer
 10
-55.5880492226093565
 20
1.4357174395327537
 30
0.0
 11
-46.588049222609385
 21
1.4357174395327537
 31
0.0
  0
LINE
  5
C2
100
AcDbEntity
100
AcDbLine
  8
STANDARD
 62
7
370
-1
  6
ByLayer
 10
-46.588049222609385
 20
1.4357174395327537
 30
0.0
 11
-44.3380492226093565
 21
-3.0642825604672304
 31
0.0
  0
LINE
  5
C3
100
AcDbEntity
100
AcDbLine
  8
STANDARD
 62
7
370
-1
  6
ByLayer
 10
-44.3380492226093565
 20
-3.0642825604672304
 30
0.0
 11
-24.0880492226093885
 21
-3.0642825604672304
 31
0.0
  0
LINE
  5
C4
100
AcDbEntity
100
AcDbLine
  8
STANDARD
 62
7
370
-1
  6
ByLayer
 10
-24.0880492226093885
 20
-3.0642825604672304
 30
0.0
 11
-21.8380492226093565
 21
1.4357174395327537
 31
0.0
  0
LINE
  5
C5
100
AcDbEntity
100
AcDbLine
  8
STANDARD
 62
7
370
-1
  6
ByLayer
 10
-21.8380492226093565
 20
1.4357174395327537
 30
0.0
 11
-12.8380492226093885
 21
1.4357174395327537
 31
0.0
  0
LINE
  5
C6
100
AcDbEntity
100
AcDbLine
  8
STANDARD
 62
7
370
-1
  6
ByLayer
 10
-12.8380492226093885
 20
1.4357174395327537
 30
0.0
 11
-10.5880492226093565
 21
-3.0642825604672304
 31
0.0
  0
LINE
  5
C7
100
AcDbEntity
100
AcDbLine
  8
STANDARD
 62
7
370
-1
  6
ByLayer
 10
-10.5880492226093565
 20
-3.0642825604672304
 30
0.0
 11
9.6619507773906079
 21
-3.0642825604672304
 31
0.0
  0
LINE
  5
C8
100
AcDbEntity
100
AcDbLine
  8
STANDARD
 62
7
370
-1
  6
ByLayer
 10
9.6619507773906079
 20
-3.0642825604672304
 30
0.0
 11
11.9119507773906435
 21
1.4357174395327537
 31
0.0
  0
LINE
  5
C9
100
AcDbEntity
100
AcDbLine
  8
STANDARD
 62
7
370
-1
  6
ByLayer
 10
11.9119507773906435
 20
1.4357174395327537
 30
0.0
 11
20.911950777390615
 21
1.4357174395327537
 31
0.0
  0
LINE
  5
CA
100
AcDbEntity
100
AcDbLine
  8
STANDARD
 62
7
370
-1
  6
ByLayer
 10
20.911950777390615
 20
1.4357174395327537
 30
0.0
 11
23.1619507773906363
 21
-3.0642825604672304
 31
0.0
  0
LINE
  5
CB
100
AcDbEntity
100
AcDbLine
  8
STANDARD
 62
7
370
-1
  6
ByLayer
 10
23.1619507773906363
 20
-3.0642825604672304
 30
0.0
 11
32.1619507773906221
 21
-3.0642825604672304
 31
0.0
  0
LINE
  5
CC
100
AcDbEntity
100
AcDbLine
  8
STANDARD
 62
7
370
-1
  6
ByLayer
 10
-78.0880492226093565
 20
-23.314282560467241
 30
0.0
 11
-57.8380492226093921
 21
-23.314282560467241
 31
0.0
  0
LINE
  5
CD
100
AcDbEntity
100
AcDbLine
  8
STANDARD
 62
7
370
-1
  6
ByLayer
 10
-57.8380492226093921
 20
-23.314282560467241
 30
0.0
 11
-55.5880492226093565
 21
-27.814282560467241
 31
0.0
  0
LINE
  5
CE
100
AcDbEntity
100
AcDbLine
  8
STANDARD
 62
7
370
-1
  6
ByLayer
 10
-78.0880492226093565
 20
-36.8142825604672055
 30
0.0
 11
-69.088049222609385
 21
-36.8142825604672055
 31
0.0
  0
LINE
  5
CF
100
AcDbEntity
100
AcDbLine
  8
STANDARD
 62
7
370
-1
  6
ByLayer
 10
-69.088049222609385
 20
-36.8142825604672055
 30
0.0
 11
-66.8380492226093565
 21
-32.3142825604672339
 31
0.0
  0
LINE
  5
D0
100
AcDbEntity
100
AcDbLine
  8
STANDARD
 62
7
370
-1
  6
ByLayer
 10
-66.8380492226093565
 20
-32.3142825604672339
 30
0.0
 11
-35.338049222609385
 21
-32.3142825604672339
 31
0.0
  0
LINE
  5
D1
100
AcDbEntity
100
AcDbLine
  8
STANDARD
 62
7
370
-1
  6
ByLayer
 10
-35.338049222609385
 20
-32.3142825604672339
 30
0.0
 11
-33.0880492226093565
 21
-36.8142825604672055
 31
0.0
  0
LINE
  5
D2
100
AcDbEntity
100
AcDbLine
  8
STANDARD
 62
7
370
-1
  6
ByLayer
 10
-78.0880492226093565
 20
-45.814282560467241
 30
0.0
 11
-46.588049222609385
 21
-45.814282560467241
 31
0.0
  0
LINE
  5
D3
100
AcDbEntity
100
AcDbLine
  8
STANDARD
 62
7
370
-1
  6
ByLayer
 10
-46.588049222609385
 20
-45.814282560467241
 30
0.0
 11
-44.3380492226093565
 21
-41.3142825604672339
 31
0.0
  0
LINE
  5
D4
100
AcDbEntity
100
AcDbLine
  8
STANDARD
 62
7
370
-1
  6
ByLayer
 10
-44.3380492226093565
 20
-41.3142825604672339
 30
0.0
 11
-12.8380492226093885
 21
-41.3142825604672339
 31
0.0
  0
LINE
  5
D5
100
AcDbEntity
100
AcDbLine
  8
STANDARD
 62
7
370
-1
  6
ByLayer
 10
-12.8380492226093885
 20
-41.3142825604672339
 30
0.0
 11
-10.5880492226093565
 21
-45.814282560467241
 31
0.0
  0
LINE
  5
D6
100
AcDbEntity
100
AcDbLine
  8
STANDARD
 62
7
370
-1
  6
ByLayer
 10
-10.5880492226093565
 20
-45.814282560467241
 30
0.0
 11
20.911950777390615
 21
-45.814282560467241
 31
0.0
  0
LINE
  5
D7
100
AcDbEntity
100
AcDbLine
  8
STANDARD
 62
7
370
-1
  6
ByLayer
 10
20.911950777390615
 20
-45.814282560467241
 30
0.0
 11
23.1619507773906363
 21
-41.3142825604672339
 31
0.0
  0
LINE
  5
D8
100
AcDbEntity
100
AcDbLine
  8
STANDARD
 62
7
370
-1
  6
ByLayer
 10
23.1619507773906363
 20
-41.3142825604672339
 30
0.0
 11
43.4119507773906221
 21
-41.3142825604672339
 31
0.0
  0
LINE
  5
D9
100
AcDbEntity
100
AcDbLine
  8
STANDARD
 62
7
370
-1
  6
ByLayer
 10
-33.0880492226093565
 20
-36.8142825604672055
 30
0.0
 11
-1.5880492226093885
 21
-36.8142825604672055
 31
0.0
  0
LINE
  5
DA
100
AcDbEntity
100
AcDbLine
  8
STANDARD
 62
7
370
-1
  6
ByLayer
 10
-1.5880492226093885
 20
-36.8142825604672055
 30
0.0
 11
0.6619507773906435
 21
-32.3142825604672339
 31
0.0
  0
LINE
  5
DB
100
AcDbEntity
100
AcDbLine
  8
STANDARD
 62
7
370
-1
  6
ByLayer
 10
0.6619507773906435
 20
-32.3142825604672339
 30
0.0
 11
32.1619507773906221
 21
-32.3142825604672339
 31
0.0
  0
LINE
  5
DC
100
AcDbEntity
100
AcDbLine
  8
STANDARD
 62
7
370
-1
  6
ByLayer
 10
32.1619507773906221
 20
-32.3142825604672339
 30
0.0
 11
34.4119507773906435
 21
-36.8142825604672055
 31
0.0
  0
LINE
  5
DD
100
AcDbEntity
100
AcDbLine
  8
STANDARD
 62
7
370
-1
  6
ByLayer
 10
34.4119507773906435
 20
-36.8142825604672055
 30
0.0
 11
43.4119507773906221
 21
-36.8142825604672055
 31
0.0
  0
LINE
  5
DE
100
AcDbEntity
100
AcDbLine
  8
STANDARD
 62
7
370
-1
  6
ByLayer
 10
-55.5880492226093565
 20
-27.814282560467241
 30
0.0
 11
-24.0880492226093885
 21
-27.814282560467241
 31
0.0
  0
LINE
  5
DF
100
AcDbEntity
100
AcDbLine
  8
STANDARD
 62
7
370
-1
  6
ByLayer
 10
-24.0880492226093885
 20
-27.814282560467241
 30
0.0
 11
-21.8380492226093565
 21
-23.314282560467241
 31
0.0
  0
LINE
  5
E0
100
AcDbEntity
100
AcDbLine
  8
STANDARD
 62
7
370
-1
  6
ByLayer
 10
-21.8380492226093565
 20
-23.314282560467241
 30
0.0
 11
9.6619507773906079
 21
-23.314282560467241
 31
0.0
  0
LINE
  5
E1
100
AcDbEntity
100
AcDbLine
  8
STANDARD
 62
7
370
-1
  6
ByLayer
 10
9.6619507773906079
 20
-23.314282560467241
 30
0.0
 11
11.9119507773906435
 21
-27.814282560467241
 31
0.0
  0
LINE
  5
E2
100
AcDbEntity
100
AcDbLine
  8
STANDARD
 62
7
370
-1
  6
ByLayer
 10
11.9119507773906435
 20
-27.814282560467241
 30
0.0
 11
43.4119507773906221
 21
-27.814282560467241
 31
0.0
  0
ENDSEC
  0
SECTION
  2
OBJECTS
  0
DICTIONARY
  5
C
100
AcDbDictionary
280
0
281
1
  3
ACAD_GROUP
350
D
  3
ACAD_LAYOUT
350
1A
  3
ACAD_MLINESTYLE
350
17
  3
ACAD_PLOTSETTINGS
350
19
  3
ACAD_PLOTSTYLENAME
350
E
  3
AcDbVariableDictionary
350
E3
  0
DICTIONARY
  5
D
100
AcDbDictionary
280
0
281
1
  0
ACDBDICTIONARYWDFLT
  5
E
100
AcDbDictionary
281
1
  3
Normal
350
F
100
AcDbDictionaryWithDefault
340
F
  0
ACDBPLACEHOLDER
  5
F
  0
DICTIONARY
  5
17
100
AcDbDictionary
280
0
281
1
  3
Standard
350
18
  0
MLINESTYLE
  5
18
100
AcDbMlineStyle
  2
STANDARD
 70
0
  3

 62
256
 51
90.0
 52
90.0
 71
2
 49
0.5
 62
256
  6
BYLAYER
 49
-0.5
 62
256
  6
BYLAYER
  0
DICTIONARY
  5
19
100
AcDbDictionary
280
0
281
1
  0
DICTIONARY
  5
1A
100
AcDbDictionary
281
1
  3
Layout1
350
1E
  3
Layout2
350
26
  3
Model
350
22
  0
LAYOUT
  5
1E
100
AcDbPlotSettings
  1

  2
C:\Program Files\AutoCAD 2002\plotters\DWF ePlot (optimized for plotting).pc3
  4

  6

 40
0.0
 41
0.0
 42
0.0
 43
0.0
 44
0.0
 45
0.0
 46
0.0
 47
0.0
 48
0.0
 49
0.0
140
0.0
141
0.0
142
1.0
143
1.0
 70
688
 72
0
 73
0
 74
5
  7

 75
16
147
1.0
148
0.0
149
0.0
100
AcDbLayout
  1
Layout1
 70
1
 71
1
 10
0.0
 20
0.0
 11
420.0
 21
297.0
 12
0.0
 22
0.0
 32
0.0
 14
100000000000000000000.0
 24
100000000000000000000.0
 34
100000000000000000000.0
 15
-100000000000000000000.0
 25
-100000000000000000000.0
 35
-100000000000000000000.0
146
0.0
 13
0.0
 23
0.0
 33
0.0
 16
1.0
 26
0.0
 36
0.0
 17
0.0
 27
1.0
 37
0.0
 76
0
330
1B
  0
LAYOUT
  5
22
100
AcDbPlotSettings
  1

  2
C:\Program Files\AutoCAD 2002\plotters\DWF ePlot (optimized for plotting).pc3
  4

  6

 40
0.0
 41
0.0
 42
0.0
 43
0.0
 44
0.0
 45
0.0
 46
0.0
 47
0.0
 48
0.0
 49
0.0
140
0.0
141
0.0
142
1.0
143
1.0
 70
1712
 72
0
 73
0
 74
0
  7

 75
0
147
1.0
148
0.0
149
0.0
100
AcDbLayout
  1
Model
 70
1
 71
0
 10
0.0
 20
0.0
 11
12.0
 21
9.0
 12
0.0
 22
0.0
 32
0.0
 14
0.0
 24
0.0
 34
0.0
 15
0.0
 25
0.0
 35
0.0
146
0.0
 13
0.0
 23
0.0
 33
0.0
 16
1.0
 26
0.0
 36
0.0
 17
0.0
 27
1.0
 37
0.0
 76
0
330
1F
  0
LAYOUT
  5
26
100
AcDbPlotSettings
  1

  2
C:\Program Files\AutoCAD 2002\plotters\DWF ePlot (optimized for plotting).pc3
  4

  6

 40
0.0
 41
0.0
 42
0.0
 43
0.0
 44
0.0
 45
0.0
 46
0.0
 47
0.0
 48
0.0
 49
0.0
140
0.0
141
0.0
142
1.0
143
1.0
 70
688
 72
0
 73
0
 74
5
  7

 75
16
147
1.0
148
0.0
149
0.0
100
AcDbLayout
  1
Layout2
 70
1
 71
2
 10
0.0
 20
0.0
 11
12.0
 21
9.0
 12
0.0
 22
0.0
 32
0.0
 14
0.0
 24
0.0
 34
0.0
 15
0.0
 25
0.0
 35
0.0
146
0.0
 13
0.0
 23
0.0
 33
0.0
 16
1.0
 26
0.0
 36
0.0
 17
0.0
 27
1.0
 37
0.0
 76
0
330
23
  0
DICTIONARY
  5
E3
100
AcDbDictionary
281
1
  3
DIMASSOC
350
E5
  3
HIDETEXT
350
E4
  0
DICTIONARYVAR
  5
E4
100
DictionaryVariables
280
0
  1
2
  0
DICTIONARYVAR
  5
E5
100
DictionaryVariables
280
0
  1
1
  0
ENDSEC
  0
EOF
