999
dxflib 2.0.4.8
  0
SECTION
  2
HEADER
  9
$ACADVER
  1
AC1015
  9
$HANDSEED
  5
FFFF
  9
$USERR4
 40
0.0
  9
$AXISUNIT
 10
0.0
 20
0.0
 30
0.0
  9
$DIMTAD
 70
0
  9
$VISRETAIN
 70
0
  9
$TILEMODE
 70
1
  9
$SHADEDIF
 70
70
  9
$USERR5
 40
0.0
  9
$UCSYDIR
 10
0.0
 20
1.0
 30
0.0
  9
$ATTREQ
 70
1
  9
$CHAMFERA
 40
0.0
  9
$MENU
  1
acad
  9
$CLAYER
  8
0
  9
$DIMASZ
 40
0.18
  9
$GRIDUNIT
 10
0.0
 20
0.0
  9
$DIMADEC
 70
0
  9
$UCSXDIR
 10
1.0
 20
0.0
 30
0.0
  9
$CHAMFERB
 40
0.0
  9
$TRACEWID
 40
0.05
  9
$REGENMODE
 70
1
  9
$ORTHOMODE
 70
0
  9
$EXTMIN
 10
-44.0623999999999967
 20
1.6492500000000001
 30
0.0
  9
$DIMGAP
 40
0.09
  9
$PUCSYDIR
 10
0.0
 20
1.0
 30
0.0
  9
$ANGBASE
 50
0.0
  9
$USRTIMER
 70
1
  9
$SKETCHINC
 40
0.1
  9
$DIMTFAC
 40
1.0
  9
$DIMSAH
 70
0
  9
$DIMALT
 70
0
  9
$DIMSHO
 70
1
  9
$PUCSXDIR
 10
1.0
 20
0.0
 30
0.0
  9
$SURFTYPE
 70
6
  9
$SPLFRAME
 70
0
  9
$AXISMODE
 70
0
  9
$DIMTSZ
 40
0.0
  9
$LIMMIN
 10
0.0
 20
0.0
  9
$SPLINESEGS
 70
8
  9
$AUPREC
 70
0
  9
$LUNITS
 70
2
  9
$DWGCODEPAGE
  3
dos850
  9
$SURFTAB1
 70
6
  9
$BLIPMODE
 70
1
  9
$UNITMODE
 70
0
  9
$USERI1
 70
0
  9
$SURFTAB2
 70
6
  9
$SKPOLY
 70
0
  9
$ELEVATION
 40
0.0
  9
$DIMCEN
 40
0.09
  9
$DIMRND
 40
0.0
  9
$INSBASE
 10
0.0
 20
0.0
 30
0.0
  9
$DIMEXO
 40
0.0625
  9
$INSUNITS
 70
4
  9
$USERI2
 70
0
  9
$UCSORG
 10
0.0
 20
0.0
 30
0.0
  9
$PELEVATION
 40
0.0
  9
$TEXTSIZE
 40
0.2
  9
$DRAGMODE
 70
2
  9
$FILLMODE
 70
1
  9
$EXTMAX
 10
-37.5176000000000016
 20
11.9007500000000004
 30
0.0
  9
$USERI3
 70
0
  9
$SURFU
 70
6
  9
$ANGDIR
 70
0
  9
$TDUSRTIMER
 40
0.0
  9
$DIMZIN
 70
0
  9
$DIMDLE
 40
0.0
  9
$DIMSCALE
 40
1.0
  9
$DIMLUNIT
 70
2
  9
$WORLDVIEW
 70
1
  9
$USERI4
 70
0
  9
$SURFV
 70
6
  9
$OSMODE
 70
0
  9
$QTEXTMODE
 70
0
  9
$LIMMAX
 10
0.0
 20
0.0
  9
$DIMTXT
 40
0.18
  9
$GRIDMODE
 70
1
  9
$USERI5
 70
0
  9
$HANDLING
 70
1
  9
$PDMODE
 70
0
  9
$LIMCHECK
 70
0
  9
$THICKNESS
 40
0.0
  9
$DIMSE1
 70
0
  9
$DIMLIM
 70
0
  9
$ATTMODE
 70
1
  9
$LUPREC
 70
4
  9
$PEXTMAX
 10
-100000000000000000000.0
 20
-100000000000000000000.0
 30
-100000000000000000000.0
  9
$PEXTMIN
 10
100000000000000000000.0
 20
100000000000000000000.0
 30
100000000000000000000.0
  9
$PUCSORG
 10
0.0
 20
0.0
 30
0.0
  9
$SPLINETYPE
 70
6
  9
$TDINDWG
 40
0.0
  9
$DIMSOXD
 70
0
  9
$DIMLFAC
 40
1.0
  9
$DIMSE2
 70
0
  9
$DIMTOH
 70
1
  9
$CELTYPE
  6
CONTINUOUS
  9
$PLIMCHECK
 70
0
  9
$PLINEWID
 40
0.0
  9
$DIMSTYLE
  2
STANDARD
  9
$DIMTVP
 40
0.0
  9
$DIMASO
 70
1
  9
$DIMTM
 40
0.0
  9
$DIMDLI
 40
0.38
  9
$CECOLOR
 62
256
  9
$PLIMMAX
 10
210.0
 20
297.0
  9
$PLIMMIN
 10
0.0
 20
0.0
  9
$TREEDEPTH
 70
3020
  9
$MAXACTVP
 70
16
  9
$TDUPDATE
 40
0.0
  9
$FILLETRAD
 40
0.0
  9
$DIMCLRT
 70
0
  9
$DIMALTD
 70
2
  9
$DIMTIH
 70
1
  9
$LTSCALE
 40
1.0
  9
$PINSBASE
 10
150.9546788178092243
 20
141.5108660896483741
 30
0.0
  9
$DIMEXE
 40
0.18
  9
$USERR1
 40
0.0
  9
$ATTDIA
 70
0
  9
$PDSIZE
 40
0.0
  9
$DIMCLRD
 70
0
  9
$DIMAUNIT
 70
0
  9
$PSLTSCALE
 70
0
  9
$PLINEGEN
 70
1
  9
$SHADEDGE
 70
3
  9
$USERR2
 40
0.0
  9
$COORDS
 70
0
  9
$TDCREATE
 40
0.0
  9
$DIMCLRE
 70
0
  9
$DIMTOFL
 70
0
  9
$DIMALTF
 40
25.3999999999999986
  9
$DIMTOL
 70
0
  9
$DIMTP
 40
0.0
  9
$TEXTSTYLE
  7
STANDARD
  9
$AUNITS
 70
0
  9
$USERR3
 40
0.0
  9
$DIMTIX
 70
0
  9
$MIRRTEXT
 70
1
  0
ENDSEC
  0
SECTION
  2
TABLES
  0
TABLE
  2
VPORT
  5
8
100
AcDbSymbolTable
 70
1
  0
VPORT
  5
30
100
AcDbSymbolTableRecord
100
AcDbViewportTableRecord
  2
*Active
 70
0
 10
0.0
 20
0.0
 11
1.0
 21
1.0
 12
286.3055555555554861
 22
148.5
 13
0.0
 23
0.0
 14
10.0
 24
10.0
 15
10.0
 25
10.0
 16
0.0
 26
0.0
 36
1.0
 17
0.0
 27
0.0
 37
0.0
 40
297.0
 41
1.92798353909465
 42
50.0
 43
0.0
 44
0.0
 50
0.0
 51
0.0
 71
0
 72
100
 73
1
 74
3
 75
1
 76
1
 77
0
 78
0
281
0
 65
1
110
0.0
120
0.0
130
0.0
111
1.0
121
0.0
131
0.0
112
0.0
122
1.0
132
0.0
 79
0
146
0.0
  0
ENDTAB
  0
TABLE
  2
LTYPE
  5
5
100
AcDbSymbolTable
 70
21
  0
LTYPE
  5
14
100
AcDbSymbolTableRecord
100
AcDbLinetypeTableRecord
  2
ByBlock
 70
0
  3

 72
65
 73
0
 40
0.0
  0
LTYPE
  5
15
100
AcDbSymbolTableRecord
100
AcDbLinetypeTableRecord
  2
ByLayer
 70
0
  3

 72
65
 73
0
 40
0.0
  0
LTYPE
  5
16
100
AcDbSymbolTableRecord
100
AcDbLinetypeTableRecord
  2
CONTINUOUS
 70
0
  3
Solid line
 72
65
 73
0
 40
0.0
  0
LTYPE
  5
31
100
AcDbSymbolTableRecord
100
AcDbLinetypeTableRecord
  2
DOT
 70
0
  3
Dot . . . . . . . . . . . . . . . . . . . . . .
 72
65
 73
2
 40
6.3499999999999996
 49
0.0
 74
0
 49
-6.3499999999999996
 74
0
  0
LTYPE
  5
32
100
AcDbSymbolTableRecord
100
AcDbLinetypeTableRecord
  2
DOT2
 70
0
  3
Dot (.5x) .....................................
 72
65
 73
2
 40
3.1749999999999998
 49
0.0
 74
0
 49
-3.1749999999999998
 74
0
  0
LTYPE
  5
33
100
AcDbSymbolTableRecord
100
AcDbLinetypeTableRecord
  2
DOTX2
 70
0
  3
Dot (2x) .  .  .  .  .  .  .  .  .  .  .  .  .
 72
65
 73
2
 40
12.6999999999999993
 49
0.0
 74
0
 49
-12.6999999999999993
 74
0
  0
LTYPE
  5
34
100
AcDbSymbolTableRecord
100
AcDbLinetypeTableRecord
  2
DASHED
 70
0
  3
Dashed __ __ __ __ __ __ __ __ __ __ __ __ __ _
 72
65
 73
2
 40
19.0500000000000007
 49
12.6999999999999993
 74
0
 49
-6.3499999999999996
 74
0
  0
LTYPE
  5
35
100
AcDbSymbolTableRecord
100
AcDbLinetypeTableRecord
  2
DASHED2
 70
0
  3
Dashed (.5x) _ _ _ _ _ _ _ _ _ _ _ _ _ _ _ _ _
 72
65
 73
2
 40
9.5250000000000004
 49
6.3499999999999996
 74
0
 49
-3.1749999999999998
 74
0
  0
LTYPE
  5
36
100
AcDbSymbolTableRecord
100
AcDbLinetypeTableRecord
  2
DASHEDX2
 70
0
  3
Dashed (2x) ____  ____  ____  ____  ____  ___
 72
65
 73
2
 40
38.1000000000000014
 49
25.3999999999999986
 74
0
 49
-12.6999999999999993
 74
0
  0
LTYPE
  5
37
100
AcDbSymbolTableRecord
100
AcDbLinetypeTableRecord
  2
DASHDOT
 70
0
  3
Dash dot __ . __ . __ . __ . __ . __ . __ . __
 72
65
 73
4
 40
25.3999999999999986
 49
12.6999999999999993
 74
0
 49
-6.3499999999999996
 74
0
 49
0.0
 74
0
 49
-6.3499999999999996
 74
0
  0
LTYPE
  5
38
100
AcDbSymbolTableRecord
100
AcDbLinetypeTableRecord
  2
DASHDOT2
 70
0
  3
Dash dot (.5x) _._._._._._._._._._._._._._._.
 72
65
 73
4
 40
12.6999999999999993
 49
6.3499999999999996
 74
0
 49
-3.1749999999999998
 74
0
 49
0.0
 74
0
 49
-3.1749999999999998
 74
0
  0
LTYPE
  5
39
100
AcDbSymbolTableRecord
100
AcDbLinetypeTableRecord
  2
DASHDOTX2
 70
0
  3
Dash dot (2x) ____  .  ____  .  ____  .  ___
 72
65
 73
4
 40
50.7999999999999972
 49
25.3999999999999986
 74
0
 49
-12.6999999999999993
 74
0
 49
0.0
 74
0
 49
-12.6999999999999993
 74
0
  0
LTYPE
  5
3A
100
AcDbSymbolTableRecord
100
AcDbLinetypeTableRecord
  2
DIVIDE
 70
0
  3
Divide ____ . . ____ . . ____ . . ____ . . ____
 72
65
 73
6
 40
31.75
 49
12.6999999999999993
 74
0
 49
-6.3499999999999996
 74
0
 49
0.0
 74
0
 49
-6.3499999999999996
 74
0
 49
0.0
 74
0
 49
-6.3499999999999996
 74
0
  0
LTYPE
  5
3B
100
AcDbSymbolTableRecord
100
AcDbLinetypeTableRecord
  2
DIVIDE2
 70
0
  3
Divide (.5x) __..__..__..__..__..__..__..__.._
 72
65
 73
6
 40
15.875
 49
6.3499999999999996
 74
0
 49
-3.1749999999999998
 74
0
 49
0.0
 74
0
 49
-3.1749999999999998
 74
0
 49
0.0
 74
0
 49
-3.1749999999999998
 74
0
  0
LTYPE
  5
3C
100
AcDbSymbolTableRecord
100
AcDbLinetypeTableRecord
  2
DIVIDEX2
 70
0
  3
Divide (2x) ________  .  .  ________  .  .  _
 72
65
 73
6
 40
63.5
 49
25.3999999999999986
 74
0
 49
-12.6999999999999993
 74
0
 49
0.0
 74
0
 49
-12.6999999999999993
 74
0
 49
0.0
 74
0
 49
-12.6999999999999993
 74
0
  0
LTYPE
  5
3D
100
AcDbSymbolTableRecord
100
AcDbLinetypeTableRecord
  2
CENTER
 70
0
  3
Center ____ _ ____ _ ____ _ ____ _ ____ _ ____
 72
65
 73
4
 40
50.7999999999999972
 49
31.75
 74
0
 49
-6.3499999999999996
 74
0
 49
6.3499999999999996
 74
0
 49
-6.3499999999999996
 74
0
  0
LTYPE
  5
3E
100
AcDbSymbolTableRecord
100
AcDbLinetypeTableRecord
  2
CENTER2
 70
0
  3
Center (.5x) ___ _ ___ _ ___ _ ___ _ ___ _ ___
 72
65
 73
4
 40
28.5749999999999993
 49
19.0500000000000007
 74
0
 49
-3.1749999999999998
 74
0
 49
3.1749999999999998
 74
0
 49
-3.1749999999999998
 74
0
  0
LTYPE
  5
3F
100
AcDbSymbolTableRecord
100
AcDbLinetypeTableRecord
  2
CENTERX2
 70
0
  3
Center (2x) ________  __  ________  __  _____
 72
65
 73
4
 40
101.5999999999999943
 49
63.5
 74
0
 49
-12.6999999999999993
 74
0
 49
12.6999999999999993
 74
0
 49
-12.6999999999999993
 74
0
  0
LTYPE
  5
40
100
AcDbSymbolTableRecord
100
AcDbLinetypeTableRecord
  2
BORDER
 70
0
  3
Border __ __ . __ __ . __ __ . __ __ . __ __ .
 72
65
 73
6
 40
44.4500000000000028
 49
12.6999999999999993
 74
0
 49
-6.3499999999999996
 74
0
 49
12.6999999999999993
 74
0
 49
-6.3499999999999996
 74
0
 49
0.0
 74
0
 49
-6.3499999999999996
 74
0
  0
LTYPE
  5
41
100
AcDbSymbolTableRecord
100
AcDbLinetypeTableRecord
  2
BORDER2
 70
0
  3
Border (.5x) __.__.__.__.__.__.__.__.__.__.__.
 72
65
 73
6
 40
22.2250000000000014
 49
6.3499999999999996
 74
0
 49
-3.1749999999999998
 74
0
 49
6.3499999999999996
 74
0
 49
-3.1749999999999998
 74
0
 49
0.0
 74
0
 49
-3.1749999999999998
 74
0
  0
LTYPE
  5
42
100
AcDbSymbolTableRecord
100
AcDbLinetypeTableRecord
  2
BORDERX2
 70
0
  3
Border (2x) ____  ____  .  ____  ____  .  ___
 72
65
 73
6
 40
88.9000000000000057
 49
25.3999999999999986
 74
0
 49
-12.6999999999999993
 74
0
 49
25.3999999999999986
 74
0
 49
-12.6999999999999993
 74
0
 49
0.0
 74
0
 49
-12.6999999999999993
 74
0
  0
ENDTAB
  0
TABLE
  2
LAYER
  5
2
100
AcDbSymbolTable
 70
7
  0
LAYER
  5
10
100
AcDbSymbolTableRecord
100
AcDbLayerTableRecord
  2
0
 70
0
 62
7
  6
CONTINUOUS
390
F
  0
LAYER
  5
43
100
AcDbSymbolTableRecord
100
AcDbLayerTableRecord
  2
MERGE
 70
0
 62
7
  6
CONTINUOUS
390
F
  0
LAYER
  5
44
100
AcDbSymbolTableRecord
100
AcDbLayerTableRecord
  2
STANDARD
 70
0
 62
7
  6
CONTINUOUS
370
25
390
F
  0
LAYER
  5
45
100
AcDbSymbolTableRecord
100
AcDbLayerTableRecord
  2
PINS
 70
0
 62
7
  6
CONTINUOUS
390
F
  0
LAYER
  5
46
100
AcDbSymbolTableRecord
100
AcDbLayerTableRecord
  2
PARAMS
 70
0
 62
7
  6
CONTINUOUS
390
F
  0
LAYER
  5
47
100
AcDbSymbolTableRecord
100
AcDbLayerTableRecord
  2
OUTLINE
 70
0
 62
7
  6
CONTINUOUS
390
F
  0
LAYER
  5
48
100
AcDbSymbolTableRecord
100
AcDbLayerTableRecord
  2
INTERNALS
 70
0
 62
7
  6
CONTINUOUS
390
F
  0
ENDTAB
  0
TABLE
  2
STYLE
  5
3
100
AcDbSymbolTable
 70
1
  0
STYLE
  5
11
100
AcDbSymbolTableRecord
100
AcDbTextStyleTableRecord
  2
Standard
 70
0
 40
0.0
 41
0.75
 50
0.0
 71
0
 42
2.5
  3
txt
  4

  0
ENDTAB
  0
TABLE
  2
VIEW
  5
6
100
AcDbSymbolTable
 70
0
  0
ENDTAB
  0
TABLE
  2
UCS
  5
7
100
AcDbSymbolTable
 70
0
  0
ENDTAB
  0
TABLE
  2
APPID
  5
9
100
AcDbSymbolTable
 70
1
  0
APPID
  5
12
100
AcDbSymbolTableRecord
100
AcDbRegAppTableRecord
  2
ACAD
 70
0
  0
ENDTAB
  0
TABLE
  2
DIMSTYLE
  5
A
100
AcDbSymbolTable
 70
1
100
AcDbDimStyleTable
 71
0
  0
DIMSTYLE
105
27
100
AcDbSymbolTableRecord
100
AcDbDimStyleTableRecord
  2
Standard
 41
0.18
 42
0.0625
 43
3.75
 44
0.18
 70
0
 73
0
 74
0
 77
1
 78
8
140
0.18
141
2.5
143
0.03937007874016
147
0.09
171
3
172
1
271
2
272
2
274
3
278
44
283
0
284
8
340
11
  0
ENDTAB
  0
TABLE
  2
BLOCK_RECORD
  5
1
100
AcDbSymbolTable
 70
1
  0
BLOCK_RECORD
  5
1F
100
AcDbSymbolTableRecord
100
AcDbBlockTableRecord
  2
*Model_Space
340
22
  0
BLOCK_RECORD
  5
1B
100
AcDbSymbolTableRecord
100
AcDbBlockTableRecord
  2
*Paper_Space
340
1E
  0
BLOCK_RECORD
  5
23
100
AcDbSymbolTableRecord
100
AcDbBlockTableRecord
  2
*Paper_Space0
340
26
  0
ENDTAB
  0
ENDSEC
  0
SECTION
  2
BLOCKS
  0
BLOCK
  5
20
100
AcDbEntity
  8
0
100
AcDbBlockBegin
  2
*Model_Space
 70
0
 10
0.0
 20
0.0
 30
0.0
  3
*Model_Space
  1

  0
ENDBLK
  5
21
100
AcDbEntity
  8
0
100
AcDbBlockEnd
  0
BLOCK
  5
1C
100
AcDbEntity
 67
1
  8
0
100
AcDbBlockBegin
  2
*Paper_Space
 70
0
 10
0.0
 20
0.0
 30
0.0
  3
*Paper_Space
  1

  0
ENDBLK
  5
1D
100
AcDbEntity
 67
1
  8
0
100
AcDbBlockEnd
  0
BLOCK
  5
24
100
AcDbEntity
  8
0
100
AcDbBlockBegin
  2
*Paper_Space0
 70
0
 10
0.0
 20
0.0
 30
0.0
  3
*Paper_Space0
  1

  0
ENDBLK
  5
25
100
AcDbEntity
  8
0
100
AcDbBlockEnd
  0
ENDSEC
  0
SECTION
  2
ENTITIES
  0
MTEXT
  5
49
100
AcDbEntity
100
AcDbMText
  8
STANDARD
 62
7
370
-1
  6
ByLayer
 10
-33.1109287487666819
 20
117.8016339103516259
 30
0.0
 40
2.25
 41
2250.0
 71
5
 72
2
  1
0
  7
STYLE1
 50
0.0
 73
0
 44
1.0
  0
MTEXT
  5
4A
100
AcDbEntity
100
AcDbMText
  8
STANDARD
 62
7
370
-1
  6
ByLayer
 10
-33.1109287487666819
 20
59.3016339103516188
 30
0.0
 40
2.25
 41
2250.0
 71
5
 72
2
  1
0
  7
STYLE1
 50
0.0
 73
0
 44
1.0
  0
MTEXT
  5
4B
100
AcDbEntity
100
AcDbMText
  8
STANDARD
 62
7
370
-1
  6
ByLayer
 10
-89.3609287487666819
 20
117.8016339103516259
 30
0.0
 40
2.25
 41
2250.0
 71
5
 72
2
  1
0
  7
STYLE1
 50
0.0
 73
0
 44
1.0
  0
MTEXT
  5
4C
100
AcDbEntity
100
AcDbMText
  8
STANDARD
 62
7
370
-1
  6
ByLayer
 10
-89.3609287487666819
 20
59.3016339103516188
 30
0.0
 40
2.25
 41
2250.0
 71
5
 72
2
  1
0
  7
STYLE1
 50
0.0
 73
0
 44
1.0
  0
MTEXT
  5
4D
100
AcDbEntity
100
AcDbMText
  8
STANDARD
 62
7
370
-1
  6
ByLayer
 10
-89.3609287487666819
 20
-57.698366089648367
 30
0.0
 40
2.25
 41
2250.0
 71
5
 72
2
  1
0
  7
STYLE1
 50
0.0
 73
0
 44
1.0
  0
MTEXT
  5
4E
100
AcDbEntity
100
AcDbMText
  8
STANDARD
 62
7
370
-1
  6
ByLayer
 10
-89.3609287487666819
 20
0.8016339103516295
 30
0.0
 40
2.25
 41
2250.0
 71
5
 72
2
  1
0
  7
STYLE1
 50
0.0
 73
0
 44
1.0
  0
MTEXT
  5
4F
100
AcDbEntity
100
AcDbMText
  8
STANDARD
 62
7
370
-1
  6
ByLayer
 10
-21.8609287487666819
 20
117.8016339103516259
 30
0.0
 40
2.25
 41
2250.0
 71
5
 72
2
  1
1
  7
STYLE1
 50
0.0
 73
0
 44
1.0
  0
MTEXT
  5
50
100
AcDbEntity
100
AcDbMText
  8
STANDARD
 62
7
370
-1
  6
ByLayer
 10
-21.8609287487666819
 20
59.3016339103516188
 30
0.0
 40
2.25
 41
2250.0
 71
5
 72
2
  1
1
  7
STYLE1
 50
0.0
 73
0
 44
1.0
  0
MTEXT
  5
51
100
AcDbEntity
100
AcDbMText
  8
STANDARD
 62
7
370
-1
  6
ByLayer
 10
-78.1109287487666819
 20
117.8016339103516259
 30
0.0
 40
2.25
 41
2250.0
 71
5
 72
2
  1
1
  7
STYLE1
 50
0.0
 73
0
 44
1.0
  0
MTEXT
  5
52
100
AcDbEntity
100
AcDbMText
  8
STANDARD
 62
7
370
-1
  6
ByLayer
 10
-78.1109287487666819
 20
59.3016339103516188
 30
0.0
 40
2.25
 41
2250.0
 71
5
 72
2
  1
1
  7
STYLE1
 50
0.0
 73
0
 44
1.0
  0
MTEXT
  5
53
100
AcDbEntity
100
AcDbMText
  8
STANDARD
 62
7
370
-1
  6
ByLayer
 10
-78.1109287487666819
 20
-57.698366089648367
 30
0.0
 40
2.25
 41
2250.0
 71
5
 72
2
  1
1
  7
STYLE1
 50
0.0
 73
0
 44
1.0
  0
MTEXT
  5
54
100
AcDbEntity
100
AcDbMText
  8
STANDARD
 62
7
370
-1
  6
ByLayer
 10
-78.1109287487666819
 20
0.8016339103516295
 30
0.0
 40
2.25
 41
2250.0
 71
5
 72
2
  1
1
  7
STYLE1
 50
0.0
 73
0
 44
1.0
  0
MTEXT
  5
55
100
AcDbEntity
100
AcDbMText
  8
STANDARD
 62
7
370
-1
  6
ByLayer
 10
-10.6109287487666819
 20
117.8016339103516259
 30
0.0
 40
2.25
 41
2250.0
 71
5
 72
2
  1
2
  7
STYLE1
 50
0.0
 73
0
 44
1.0
  0
MTEXT
  5
56
100
AcDbEntity
100
AcDbMText
  8
STANDARD
 62
7
370
-1
  6
ByLayer
 10
-10.6109287487666819
 20
59.3016339103516188
 30
0.0
 40
2.25
 41
2250.0
 71
5
 72
2
  1
2
  7
STYLE1
 50
0.0
 73
0
 44
1.0
  0
MTEXT
  5
57
100
AcDbEntity
100
AcDbMText
  8
STANDARD
 62
7
370
-1
  6
ByLayer
 10
-66.8609287487666819
 20
117.8016339103516259
 30
0.0
 40
2.25
 41
2250.0
 71
5
 72
2
  1
2
  7
STYLE1
 50
0.0
 73
0
 44
1.0
  0
MTEXT
  5
58
100
AcDbEntity
100
AcDbMText
  8
STANDARD
 62
7
370
-1
  6
ByLayer
 10
-66.8609287487666819
 20
59.3016339103516188
 30
0.0
 40
2.25
 41
2250.0
 71
5
 72
2
  1
2
  7
STYLE1
 50
0.0
 73
0
 44
1.0
  0
MTEXT
  5
59
100
AcDbEntity
100
AcDbMText
  8
STANDARD
 62
7
370
-1
  6
ByLayer
 10
-66.8609287487666819
 20
-57.698366089648367
 30
0.0
 40
2.25
 41
2250.0
 71
5
 72
2
  1
2
  7
STYLE1
 50
0.0
 73
0
 44
1.0
  0
MTEXT
  5
5A
100
AcDbEntity
100
AcDbMText
  8
STANDARD
 62
7
370
-1
  6
ByLayer
 10
-66.8609287487666819
 20
0.8016339103516295
 30
0.0
 40
2.25
 41
2250.0
 71
5
 72
2
  1
2
  7
STYLE1
 50
0.0
 73
0
 44
1.0
  0
MTEXT
  5
5B
100
AcDbEntity
100
AcDbMText
  8
STANDARD
 62
7
370
-1
  6
ByLayer
 10
11.8890712512333181
 20
117.8016339103516259
 30
0.0
 40
2.25
 41
2250.0
 71
5
 72
2
  1
4
  7
STYLE1
 50
0.0
 73
0
 44
1.0
  0
MTEXT
  5
5C
100
AcDbEntity
100
AcDbMText
  8
STANDARD
 62
7
370
-1
  6
ByLayer
 10
11.8890712512333181
 20
59.3016339103516188
 30
0.0
 40
2.25
 41
2250.0
 71
5
 72
2
  1
4
  7
STYLE1
 50
0.0
 73
0
 44
1.0
  0
MTEXT
  5
5D
100
AcDbEntity
100
AcDbMText
  8
STANDARD
 62
7
370
-1
  6
ByLayer
 10
-44.3609287487666819
 20
117.8016339103516259
 30
0.0
 40
2.25
 41
2250.0
 71
5
 72
2
  1
4
  7
STYLE1
 50
0.0
 73
0
 44
1.0
  0
MTEXT
  5
5E
100
AcDbEntity
100
AcDbMText
  8
STANDARD
 62
7
370
-1
  6
ByLayer
 10
-44.3609287487666819
 20
59.3016339103516188
 30
0.0
 40
2.25
 41
2250.0
 71
5
 72
2
  1
4
  7
STYLE1
 50
0.0
 73
0
 44
1.0
  0
MTEXT
  5
5F
100
AcDbEntity
100
AcDbMText
  8
STANDARD
 62
7
370
-1
  6
ByLayer
 10
-44.3609287487666819
 20
-57.698366089648367
 30
0.0
 40
2.25
 41
2250.0
 71
5
 72
2
  1
4
  7
STYLE1
 50
0.0
 73
0
 44
1.0
  0
MTEXT
  5
60
100
AcDbEntity
100
AcDbMText
  8
STANDARD
 62
7
370
-1
  6
ByLayer
 10
-44.3609287487666819
 20
0.8016339103516295
 30
0.0
 40
2.25
 41
2250.0
 71
5
 72
2
  1
4
  7
STYLE1
 50
0.0
 73
0
 44
1.0
  0
MTEXT
  5
61
100
AcDbEntity
100
AcDbMText
  8
STANDARD
 62
7
370
-1
  6
ByLayer
 10
0.6390712512333181
 20
117.8016339103516259
 30
0.0
 40
2.25
 41
2250.0
 71
5
 72
2
  1
3
  7
STYLE1
 50
0.0
 73
0
 44
1.0
  0
MTEXT
  5
62
100
AcDbEntity
100
AcDbMText
  8
STANDARD
 62
7
370
-1
  6
ByLayer
 10
0.6390712512333181
 20
59.3016339103516188
 30
0.0
 40
2.25
 41
2250.0
 71
5
 72
2
  1
3
  7
STYLE1
 50
0.0
 73
0
 44
1.0
  0
MTEXT
  5
63
100
AcDbEntity
100
AcDbMText
  8
STANDARD
 62
7
370
-1
  6
ByLayer
 10
-55.6109287487666819
 20
117.8016339103516259
 30
0.0
 40
2.25
 41
2250.0
 71
5
 72
2
  1
3
  7
STYLE1
 50
0.0
 73
0
 44
1.0
  0
MTEXT
  5
64
100
AcDbEntity
100
AcDbMText
  8
STANDARD
 62
7
370
-1
  6
ByLayer
 10
-55.6109287487666819
 20
59.3016339103516188
 30
0.0
 40
2.25
 41
2250.0
 71
5
 72
2
  1
3
  7
STYLE1
 50
0.0
 73
0
 44
1.0
  0
MTEXT
  5
65
100
AcDbEntity
100
AcDbMText
  8
STANDARD
 62
7
370
-1
  6
ByLayer
 10
-55.6109287487666819
 20
-57.698366089648367
 30
0.0
 40
2.25
 41
2250.0
 71
5
 72
2
  1
3
  7
STYLE1
 50
0.0
 73
0
 44
1.0
  0
MTEXT
  5
66
100
AcDbEntity
100
AcDbMText
  8
STANDARD
 62
7
370
-1
  6
ByLayer
 10
-55.6109287487666819
 20
0.8016339103516295
 30
0.0
 40
2.25
 41
2250.0
 71
5
 72
2
  1
3
  7
STYLE1
 50
0.0
 73
0
 44
1.0
  0
MTEXT
  5
67
100
AcDbEntity
100
AcDbMText
  8
STANDARD
 62
7
370
-1
  6
ByLayer
 10
-33.1109287487666819
 20
-57.698366089648367
 30
0.0
 40
2.25
 41
2250.0
 71
5
 72
2
  1
5
  7
STYLE1
 50
0.0
 73
0
 44
1.0
  0
MTEXT
  5
68
100
AcDbEntity
100
AcDbMText
  8
STANDARD
 62
7
370
-1
  6
ByLayer
 10
-33.1109287487666819
 20
0.8016339103516295
 30
0.0
 40
2.25
 41
2250.0
 71
5
 72
2
  1
5
  7
STYLE1
 50
0.0
 73
0
 44
1.0
  0
MTEXT
  5
69
100
AcDbEntity
100
AcDbMText
  8
STANDARD
 62
7
370
-1
  6
ByLayer
 10
-21.8609287487666819
 20
-57.698366089648367
 30
0.0
 40
2.25
 41
2250.0
 71
5
 72
2
  1
6
  7
STYLE1
 50
0.0
 73
0
 44
1.0
  0
MTEXT
  5
6A
100
AcDbEntity
100
AcDbMText
  8
STANDARD
 62
7
370
-1
  6
ByLayer
 10
-21.8609287487666819
 20
0.8016339103516295
 30
0.0
 40
2.25
 41
2250.0
 71
5
 72
2
  1
6
  7
STYLE1
 50
0.0
 73
0
 44
1.0
  0
MTEXT
  5
6B
100
AcDbEntity
100
AcDbMText
  8
STANDARD
 62
7
370
-1
  6
ByLayer
 10
-10.6109287487666819
 20
-57.698366089648367
 30
0.0
 40
2.25
 41
2250.0
 71
5
 72
2
  1
7
  7
STYLE1
 50
0.0
 73
0
 44
1.0
  0
MTEXT
  5
6C
100
AcDbEntity
100
AcDbMText
  8
STANDARD
 62
7
370
-1
  6
ByLayer
 10
-10.6109287487666819
 20
0.8016339103516295
 30
0.0
 40
2.25
 41
2250.0
 71
5
 72
2
  1
7
  7
STYLE1
 50
0.0
 73
0
 44
1.0
  0
MTEXT
  5
6D
100
AcDbEntity
100
AcDbMText
  8
STANDARD
 62
7
370
-1
  6
ByLayer
 10
0.6390712512333181
 20
-57.698366089648367
 30
0.0
 40
2.25
 41
2250.0
 71
5
 72
2
  1
8
  7
STYLE1
 50
0.0
 73
0
 44
1.0
  0
MTEXT
  5
6E
100
AcDbEntity
100
AcDbMText
  8
STANDARD
 62
7
370
-1
  6
ByLayer
 10
0.6390712512333181
 20
0.8016339103516295
 30
0.0
 40
2.25
 41
2250.0
 71
5
 72
2
  1
8
  7
STYLE1
 50
0.0
 73
0
 44
1.0
  0
MTEXT
  5
6F
100
AcDbEntity
100
AcDbMText
  8
STANDARD
 62
7
370
-1
  6
ByLayer
 10
11.8890712512333181
 20
-57.698366089648367
 30
0.0
 40
2.25
 41
2250.0
 71
5
 72
2
  1
9
  7
STYLE1
 50
0.0
 73
0
 44
1.0
  0
MTEXT
  5
70
100
AcDbEntity
100
AcDbMText
  8
STANDARD
 62
7
370
-1
  6
ByLayer
 10
11.8890712512333181
 20
0.8016339103516295
 30
0.0
 40
2.25
 41
2250.0
 71
5
 72
2
  1
9
  7
STYLE1
 50
0.0
 73
0
 44
1.0
  0
MTEXT
  5
71
100
AcDbEntity
100
AcDbMText
  8
STANDARD
 62
7
370
-1
  6
ByLayer
 10
23.1390712512333181
 20
117.8016339103516259
 30
0.0
 40
2.25
 41
2250.0
 71
5
 72
2
  1
0
  7
STYLE1
 50
0.0
 73
0
 44
1.0
  0
MTEXT
  5
72
100
AcDbEntity
100
AcDbMText
  8
STANDARD
 62
7
370
-1
  6
ByLayer
 10
23.1390712512333181
 20
59.3016339103516188
 30
0.0
 40
2.25
 41
2250.0
 71
5
 72
2
  1
0
  7
STYLE1
 50
0.0
 73
0
 44
1.0
  0
MTEXT
  5
73
100
AcDbEntity
100
AcDbMText
  8
STANDARD
 62
7
370
-1
  6
ByLayer
 10
23.1390712512333181
 20
-57.698366089648367
 30
0.0
 40
2.25
 41
2250.0
 71
5
 72
2
  1
0
  7
STYLE1
 50
0.0
 73
0
 44
1.0
  0
MTEXT
  5
74
100
AcDbEntity
100
AcDbMText
  8
STANDARD
 62
7
370
-1
  6
ByLayer
 10
23.1390712512333181
 20
0.8016339103516295
 30
0.0
 40
2.25
 41
2250.0
 71
5
 72
2
  1
0
  7
STYLE1
 50
0.0
 73
0
 44
1.0
  0
MTEXT
  5
75
100
AcDbEntity
100
AcDbMText
  8
STANDARD
 62
7
370
-1
  6
ByLayer
 10
-109.6109287487668098
 20
117.8016339103516259
 30
0.0
 40
2.25
 41
2250.0
 71
5
 72
2
  1
STEP\~TYPE\~11
  7
STYLE1
 50
0.0
 73
0
 44
1.0
  0
MTEXT
  5
76
100
AcDbEntity
100
AcDbMText
  8
STANDARD
 62
7
370
-1
  6
ByLayer
 10
-109.6109287487668098
 20
59.3016339103516188
 30
0.0
 40
2.25
 41
2250.0
 71
5
 72
2
  1
STEP\~TYPE\~12
  7
STYLE1
 50
0.0
 73
0
 44
1.0
  0
MTEXT
  5
77
100
AcDbEntity
100
AcDbMText
  8
STANDARD
 62
7
370
-1
  6
ByLayer
 10
-109.6109287487668098
 20
-57.698366089648367
 30
0.0
 40
2.25
 41
2250.0
 71
5
 72
2
  1
STEP\~TYPE\~14
  7
STYLE1
 50
0.0
 73
0
 44
1.0
  0
MTEXT
  5
78
100
AcDbEntity
100
AcDbMText
  8
STANDARD
 62
7
370
-1
  6
ByLayer
 10
-109.6109287487668098
 20
0.8016339103516295
 30
0.0
 40
2.25
 41
2250.0
 71
5
 72
2
  1
STEP\~TYPE\~13
  7
STYLE1
 50
0.0
 73
0
 44
1.0
  0
MTEXT
  5
79
100
AcDbEntity
100
AcDbMText
  8
STANDARD
 62
7
370
-1
  6
ByLayer
 10
-114.1109287487667103
 20
108.8016339103516543
 30
0.0
 40
2.25
 41
2250.0
 71
4
 72
2
  1
phase-A
  7
STYLE1
 50
0.0
 73
0
 44
1.0
  0
MTEXT
  5
7A
100
AcDbEntity
100
AcDbMText
  8
STANDARD
 62
7
370
-1
  6
ByLayer
 10
-114.1109287487667103
 20
50.3016339103516046
 30
0.0
 40
2.25
 41
2250.0
 71
4
 72
2
  1
phase-A
  7
STYLE1
 50
0.0
 73
0
 44
1.0
  0
MTEXT
  5
7B
100
AcDbEntity
100
AcDbMText
  8
STANDARD
 62
7
370
-1
  6
ByLayer
 10
-114.1109287487667103
 20
-66.6983660896483741
 30
0.0
 40
2.25
 41
2250.0
 71
4
 72
2
  1
phase-A
  7
STYLE1
 50
0.0
 73
0
 44
1.0
  0
MTEXT
  5
7C
100
AcDbEntity
100
AcDbMText
  8
STANDARD
 62
7
370
-1
  6
ByLayer
 10
-114.1109287487667103
 20
-8.1983660896483777
 30
0.0
 40
2.25
 41
2250.0
 71
4
 72
2
  1
phase-A
  7
STYLE1
 50
0.0
 73
0
 44
1.0
  0
MTEXT
  5
7D
100
AcDbEntity
100
AcDbMText
  8
STANDARD
 62
7
370
-1
  6
ByLayer
 10
-114.1109287487667103
 20
99.8016339103516259
 30
0.0
 40
2.25
 41
2250.0
 71
4
 72
2
  1
phase-B
  7
STYLE1
 50
0.0
 73
0
 44
1.0
  0
MTEXT
  5
7E
100
AcDbEntity
100
AcDbMText
  8
STANDARD
 62
7
370
-1
  6
ByLayer
 10
-114.1109287487667103
 20
41.3016339103516472
 30
0.0
 40
2.25
 41
2250.0
 71
4
 72
2
  1
phase-B
  7
STYLE1
 50
0.0
 73
0
 44
1.0
  0
MTEXT
  5
7F
100
AcDbEntity
100
AcDbMText
  8
STANDARD
 62
7
370
-1
  6
ByLayer
 10
-114.1109287487667103
 20
-75.6983660896483741
 30
0.0
 40
2.25
 41
2250.0
 71
4
 72
2
  1
phase-B
  7
STYLE1
 50
0.0
 73
0
 44
1.0
  0
MTEXT
  5
80
100
AcDbEntity
100
AcDbMText
  8
STANDARD
 62
7
370
-1
  6
ByLayer
 10
-114.1109287487667103
 20
-17.198366089648367
 30
0.0
 40
2.25
 41
2250.0
 71
4
 72
2
  1
phase-B
  7
STYLE1
 50
0.0
 73
0
 44
1.0
  0
MTEXT
  5
81
100
AcDbEntity
100
AcDbMText
  8
STANDARD
 62
7
370
-1
  6
ByLayer
 10
-114.1109287487667103
 20
90.8016339103516259
 30
0.0
 40
2.25
 41
2250.0
 71
4
 72
2
  1
phase-C
  7
STYLE1
 50
0.0
 73
0
 44
1.0
  0
MTEXT
  5
82
100
AcDbEntity
100
AcDbMText
  8
STANDARD
 62
7
370
-1
  6
ByLayer
 10
-114.1109287487667103
 20
32.3016339103516401
 30
0.0
 40
2.25
 41
2250.0
 71
4
 72
2
  1
phase-C
  7
STYLE1
 50
0.0
 73
0
 44
1.0
  0
MTEXT
  5
83
100
AcDbEntity
100
AcDbMText
  8
STANDARD
 62
7
370
-1
  6
ByLayer
 10
-114.1109287487667103
 20
-84.6983660896483741
 30
0.0
 40
2.25
 41
2250.0
 71
4
 72
2
  1
phase-C
  7
STYLE1
 50
0.0
 73
0
 44
1.0
  0
MTEXT
  5
84
100
AcDbEntity
100
AcDbMText
  8
STANDARD
 62
7
370
-1
  6
ByLayer
 10
-114.1109287487667103
 20
-26.1983660896483741
 30
0.0
 40
2.25
 41
2250.0
 71
4
 72
2
  1
phase-C
  7
STYLE1
 50
0.0
 73
0
 44
1.0
  0
MTEXT
  5
85
100
AcDbEntity
100
AcDbMText
  8
STANDARD
 62
7
370
-1
  6
ByLayer
 10
-114.1109287487667103
 20
81.8016339103516259
 30
0.0
 40
2.25
 41
2250.0
 71
4
 72
2
  1
phase-D
  7
STYLE1
 50
0.0
 73
0
 44
1.0
  0
MTEXT
  5
86
100
AcDbEntity
100
AcDbMText
  8
STANDARD
 62
7
370
-1
  6
ByLayer
 10
-114.1109287487667103
 20
23.3016339103516295
 30
0.0
 40
2.25
 41
2250.0
 71
4
 72
2
  1
phase-D
  7
STYLE1
 50
0.0
 73
0
 44
1.0
  0
MTEXT
  5
87
100
AcDbEntity
100
AcDbMText
  8
STANDARD
 62
7
370
-1
  6
ByLayer
 10
-114.1109287487667103
 20
-93.6983660896483741
 30
0.0
 40
2.25
 41
2250.0
 71
4
 72
2
  1
phase-D
  7
STYLE1
 50
0.0
 73
0
 44
1.0
  0
MTEXT
  5
88
100
AcDbEntity
100
AcDbMText
  8
STANDARD
 62
7
370
-1
  6
ByLayer
 10
-114.1109287487667103
 20
-35.1983660896483599
 30
0.0
 40
2.25
 41
2250.0
 71
4
 72
2
  1
phase-D
  7
STYLE1
 50
0.0
 73
0
 44
1.0
  0
MTEXT
  5
89
100
AcDbEntity
100
AcDbMText
  8
STANDARD
 62
7
370
-1
  6
ByLayer
 10
-114.1109287487667103
 20
72.8016339103515975
 30
0.0
 40
2.25
 41
2250.0
 71
4
 72
2
  1
phase-E
  7
STYLE1
 50
0.0
 73
0
 44
1.0
  0
MTEXT
  5
8A
100
AcDbEntity
100
AcDbMText
  8
STANDARD
 62
7
370
-1
  6
ByLayer
 10
-114.1109287487667103
 20
14.3016339103516223
 30
0.0
 40
2.25
 41
2250.0
 71
4
 72
2
  1
phase-E
  7
STYLE1
 50
0.0
 73
0
 44
1.0
  0
MTEXT
  5
8B
100
AcDbEntity
100
AcDbMText
  8
STANDARD
 62
7
370
-1
  6
ByLayer
 10
-114.1109287487667103
 20
-102.6983660896483741
 30
0.0
 40
2.25
 41
2250.0
 71
4
 72
2
  1
phase-E
  7
STYLE1
 50
0.0
 73
0
 44
1.0
  0
MTEXT
  5
8C
100
AcDbEntity
100
AcDbMText
  8
STANDARD
 62
7
370
-1
  6
ByLayer
 10
-114.1109287487667103
 20
-44.198366089648367
 30
0.0
 40
2.25
 41
2250.0
 71
4
 72
2
  1
phase-E
  7
STYLE1
 50
0.0
 73
0
 44
1.0
  0
LINE
  5
8D
100
AcDbEntity
100
AcDbLine
  8
STANDARD
 62
7
370
-1
  6
CONTINUOUS
 10
-72.4859287487666819
 20
121.1766339103516259
 30
0.0
 11
-72.4859287487666819
 21
68.3016339103516259
 31
0.0
  0
LINE
  5
8E
100
AcDbEntity
100
AcDbLine
  8
STANDARD
 62
7
370
-1
  6
CONTINUOUS
 10
-72.4859287487666819
 20
62.676633910351633
 30
0.0
 11
-72.4859287487666819
 21
9.8016339103516366
 31
0.0
  0
LINE
  5
8F
100
AcDbEntity
100
AcDbLine
  8
STANDARD
 62
7
370
-1
  6
CONTINUOUS
 10
-72.4859287487666819
 20
-54.323366089648367
 30
0.0
 11
-72.4859287487666819
 21
-107.1983660896483741
 31
0.0
  0
LINE
  5
90
100
AcDbEntity
100
AcDbLine
  8
STANDARD
 62
7
370
-1
  6
CONTINUOUS
 10
-72.4859287487666819
 20
4.1766339103516374
 30
0.0
 11
-72.4859287487666819
 21
-48.698366089648367
 31
0.0
  0
LINE
  5
91
100
AcDbEntity
100
AcDbLine
  8
STANDARD
 62
7
370
-1
  6
CONTINUOUS
 10
-61.2359287487666819
 20
121.1766339103516259
 30
0.0
 11
-61.2359287487666819
 21
68.3016339103516259
 31
0.0
  0
LINE
  5
92
100
AcDbEntity
100
AcDbLine
  8
STANDARD
 62
7
370
-1
  6
CONTINUOUS
 10
-61.2359287487666819
 20
62.676633910351633
 30
0.0
 11
-61.2359287487666819
 21
9.8016339103516366
 31
0.0
  0
LINE
  5
93
100
AcDbEntity
100
AcDbLine
  8
STANDARD
 62
7
370
-1
  6
CONTINUOUS
 10
-61.2359287487666819
 20
-54.323366089648367
 30
0.0
 11
-61.2359287487666819
 21
-107.1983660896483741
 31
0.0
  0
LINE
  5
94
100
AcDbEntity
100
AcDbLine
  8
STANDARD
 62
7
370
-1
  6
CONTINUOUS
 10
-61.2359287487666819
 20
4.1766339103516374
 30
0.0
 11
-61.2359287487666819
 21
-48.698366089648367
 31
0.0
  0
LINE
  5
95
100
AcDbEntity
100
AcDbLine
  8
STANDARD
 62
7
370
-1
  6
CONTINUOUS
 10
-49.9859287487666819
 20
121.1766339103516259
 30
0.0
 11
-49.9859287487666819
 21
68.3016339103516259
 31
0.0
  0
LINE
  5
96
100
AcDbEntity
100
AcDbLine
  8
STANDARD
 62
7
370
-1
  6
CONTINUOUS
 10
-49.9859287487666819
 20
62.676633910351633
 30
0.0
 11
-49.9859287487666819
 21
9.8016339103516366
 31
0.0
  0
LINE
  5
97
100
AcDbEntity
100
AcDbLine
  8
STANDARD
 62
7
370
-1
  6
CONTINUOUS
 10
-49.9859287487666819
 20
-54.323366089648367
 30
0.0
 11
-49.9859287487666819
 21
-107.1983660896483741
 31
0.0
  0
LINE
  5
98
100
AcDbEntity
100
AcDbLine
  8
STANDARD
 62
7
370
-1
  6
CONTINUOUS
 10
-49.9859287487666819
 20
4.1766339103516374
 30
0.0
 11
-49.9859287487666819
 21
-48.698366089648367
 31
0.0
  0
LINE
  5
99
100
AcDbEntity
100
AcDbLine
  8
STANDARD
 62
7
370
-1
  6
CONTINUOUS
 10
-38.7359287487666819
 20
121.1766339103516259
 30
0.0
 11
-38.7359287487666819
 21
68.3016339103516259
 31
0.0
  0
LINE
  5
9A
100
AcDbEntity
100
AcDbLine
  8
STANDARD
 62
7
370
-1
  6
CONTINUOUS
 10
-38.7359287487666819
 20
62.676633910351633
 30
0.0
 11
-38.7359287487666819
 21
9.8016339103516366
 31
0.0
  0
LINE
  5
9B
100
AcDbEntity
100
AcDbLine
  8
STANDARD
 62
7
370
-1
  6
CONTINUOUS
 10
-38.7359287487666819
 20
-54.323366089648367
 30
0.0
 11
-38.7359287487666819
 21
-107.1983660896483741
 31
0.0
  0
LINE
  5
9C
100
AcDbEntity
100
AcDbLine
  8
STANDARD
 62
7
370
-1
  6
CONTINUOUS
 10
-38.7359287487666819
 20
4.1766339103516374
 30
0.0
 11
-38.7359287487666819
 21
-48.698366089648367
 31
0.0
  0
LINE
  5
9D
100
AcDbEntity
100
AcDbLine
  8
STANDARD
 62
7
370
-1
  6
CONTINUOUS
 10
-27.4859287487666819
 20
121.1766339103516259
 30
0.0
 11
-27.4859287487666819
 21
68.3016339103516259
 31
0.0
  0
LINE
  5
9E
100
AcDbEntity
100
AcDbLine
  8
STANDARD
 62
7
370
-1
  6
CONTINUOUS
 10
-27.4859287487666819
 20
62.676633910351633
 30
0.0
 11
-27.4859287487666819
 21
9.8016339103516366
 31
0.0
  0
LINE
  5
9F
100
AcDbEntity
100
AcDbLine
  8
STANDARD
 62
7
370
-1
  6
CONTINUOUS
 10
-27.4859287487666819
 20
-54.323366089648367
 30
0.0
 11
-27.4859287487666819
 21
-107.1983660896483741
 31
0.0
  0
LINE
  5
A0
100
AcDbEntity
100
AcDbLine
  8
STANDARD
 62
7
370
-1
  6
CONTINUOUS
 10
-27.4859287487666819
 20
4.1766339103516374
 30
0.0
 11
-27.4859287487666819
 21
-48.698366089648367
 31
0.0
  0
LINE
  5
A1
100
AcDbEntity
100
AcDbLine
  8
STANDARD
 62
7
370
-1
  6
CONTINUOUS
 10
-16.2359287487666819
 20
121.1766339103516259
 30
0.0
 11
-16.2359287487666819
 21
68.3016339103516259
 31
0.0
  0
LINE
  5
A2
100
AcDbEntity
100
AcDbLine
  8
STANDARD
 62
7
370
-1
  6
CONTINUOUS
 10
-16.2359287487666819
 20
62.676633910351633
 30
0.0
 11
-16.2359287487666819
 21
9.8016339103516366
 31
0.0
  0
LINE
  5
A3
100
AcDbEntity
100
AcDbLine
  8
STANDARD
 62
7
370
-1
  6
CONTINUOUS
 10
-16.2359287487666819
 20
-54.323366089648367
 30
0.0
 11
-16.2359287487666819
 21
-107.1983660896483741
 31
0.0
  0
LINE
  5
A4
100
AcDbEntity
100
AcDbLine
  8
STANDARD
 62
7
370
-1
  6
CONTINUOUS
 10
-16.2359287487666819
 20
4.1766339103516374
 30
0.0
 11
-16.2359287487666819
 21
-48.698366089648367
 31
0.0
  0
LINE
  5
A5
100
AcDbEntity
100
AcDbLine
  8
STANDARD
 62
7
370
-1
  6
CONTINUOUS
 10
-4.9859287487666819
 20
121.1766339103516259
 30
0.0
 11
-4.9859287487666819
 21
68.3016339103516259
 31
0.0
  0
LINE
  5
A6
100
AcDbEntity
100
AcDbLine
  8
STANDARD
 62
7
370
-1
  6
CONTINUOUS
 10
-4.9859287487666819
 20
62.676633910351633
 30
0.0
 11
-4.9859287487666819
 21
9.8016339103516366
 31
0.0
  0
LINE
  5
A7
100
AcDbEntity
100
AcDbLine
  8
STANDARD
 62
7
370
-1
  6
CONTINUOUS
 10
-4.9859287487666819
 20
-54.323366089648367
 30
0.0
 11
-4.9859287487666819
 21
-107.1983660896483741
 31
0.0
  0
LINE
  5
A8
100
AcDbEntity
100
AcDbLine
  8
STANDARD
 62
7
370
-1
  6
CONTINUOUS
 10
-4.9859287487666819
 20
4.1766339103516374
 30
0.0
 11
-4.9859287487666819
 21
-48.698366089648367
 31
0.0
  0
LINE
  5
A9
100
AcDbEntity
100
AcDbLine
  8
STANDARD
 62
7
370
-1
  6
CONTINUOUS
 10
6.2640712512333181
 20
121.1766339103516259
 30
0.0
 11
6.2640712512333181
 21
68.3016339103516259
 31
0.0
  0
LINE
  5
AA
100
AcDbEntity
100
AcDbLine
  8
STANDARD
 62
7
370
-1
  6
CONTINUOUS
 10
6.2640712512333181
 20
62.676633910351633
 30
0.0
 11
6.2640712512333181
 21
9.8016339103516366
 31
0.0
  0
LINE
  5
AB
100
AcDbEntity
100
AcDbLine
  8
STANDARD
 62
7
370
-1
  6
CONTINUOUS
 10
6.2640712512333181
 20
-54.323366089648367
 30
0.0
 11
6.2640712512333181
 21
-107.1983660896483741
 31
0.0
  0
LINE
  5
AC
100
AcDbEntity
100
AcDbLine
  8
STANDARD
 62
7
370
-1
  6
CONTINUOUS
 10
6.2640712512333181
 20
4.1766339103516374
 30
0.0
 11
6.2640712512333181
 21
-48.698366089648367
 31
0.0
  0
LINE
  5
AD
100
AcDbEntity
100
AcDbLine
  8
STANDARD
 62
7
370
-1
  6
CONTINUOUS
 10
28.7640712512333181
 20
121.1766339103516259
 30
0.0
 11
28.7640712512333181
 21
68.3016339103516259
 31
0.0
  0
LINE
  5
AE
100
AcDbEntity
100
AcDbLine
  8
STANDARD
 62
7
370
-1
  6
CONTINUOUS
 10
28.7640712512333181
 20
62.676633910351633
 30
0.0
 11
28.7640712512333181
 21
9.8016339103516366
 31
0.0
  0
LINE
  5
AF
100
AcDbEntity
100
AcDbLine
  8
STANDARD
 62
7
370
-1
  6
CONTINUOUS
 10
28.7640712512333181
 20
-54.323366089648367
 30
0.0
 11
28.7640712512333181
 21
-107.1983660896483741
 31
0.0
  0
LINE
  5
B0
100
AcDbEntity
100
AcDbLine
  8
STANDARD
 62
7
370
-1
  6
CONTINUOUS
 10
28.7640712512333181
 20
4.1766339103516374
 30
0.0
 11
28.7640712512333181
 21
-48.698366089648367
 31
0.0
  0
LINE
  5
B1
100
AcDbEntity
100
AcDbLine
  8
STANDARD
 62
7
370
-1
  6
CONTINUOUS
 10
17.5140712512333181
 20
121.1766339103516259
 30
0.0
 11
17.5140712512333181
 21
68.3016339103516259
 31
0.0
  0
LINE
  5
B2
100
AcDbEntity
100
AcDbLine
  8
STANDARD
 62
7
370
-1
  6
CONTINUOUS
 10
17.5140712512333181
 20
62.676633910351633
 30
0.0
 11
17.5140712512333181
 21
9.8016339103516366
 31
0.0
  0
LINE
  5
B3
100
AcDbEntity
100
AcDbLine
  8
STANDARD
 62
7
370
-1
  6
CONTINUOUS
 10
17.5140712512333181
 20
-54.323366089648367
 30
0.0
 11
17.5140712512333181
 21
-107.1983660896483741
 31
0.0
  0
LINE
  5
B4
100
AcDbEntity
100
AcDbLine
  8
STANDARD
 62
7
370
-1
  6
CONTINUOUS
 10
17.5140712512333181
 20
4.1766339103516374
 30
0.0
 11
17.5140712512333181
 21
-48.698366089648367
 31
0.0
  0
LINE
  5
B5
100
AcDbEntity
100
AcDbLine
  8
STANDARD
 62
7
370
-1
  6
CONTINUOUS
 10
-94.9859287487666819
 20
121.1766339103516259
 30
0.0
 11
-94.9859287487666819
 21
68.3016339103516259
 31
0.0
  0
LINE
  5
B6
100
AcDbEntity
100
AcDbLine
  8
STANDARD
 62
7
370
-1
  6
CONTINUOUS
 10
-94.9859287487666819
 20
62.676633910351633
 30
0.0
 11
-94.9859287487666819
 21
9.8016339103516366
 31
0.0
  0
LINE
  5
B7
100
AcDbEntity
100
AcDbLine
  8
STANDARD
 62
7
370
-1
  6
CONTINUOUS
 10
-94.9859287487666819
 20
-54.323366089648367
 30
0.0
 11
-94.9859287487666819
 21
-107.1983660896483741
 31
0.0
  0
LINE
  5
B8
100
AcDbEntity
100
AcDbLine
  8
STANDARD
 62
7
370
-1
  6
CONTINUOUS
 10
-94.9859287487666819
 20
4.1766339103516374
 30
0.0
 11
-94.9859287487666819
 21
-48.698366089648367
 31
0.0
  0
LINE
  5
B9
100
AcDbEntity
100
AcDbLine
  8
STANDARD
 62
7
370
-1
  6
CONTINUOUS
 10
-83.7359287487666819
 20
121.1766339103516259
 30
0.0
 11
-83.7359287487666819
 21
68.3016339103516259
 31
0.0
  0
LINE
  5
BA
100
AcDbEntity
100
AcDbLine
  8
STANDARD
 62
7
370
-1
  6
CONTINUOUS
 10
-83.7359287487666819
 20
62.676633910351633
 30
0.0
 11
-83.7359287487666819
 21
9.8016339103516366
 31
0.0
  0
LINE
  5
BB
100
AcDbEntity
100
AcDbLine
  8
STANDARD
 62
7
370
-1
  6
CONTINUOUS
 10
-83.7359287487666819
 20
-54.323366089648367
 30
0.0
 11
-83.7359287487666819
 21
-107.1983660896483741
 31
0.0
  0
LINE
  5
BC
100
AcDbEntity
100
AcDbLine
  8
STANDARD
 62
7
370
-1
  6
CONTINUOUS
 10
-83.7359287487666819
 20
4.1766339103516374
 30
0.0
 11
-83.7359287487666819
 21
-48.698366089648367
 31
0.0
  0
LINE
  5
BD
100
AcDbEntity
100
AcDbLine
  8
STANDARD
 62
7
370
-1
  6
ByLayer
 10
-93.860928748766753
 20
111.0516339103516259
 30
0.0
 11
-84.8609287487667814
 21
111.0516339103516259
 31
0.0
  0
LINE
  5
BE
100
AcDbEntity
100
AcDbLine
  8
STANDARD
 62
7
370
-1
  6
ByLayer
 10
-84.8609287487667814
 20
111.0516339103516259
 30
0.0
 11
-82.610928748766753
 21
106.5516339103516259
 31
0.0
  0
LINE
  5
BF
100
AcDbEntity
100
AcDbLine
  8
STANDARD
 62
7
370
-1
  6
ByLayer
 10
-82.610928748766753
 20
106.5516339103516259
 30
0.0
 11
-39.8609287487667814
 21
106.5516339103516259
 31
0.0
  0
LINE
  5
C0
100
AcDbEntity
100
AcDbLine
  8
STANDARD
 62
7
370
-1
  6
ByLayer
 10
-39.8609287487667814
 20
106.5516339103516259
 30
0.0
 11
-37.6109287487667459
 21
111.0516339103516259
 31
0.0
  0
LINE
  5
C1
100
AcDbEntity
100
AcDbLine
  8
STANDARD
 62
7
370
-1
  6
ByLayer
 10
-37.6109287487667459
 20
111.0516339103516259
 30
0.0
 11
-28.6109287487667778
 21
111.0516339103516259
 31
0.0
  0
LINE
  5
C2
100
AcDbEntity
100
AcDbLine
  8
STANDARD
 62
7
370
-1
  6
ByLayer
 10
-28.6109287487667778
 20
111.0516339103516259
 30
0.0
 11
-26.3609287487667459
 21
106.5516339103516259
 31
0.0
  0
LINE
  5
C3
100
AcDbEntity
100
AcDbLine
  8
STANDARD
 62
7
370
-1
  6
ByLayer
 10
-26.3609287487667459
 20
106.5516339103516259
 30
0.0
 11
16.3890712512332186
 21
106.5516339103516259
 31
0.0
  0
LINE
  5
C4
100
AcDbEntity
100
AcDbLine
  8
STANDARD
 62
7
370
-1
  6
ByLayer
 10
16.3890712512332186
 20
106.5516339103516259
 30
0.0
 11
18.6390712512332541
 21
111.0516339103516259
 31
0.0
  0
LINE
  5
C5
100
AcDbEntity
100
AcDbLine
  8
STANDARD
 62
7
370
-1
  6
ByLayer
 10
18.6390712512332541
 20
111.0516339103516259
 30
0.0
 11
27.6390712512332186
 21
111.0516339103516259
 31
0.0
  0
LINE
  5
C6
100
AcDbEntity
100
AcDbLine
  8
STANDARD
 62
7
370
-1
  6
ByLayer
 10
-93.860928748766753
 20
88.5516339103516543
 30
0.0
 11
-73.6109287487667814
 21
88.5516339103516543
 31
0.0
  0
LINE
  5
C7
100
AcDbEntity
100
AcDbLine
  8
STANDARD
 62
7
370
-1
  6
ByLayer
 10
-93.860928748766753
 20
79.5516339103516259
 30
0.0
 11
-62.3609287487667814
 21
79.5516339103516259
 31
0.0
  0
LINE
  5
C8
100
AcDbEntity
100
AcDbLine
  8
STANDARD
 62
7
370
-1
  6
ByLayer
 10
-93.860928748766753
 20
70.5516339103516259
 30
0.0
 11
-51.1109287487667814
 21
70.5516339103516259
 31
0.0
  0
LINE
  5
C9
100
AcDbEntity
100
AcDbLine
  8
STANDARD
 62
7
370
-1
  6
ByLayer
 10
-93.860928748766753
 20
97.5516339103516543
 30
0.0
 11
-84.8609287487667814
 21
97.5516339103516543
 31
0.0
  0
LINE
  5
CA
100
AcDbEntity
100
AcDbLine
  8
STANDARD
 62
7
370
-1
  6
ByLayer
 10
-73.6109287487667814
 20
88.5516339103516543
 30
0.0
 11
-71.360928748766753
 21
93.0516339103516259
 31
0.0
  0
LINE
  5
CB
100
AcDbEntity
100
AcDbLine
  8
STANDARD
 62
7
370
-1
  6
ByLayer
 10
-62.3609287487667814
 20
79.5516339103516259
 30
0.0
 11
-60.1109287487667459
 21
84.0516339103515975
 31
0.0
  0
LINE
  5
CC
100
AcDbEntity
100
AcDbLine
  8
STANDARD
 62
7
370
-1
  6
ByLayer
 10
-51.1109287487667814
 20
70.5516339103516259
 30
0.0
 11
-48.8609287487667459
 21
75.0516339103516543
 31
0.0
  0
LINE
  5
CD
100
AcDbEntity
100
AcDbLine
  8
STANDARD
 62
7
370
-1
  6
ByLayer
 10
-84.8609287487667814
 20
97.5516339103516543
 30
0.0
 11
-82.610928748766753
 21
102.0516339103516259
 31
0.0
  0
LINE
  5
CE
100
AcDbEntity
100
AcDbLine
  8
STANDARD
 62
7
370
-1
  6
ByLayer
 10
-71.360928748766753
 20
93.0516339103516259
 30
0.0
 11
-62.3609287487667814
 21
93.0516339103516259
 31
0.0
  0
LINE
  5
CF
100
AcDbEntity
100
AcDbLine
  8
STANDARD
 62
7
370
-1
  6
ByLayer
 10
-60.1109287487667459
 20
84.0516339103515975
 30
0.0
 11
-51.1109287487667814
 21
84.0516339103515975
 31
0.0
  0
LINE
  5
D0
100
AcDbEntity
100
AcDbLine
  8
STANDARD
 62
7
370
-1
  6
ByLayer
 10
-48.8609287487667459
 20
75.0516339103516543
 30
0.0
 11
-39.8609287487667814
 21
75.0516339103516543
 31
0.0
  0
LINE
  5
D1
100
AcDbEntity
100
AcDbLine
  8
STANDARD
 62
7
370
-1
  6
ByLayer
 10
-82.610928748766753
 20
102.0516339103516259
 30
0.0
 11
-73.6109287487667814
 21
102.0516339103516259
 31
0.0
  0
LINE
  5
D2
100
AcDbEntity
100
AcDbLine
  8
STANDARD
 62
7
370
-1
  6
ByLayer
 10
-62.3609287487667814
 20
93.0516339103516259
 30
0.0
 11
-60.1109287487667459
 21
88.5516339103516543
 31
0.0
  0
LINE
  5
D3
100
AcDbEntity
100
AcDbLine
  8
STANDARD
 62
7
370
-1
  6
ByLayer
 10
-51.1109287487667814
 20
84.0516339103515975
 30
0.0
 11
-48.8609287487667459
 21
79.5516339103516259
 31
0.0
  0
LINE
  5
D4
100
AcDbEntity
100
AcDbLine
  8
STANDARD
 62
7
370
-1
  6
ByLayer
 10
-39.8609287487667814
 20
75.0516339103516543
 30
0.0
 11
-37.6109287487667459
 21
70.5516339103516259
 31
0.0
  0
LINE
  5
D5
100
AcDbEntity
100
AcDbLine
  8
STANDARD
 62
7
370
-1
  6
ByLayer
 10
-73.6109287487667814
 20
102.0516339103516259
 30
0.0
 11
-71.360928748766753
 21
97.5516339103516543
 31
0.0
  0
LINE
  5
D6
100
AcDbEntity
100
AcDbLine
  8
STANDARD
 62
7
370
-1
  6
ByLayer
 10
-60.1109287487667459
 20
88.5516339103516543
 30
0.0
 11
-17.3609287487667778
 21
88.5516339103516543
 31
0.0
  0
LINE
  5
D7
100
AcDbEntity
100
AcDbLine
  8
STANDARD
 62
7
370
-1
  6
ByLayer
 10
-48.8609287487667459
 20
79.5516339103516259
 30
0.0
 11
-6.1109287487667814
 21
79.5516339103516259
 31
0.0
  0
LINE
  5
D8
100
AcDbEntity
100
AcDbLine
  8
STANDARD
 62
7
370
-1
  6
ByLayer
 10
-37.6109287487667459
 20
70.5516339103516259
 30
0.0
 11
5.1390712512332186
 21
70.5516339103516259
 31
0.0
  0
LINE
  5
D9
100
AcDbEntity
100
AcDbLine
  8
STANDARD
 62
7
370
-1
  6
ByLayer
 10
-71.360928748766753
 20
97.5516339103516543
 30
0.0
 11
-28.6109287487667778
 21
97.5516339103516543
 31
0.0
  0
LINE
  5
DA
100
AcDbEntity
100
AcDbLine
  8
STANDARD
 62
7
370
-1
  6
ByLayer
 10
-17.3609287487667778
 20
88.5516339103516543
 30
0.0
 11
-15.1109287487667459
 21
93.0516339103516259
 31
0.0
  0
LINE
  5
DB
100
AcDbEntity
100
AcDbLine
  8
STANDARD
 62
7
370
-1
  6
ByLayer
 10
-6.1109287487667814
 20
79.5516339103516259
 30
0.0
 11
-3.8609287487667459
 21
84.0516339103515975
 31
0.0
  0
LINE
  5
DC
100
AcDbEntity
100
AcDbLine
  8
STANDARD
 62
7
370
-1
  6
ByLayer
 10
5.1390712512332186
 20
70.5516339103516259
 30
0.0
 11
7.3890712512332541
 21
75.0516339103516543
 31
0.0
  0
LINE
  5
DD
100
AcDbEntity
100
AcDbLine
  8
STANDARD
 62
7
370
-1
  6
ByLayer
 10
-28.6109287487667778
 20
97.5516339103516543
 30
0.0
 11
-26.3609287487667459
 21
102.0516339103516259
 31
0.0
  0
LINE
  5
DE
100
AcDbEntity
100
AcDbLine
  8
STANDARD
 62
7
370
-1
  6
ByLayer
 10
-15.1109287487667459
 20
93.0516339103516259
 30
0.0
 11
-6.1109287487667814
 21
93.0516339103516259
 31
0.0
  0
LINE
  5
DF
100
AcDbEntity
100
AcDbLine
  8
STANDARD
 62
7
370
-1
  6
ByLayer
 10
-3.8609287487667459
 20
84.0516339103515975
 30
0.0
 11
5.1390712512332186
 21
84.0516339103515975
 31
0.0
  0
LINE
  5
E0
100
AcDbEntity
100
AcDbLine
  8
STANDARD
 62
7
370
-1
  6
ByLayer
 10
7.3890712512332541
 20
75.0516339103516543
 30
0.0
 11
16.3890712512332186
 21
75.0516339103516543
 31
0.0
  0
LINE
  5
E1
100
AcDbEntity
100
AcDbLine
  8
STANDARD
 62
7
370
-1
  6
ByLayer
 10
-26.3609287487667459
 20
102.0516339103516259
 30
0.0
 11
-17.3609287487667778
 21
102.0516339103516259
 31
0.0
  0
LINE
  5
E2
100
AcDbEntity
100
AcDbLine
  8
STANDARD
 62
7
370
-1
  6
ByLayer
 10
-6.1109287487667814
 20
93.0516339103516259
 30
0.0
 11
-3.8609287487667459
 21
88.5516339103516543
 31
0.0
  0
LINE
  5
E3
100
AcDbEntity
100
AcDbLine
  8
STANDARD
 62
7
370
-1
  6
ByLayer
 10
5.1390712512332186
 20
84.0516339103515975
 30
0.0
 11
7.3890712512332541
 21
79.5516339103516259
 31
0.0
  0
LINE
  5
E4
100
AcDbEntity
100
AcDbLine
  8
STANDARD
 62
7
370
-1
  6
ByLayer
 10
16.3890712512332186
 20
75.0516339103516543
 30
0.0
 11
18.6390712512332541
 21
70.5516339103516259
 31
0.0
  0
LINE
  5
E5
100
AcDbEntity
100
AcDbLine
  8
STANDARD
 62
7
370
-1
  6
ByLayer
 10
-17.3609287487667778
 20
102.0516339103516259
 30
0.0
 11
-15.1109287487667459
 21
97.5516339103516543
 31
0.0
  0
LINE
  5
E6
100
AcDbEntity
100
AcDbLine
  8
STANDARD
 62
7
370
-1
  6
ByLayer
 10
-3.8609287487667459
 20
88.5516339103516543
 30
0.0
 11
27.6390712512332186
 21
88.5516339103516543
 31
0.0
  0
LINE
  5
E7
100
AcDbEntity
100
AcDbLine
  8
STANDARD
 62
7
370
-1
  6
ByLayer
 10
7.3890712512332541
 20
79.5516339103516259
 30
0.0
 11
27.6390712512332186
 21
79.5516339103516259
 31
0.0
  0
LINE
  5
E8
100
AcDbEntity
100
AcDbLine
  8
STANDARD
 62
7
370
-1
  6
ByLayer
 10
18.6390712512332541
 20
70.5516339103516259
 30
0.0
 11
27.6390712512332186
 21
70.5516339103516259
 31
0.0
  0
LINE
  5
E9
100
AcDbEntity
100
AcDbLine
  8
STANDARD
 62
7
370
-1
  6
ByLayer
 10
-15.1109287487667459
 20
97.5516339103516543
 30
0.0
 11
27.6390712512332186
 21
97.5516339103516543
 31
0.0
  0
LINE
  5
EA
100
AcDbEntity
100
AcDbLine
  8
STANDARD
 62
7
370
-1
  6
ByLayer
 10
-93.860928748766753
 20
52.5516339103516472
 30
0.0
 11
-84.8609287487667814
 21
52.5516339103516472
 31
0.0
  0
LINE
  5
EB
100
AcDbEntity
100
AcDbLine
  8
STANDARD
 62
7
370
-1
  6
ByLayer
 10
-84.8609287487667814
 20
52.5516339103516472
 30
0.0
 11
-82.610928748766753
 21
48.0516339103516188
 31
0.0
  0
LINE
  5
EC
100
AcDbEntity
100
AcDbLine
  8
STANDARD
 62
7
370
-1
  6
ByLayer
 10
-82.610928748766753
 20
48.0516339103516188
 30
0.0
 11
-51.1109287487667814
 21
48.0516339103516188
 31
0.0
  0
LINE
  5
ED
100
AcDbEntity
100
AcDbLine
  8
STANDARD
 62
7
370
-1
  6
ByLayer
 10
-51.1109287487667814
 20
48.0516339103516188
 30
0.0
 11
-48.8609287487667459
 21
52.5516339103516472
 31
0.0
  0
LINE
  5
EE
100
AcDbEntity
100
AcDbLine
  8
STANDARD
 62
7
370
-1
  6
ByLayer
 10
-48.8609287487667459
 20
52.5516339103516472
 30
0.0
 11
-28.6109287487667778
 21
52.5516339103516472
 31
0.0
  0
LINE
  5
EF
100
AcDbEntity
100
AcDbLine
  8
STANDARD
 62
7
370
-1
  6
ByLayer
 10
-28.6109287487667778
 20
52.5516339103516472
 30
0.0
 11
-26.3609287487667459
 21
48.0516339103516188
 31
0.0
  0
LINE
  5
F0
100
AcDbEntity
100
AcDbLine
  8
STANDARD
 62
7
370
-1
  6
ByLayer
 10
-26.3609287487667459
 20
48.0516339103516188
 30
0.0
 11
5.1390712512332186
 21
48.0516339103516188
 31
0.0
  0
LINE
  5
F1
100
AcDbEntity
100
AcDbLine
  8
STANDARD
 62
7
370
-1
  6
ByLayer
 10
5.1390712512332186
 20
48.0516339103516188
 30
0.0
 11
7.3890712512332541
 21
52.5516339103516472
 31
0.0
  0
LINE
  5
F2
100
AcDbEntity
100
AcDbLine
  8
STANDARD
 62
7
370
-1
  6
ByLayer
 10
7.3890712512332541
 20
52.5516339103516472
 30
0.0
 11
27.6390712512332186
 21
52.5516339103516472
 31
0.0
  0
LINE
  5
F3
100
AcDbEntity
100
AcDbLine
  8
STANDARD
 62
7
370
-1
  6
ByLayer
 10
-93.860928748766753
 20
43.5516339103516401
 30
0.0
 11
-73.6109287487667814
 21
43.5516339103516401
 31
0.0
  0
LINE
  5
F4
100
AcDbEntity
100
AcDbLine
  8
STANDARD
 62
7
370
-1
  6
ByLayer
 10
-73.6109287487667814
 20
43.5516339103516401
 30
0.0
 11
-71.360928748766753
 21
39.0516339103516117
 31
0.0
  0
LINE
  5
F5
100
AcDbEntity
100
AcDbLine
  8
STANDARD
 62
7
370
-1
  6
ByLayer
 10
-71.360928748766753
 20
39.0516339103516117
 30
0.0
 11
-39.8609287487667814
 21
39.0516339103516117
 31
0.0
  0
LINE
  5
F6
100
AcDbEntity
100
AcDbLine
  8
STANDARD
 62
7
370
-1
  6
ByLayer
 10
-39.8609287487667814
 20
39.0516339103516117
 30
0.0
 11
-37.6109287487667459
 21
43.5516339103516401
 31
0.0
  0
LINE
  5
F7
100
AcDbEntity
100
AcDbLine
  8
STANDARD
 62
7
370
-1
  6
ByLayer
 10
-37.6109287487667459
 20
43.5516339103516401
 30
0.0
 11
-17.3609287487667778
 21
43.5516339103516401
 31
0.0
  0
LINE
  5
F8
100
AcDbEntity
100
AcDbLine
  8
STANDARD
 62
7
370
-1
  6
ByLayer
 10
-17.3609287487667778
 20
43.5516339103516401
 30
0.0
 11
-15.1109287487667459
 21
39.0516339103516117
 31
0.0
  0
LINE
  5
F9
100
AcDbEntity
100
AcDbLine
  8
STANDARD
 62
7
370
-1
  6
ByLayer
 10
-15.1109287487667459
 20
39.0516339103516117
 30
0.0
 11
16.3890712512332186
 21
39.0516339103516117
 31
0.0
  0
LINE
  5
FA
100
AcDbEntity
100
AcDbLine
  8
STANDARD
 62
7
370
-1
  6
ByLayer
 10
16.3890712512332186
 20
39.0516339103516117
 30
0.0
 11
18.6390712512332541
 21
43.5516339103516401
 31
0.0
  0
LINE
  5
FB
100
AcDbEntity
100
AcDbLine
  8
STANDARD
 62
7
370
-1
  6
ByLayer
 10
18.6390712512332541
 20
43.5516339103516401
 30
0.0
 11
27.6390712512332186
 21
43.5516339103516401
 31
0.0
  0
LINE
  5
FC
100
AcDbEntity
100
AcDbLine
  8
STANDARD
 62
7
370
-1
  6
ByLayer
 10
-93.860928748766753
 20
21.0516339103516401
 30
0.0
 11
-73.6109287487667814
 21
21.0516339103516401
 31
0.0
  0
LINE
  5
FD
100
AcDbEntity
100
AcDbLine
  8
STANDARD
 62
7
370
-1
  6
ByLayer
 10
-93.860928748766753
 20
12.0516339103516295
 30
0.0
 11
-62.3609287487667814
 21
12.0516339103516295
 31
0.0
  0
LINE
  5
FE
100
AcDbEntity
100
AcDbLine
  8
STANDARD
 62
7
370
-1
  6
ByLayer
 10
-93.860928748766753
 20
30.0516339103516259
 30
0.0
 11
-84.8609287487667814
 21
30.0516339103516259
 31
0.0
  0
LINE
  5
FF
100
AcDbEntity
100
AcDbLine
  8
STANDARD
 62
7
370
-1
  6
ByLayer
 10
-73.6109287487667814
 20
21.0516339103516401
 30
0.0
 11
-71.360928748766753
 21
25.5516339103516188
 31
0.0
  0
LINE
  5
100
100
AcDbEntity
100
AcDbLine
  8
STANDARD
 62
7
370
-1
  6
ByLayer
 10
-62.3609287487667814
 20
12.0516339103516295
 30
0.0
 11
-60.1109287487667459
 21
16.551633910351633
 31
0.0
  0
LINE
  5
101
100
AcDbEntity
100
AcDbLine
  8
STANDARD
 62
7
370
-1
  6
ByLayer
 10
-84.8609287487667814
 20
30.0516339103516259
 30
0.0
 11
-82.610928748766753
 21
34.5516339103516259
 31
0.0
  0
LINE
  5
102
100
AcDbEntity
100
AcDbLine
  8
STANDARD
 62
7
370
-1
  6
ByLayer
 10
-71.360928748766753
 20
25.5516339103516188
 30
0.0
 11
-51.1109287487667814
 21
25.5516339103516188
 31
0.0
  0
LINE
  5
103
100
AcDbEntity
100
AcDbLine
  8
STANDARD
 62
7
370
-1
  6
ByLayer
 10
-60.1109287487667459
 20
16.551633910351633
 30
0.0
 11
-39.8609287487667814
 21
16.551633910351633
 31
0.0
  0
LINE
  5
104
100
AcDbEntity
100
AcDbLine
  8
STANDARD
 62
7
370
-1
  6
ByLayer
 10
-82.610928748766753
 20
34.5516339103516259
 30
0.0
 11
-62.3609287487667814
 21
34.5516339103516259
 31
0.0
  0
LINE
  5
105
100
AcDbEntity
100
AcDbLine
  8
STANDARD
 62
7
370
-1
  6
ByLayer
 10
-51.1109287487667814
 20
25.5516339103516188
 30
0.0
 11
-48.8609287487667459
 21
21.0516339103516401
 31
0.0
  0
LINE
  5
106
100
AcDbEntity
100
AcDbLine
  8
STANDARD
 62
7
370
-1
  6
ByLayer
 10
-39.8609287487667814
 20
16.551633910351633
 30
0.0
 11
-37.6109287487667459
 21
12.0516339103516295
 31
0.0
  0
LINE
  5
107
100
AcDbEntity
100
AcDbLine
  8
STANDARD
 62
7
370
-1
  6
ByLayer
 10
-62.3609287487667814
 20
34.5516339103516259
 30
0.0
 11
-60.1109287487667459
 21
30.0516339103516259
 31
0.0
  0
LINE
  5
108
100
AcDbEntity
100
AcDbLine
  8
STANDARD
 62
7
370
-1
  6
ByLayer
 10
-48.8609287487667459
 20
21.0516339103516401
 30
0.0
 11
-17.3609287487667778
 21
21.0516339103516401
 31
0.0
  0
LINE
  5
109
100
AcDbEntity
100
AcDbLine
  8
STANDARD
 62
7
370
-1
  6
ByLayer
 10
-37.6109287487667459
 20
12.0516339103516295
 30
0.0
 11
-6.1109287487667814
 21
12.0516339103516295
 31
0.0
  0
LINE
  5
10A
100
AcDbEntity
100
AcDbLine
  8
STANDARD
 62
7
370
-1
  6
ByLayer
 10
-60.1109287487667459
 20
30.0516339103516259
 30
0.0
 11
-28.6109287487667778
 21
30.0516339103516259
 31
0.0
  0
LINE
  5
10B
100
AcDbEntity
100
AcDbLine
  8
STANDARD
 62
7
370
-1
  6
ByLayer
 10
-17.3609287487667778
 20
21.0516339103516401
 30
0.0
 11
-15.1109287487667459
 21
25.5516339103516188
 31
0.0
  0
LINE
  5
10C
100
AcDbEntity
100
AcDbLine
  8
STANDARD
 62
7
370
-1
  6
ByLayer
 10
-6.1109287487667814
 20
12.0516339103516295
 30
0.0
 11
-3.8609287487667459
 21
16.551633910351633
 31
0.0
  0
LINE
  5
10D
100
AcDbEntity
100
AcDbLine
  8
STANDARD
 62
7
370
-1
  6
ByLayer
 10
-28.6109287487667778
 20
30.0516339103516259
 30
0.0
 11
-26.3609287487667459
 21
34.5516339103516259
 31
0.0
  0
LINE
  5
10E
100
AcDbEntity
100
AcDbLine
  8
STANDARD
 62
7
370
-1
  6
ByLayer
 10
-15.1109287487667459
 20
25.5516339103516188
 30
0.0
 11
5.1390712512332186
 21
25.5516339103516188
 31
0.0
  0
LINE
  5
10F
100
AcDbEntity
100
AcDbLine
  8
STANDARD
 62
7
370
-1
  6
ByLayer
 10
-3.8609287487667459
 20
16.551633910351633
 30
0.0
 11
16.3890712512332186
 21
16.551633910351633
 31
0.0
  0
LINE
  5
110
100
AcDbEntity
100
AcDbLine
  8
STANDARD
 62
7
370
-1
  6
ByLayer
 10
-26.3609287487667459
 20
34.5516339103516259
 30
0.0
 11
-6.1109287487667814
 21
34.5516339103516259
 31
0.0
  0
LINE
  5
111
100
AcDbEntity
100
AcDbLine
  8
STANDARD
 62
7
370
-1
  6
ByLayer
 10
5.1390712512332186
 20
25.5516339103516188
 30
0.0
 11
7.3890712512332541
 21
21.0516339103516401
 31
0.0
  0
LINE
  5
112
100
AcDbEntity
100
AcDbLine
  8
STANDARD
 62
7
370
-1
  6
ByLayer
 10
16.3890712512332186
 20
16.551633910351633
 30
0.0
 11
18.6390712512332541
 21
12.0516339103516295
 31
0.0
  0
LINE
  5
113
100
AcDbEntity
100
AcDbLine
  8
STANDARD
 62
7
370
-1
  6
ByLayer
 10
-6.1109287487667814
 20
34.5516339103516259
 30
0.0
 11
-3.8609287487667459
 21
30.0516339103516259
 31
0.0
  0
LINE
  5
114
100
AcDbEntity
100
AcDbLine
  8
STANDARD
 62
7
370
-1
  6
ByLayer
 10
7.3890712512332541
 20
21.0516339103516401
 30
0.0
 11
27.6390712512332186
 21
21.0516339103516401
 31
0.0
  0
LINE
  5
115
100
AcDbEntity
100
AcDbLine
  8
STANDARD
 62
7
370
-1
  6
ByLayer
 10
18.6390712512332541
 20
12.0516339103516295
 30
0.0
 11
27.6390712512332186
 21
12.0516339103516295
 31
0.0
  0
LINE
  5
116
100
AcDbEntity
100
AcDbLine
  8
STANDARD
 62
7
370
-1
  6
ByLayer
 10
-3.8609287487667459
 20
30.0516339103516259
 30
0.0
 11
27.6390712512332186
 21
30.0516339103516259
 31
0.0
  0
LINE
  5
117
100
AcDbEntity
100
AcDbLine
  8
STANDARD
 62
7
370
-1
  6
ByLayer
 10
-93.860928748766753
 20
-64.4483660896483741
 30
0.0
 11
-73.6109287487667814
 21
-64.4483660896483741
 31
0.0
  0
LINE
  5
118
100
AcDbEntity
100
AcDbLine
  8
STANDARD
 62
7
370
-1
  6
ByLayer
 10
-93.860928748766753
 20
-5.9483660896483652
 30
0.0
 11
-73.6109287487667814
 21
-5.9483660896483652
 31
0.0
  0
LINE
  5
119
100
AcDbEntity
100
AcDbLine
  8
STANDARD
 62
7
370
-1
  6
ByLayer
 10
-73.6109287487667814
 20
-64.4483660896483741
 30
0.0
 11
-71.360928748766753
 21
-68.9483660896483741
 31
0.0
  0
LINE
  5
11A
100
AcDbEntity
100
AcDbLine
  8
STANDARD
 62
7
370
-1
  6
ByLayer
 10
-73.6109287487667814
 20
-5.9483660896483652
 30
0.0
 11
-71.360928748766753
 21
-10.4483660896483705
 31
0.0
  0
LINE
  5
11B
100
AcDbEntity
100
AcDbLine
  8
STANDARD
 62
7
370
-1
  6
ByLayer
 10
-71.360928748766753
 20
-68.9483660896483741
 30
0.0
 11
-17.3609287487667778
 21
-68.9483660896483741
 31
0.0
  0
LINE
  5
11C
100
AcDbEntity
100
AcDbLine
  8
STANDARD
 62
7
370
-1
  6
ByLayer
 10
-71.360928748766753
 20
-10.4483660896483705
 30
0.0
 11
5.1390712512332186
 21
-10.4483660896483705
 31
0.0
  0
LINE
  5
11D
100
AcDbEntity
100
AcDbLine
  8
STANDARD
 62
7
370
-1
  6
ByLayer
 10
-17.3609287487667778
 20
-68.9483660896483741
 30
0.0
 11
-15.1109287487667459
 21
-64.4483660896483741
 31
0.0
  0
LINE
  5
11E
100
AcDbEntity
100
AcDbLine
  8
STANDARD
 62
7
370
-1
  6
ByLayer
 10
5.1390712512332186
 20
-10.4483660896483705
 30
0.0
 11
7.3890712512332541
 21
-5.9483660896483652
 31
0.0
  0
LINE
  5
11F
100
AcDbEntity
100
AcDbLine
  8
STANDARD
 62
7
370
-1
  6
ByLayer
 10
-15.1109287487667459
 20
-64.4483660896483741
 30
0.0
 11
27.6390712512332186
 21
-64.4483660896483741
 31
0.0
  0
LINE
  5
120
100
AcDbEntity
100
AcDbLine
  8
STANDARD
 62
7
370
-1
  6
ByLayer
 10
7.3890712512332541
 20
-5.9483660896483652
 30
0.0
 11
27.6390712512332186
 21
-5.9483660896483652
 31
0.0
  0
LINE
  5
121
100
AcDbEntity
100
AcDbLine
  8
STANDARD
 62
7
370
-1
  6
ByLayer
 10
-93.860928748766753
 20
-86.9483660896483741
 30
0.0
 11
-84.8609287487667814
 21
-86.9483660896483741
 31
0.0
  0
LINE
  5
122
100
AcDbEntity
100
AcDbLine
  8
STANDARD
 62
7
370
-1
  6
ByLayer
 10
-93.860928748766753
 20
-28.448366089648367
 30
0.0
 11
-62.3609287487667814
 21
-28.448366089648367
 31
0.0
  0
LINE
  5
123
100
AcDbEntity
100
AcDbLine
  8
STANDARD
 62
7
370
-1
  6
ByLayer
 10
-93.860928748766753
 20
-95.9483660896483741
 30
0.0
 11
-62.3609287487667814
 21
-95.9483660896483741
 31
0.0
  0
LINE
  5
124
100
AcDbEntity
100
AcDbLine
  8
STANDARD
 62
7
370
-1
  6
ByLayer
 10
-93.860928748766753
 20
-37.4483660896483741
 30
0.0
 11
-39.8609287487667814
 21
-37.4483660896483741
 31
0.0
  0
LINE
  5
125
100
AcDbEntity
100
AcDbLine
  8
STANDARD
 62
7
370
-1
  6
ByLayer
 10
-93.860928748766753
 20
-104.9483660896483741
 30
0.0
 11
-39.8609287487667814
 21
-104.9483660896483741
 31
0.0
  0
LINE
  5
126
100
AcDbEntity
100
AcDbLine
  8
STANDARD
 62
7
370
-1
  6
ByLayer
 10
-93.860928748766753
 20
-46.4483660896483599
 30
0.0
 11
-17.3609287487667778
 21
-46.4483660896483599
 31
0.0
  0
LINE
  5
127
100
AcDbEntity
100
AcDbLine
  8
STANDARD
 62
7
370
-1
  6
ByLayer
 10
-93.860928748766753
 20
-19.4483660896483812
 30
0.0
 11
-84.8609287487667814
 21
-19.4483660896483812
 31
0.0
  0
LINE
  5
128
100
AcDbEntity
100
AcDbLine
  8
STANDARD
 62
7
370
-1
  6
ByLayer
 10
-84.8609287487667814
 20
-86.9483660896483741
 30
0.0
 11
-82.610928748766753
 21
-82.4483660896483741
 31
0.0
  0
LINE
  5
129
100
AcDbEntity
100
AcDbLine
  8
STANDARD
 62
7
370
-1
  6
ByLayer
 10
-62.3609287487667814
 20
-28.448366089648367
 30
0.0
 11
-60.1109287487667459
 21
-23.9483660896483599
 31
0.0
  0
LINE
  5
12A
100
AcDbEntity
100
AcDbLine
  8
STANDARD
 62
7
370
-1
  6
ByLayer
 10
-62.3609287487667814
 20
-95.9483660896483741
 30
0.0
 11
-60.1109287487667459
 21
-91.4483660896483741
 31
0.0
  0
LINE
  5
12B
100
AcDbEntity
100
AcDbLine
  8
STANDARD
 62
7
370
-1
  6
ByLayer
 10
-39.8609287487667814
 20
-37.4483660896483741
 30
0.0
 11
-37.6109287487667459
 21
-32.948366089648367
 31
0.0
  0
LINE
  5
12C
100
AcDbEntity
100
AcDbLine
  8
STANDARD
 62
7
370
-1
  6
ByLayer
 10
-39.8609287487667814
 20
-104.9483660896483741
 30
0.0
 11
-37.6109287487667459
 21
-100.4483660896483741
 31
0.0
  0
LINE
  5
12D
100
AcDbEntity
100
AcDbLine
  8
STANDARD
 62
7
370
-1
  6
ByLayer
 10
-17.3609287487667778
 20
-46.4483660896483599
 30
0.0
 11
-15.1109287487667459
 21
-41.9483660896483812
 31
0.0
  0
LINE
  5
12E
100
AcDbEntity
100
AcDbLine
  8
STANDARD
 62
7
370
-1
  6
ByLayer
 10
-84.8609287487667814
 20
-19.4483660896483812
 30
0.0
 11
-82.610928748766753
 21
-14.9483660896483741
 31
0.0
  0
LINE
  5
12F
100
AcDbEntity
100
AcDbLine
  8
STANDARD
 62
7
370
-1
  6
ByLayer
 10
-82.610928748766753
 20
-82.4483660896483741
 30
0.0
 11
-28.6109287487667778
 21
-82.4483660896483741
 31
0.0
  0
LINE
  5
130
100
AcDbEntity
100
AcDbLine
  8
STANDARD
 62
7
370
-1
  6
ByLayer
 10
-60.1109287487667459
 20
-23.9483660896483599
 30
0.0
 11
-28.6109287487667778
 21
-23.9483660896483599
 31
0.0
  0
LINE
  5
131
100
AcDbEntity
100
AcDbLine
  8
STANDARD
 62
7
370
-1
  6
ByLayer
 10
-60.1109287487667459
 20
-91.4483660896483741
 30
0.0
 11
-6.1109287487667814
 21
-91.4483660896483741
 31
0.0
  0
LINE
  5
132
100
AcDbEntity
100
AcDbLine
  8
STANDARD
 62
7
370
-1
  6
ByLayer
 10
-37.6109287487667459
 20
-32.948366089648367
 30
0.0
 11
-6.1109287487667814
 21
-32.948366089648367
 31
0.0
  0
LINE
  5
133
100
AcDbEntity
100
AcDbLine
  8
STANDARD
 62
7
370
-1
  6
ByLayer
 10
-37.6109287487667459
 20
-100.4483660896483741
 30
0.0
 11
16.3890712512332186
 21
-100.4483660896483741
 31
0.0
  0
LINE
  5
134
100
AcDbEntity
100
AcDbLine
  8
STANDARD
 62
7
370
-1
  6
ByLayer
 10
-15.1109287487667459
 20
-41.9483660896483812
 30
0.0
 11
16.3890712512332186
 21
-41.9483660896483812
 31
0.0
  0
LINE
  5
135
100
AcDbEntity
100
AcDbLine
  8
STANDARD
 62
7
370
-1
  6
ByLayer
 10
-93.860928748766753
 20
-73.4483660896483741
 30
0.0
 11
-51.1109287487667814
 21
-73.4483660896483741
 31
0.0
  0
LINE
  5
136
100
AcDbEntity
100
AcDbLine
  8
STANDARD
 62
7
370
-1
  6
ByLayer
 10
-82.610928748766753
 20
-14.9483660896483741
 30
0.0
 11
-51.1109287487667814
 21
-14.9483660896483741
 31
0.0
  0
LINE
  5
137
100
AcDbEntity
100
AcDbLine
  8
STANDARD
 62
7
370
-1
  6
ByLayer
 10
-28.6109287487667778
 20
-82.4483660896483741
 30
0.0
 11
-26.3609287487667459
 21
-86.9483660896483741
 31
0.0
  0
LINE
  5
138
100
AcDbEntity
100
AcDbLine
  8
STANDARD
 62
7
370
-1
  6
ByLayer
 10
-28.6109287487667778
 20
-23.9483660896483599
 30
0.0
 11
-26.3609287487667459
 21
-28.448366089648367
 31
0.0
  0
LINE
  5
139
100
AcDbEntity
100
AcDbLine
  8
STANDARD
 62
7
370
-1
  6
ByLayer
 10
-6.1109287487667814
 20
-91.4483660896483741
 30
0.0
 11
-3.8609287487667459
 21
-95.9483660896483741
 31
0.0
  0
LINE
  5
13A
100
AcDbEntity
100
AcDbLine
  8
STANDARD
 62
7
370
-1
  6
ByLayer
 10
-6.1109287487667814
 20
-32.948366089648367
 30
0.0
 11
-3.8609287487667459
 21
-37.4483660896483741
 31
0.0
  0
LINE
  5
13B
100
AcDbEntity
100
AcDbLine
  8
STANDARD
 62
7
370
-1
  6
ByLayer
 10
16.3890712512332186
 20
-100.4483660896483741
 30
0.0
 11
18.6390712512332541
 21
-104.9483660896483741
 31
0.0
  0
LINE
  5
13C
100
AcDbEntity
100
AcDbLine
  8
STANDARD
 62
7
370
-1
  6
ByLayer
 10
16.3890712512332186
 20
-41.9483660896483812
 30
0.0
 11
18.6390712512332541
 21
-46.4483660896483599
 31
0.0
  0
LINE
  5
13D
100
AcDbEntity
100
AcDbLine
  8
STANDARD
 62
7
370
-1
  6
ByLayer
 10
-51.1109287487667814
 20
-73.4483660896483741
 30
0.0
 11
-48.8609287487667459
 21
-77.9483660896483741
 31
0.0
  0
LINE
  5
13E
100
AcDbEntity
100
AcDbLine
  8
STANDARD
 62
7
370
-1
  6
ByLayer
 10
-51.1109287487667814
 20
-14.9483660896483741
 30
0.0
 11
-48.8609287487667459
 21
-19.4483660896483812
 31
0.0
  0
LINE
  5
13F
100
AcDbEntity
100
AcDbLine
  8
STANDARD
 62
7
370
-1
  6
ByLayer
 10
-26.3609287487667459
 20
-86.9483660896483741
 30
0.0
 11
27.6390712512332186
 21
-86.9483660896483741
 31
0.0
  0
LINE
  5
140
100
AcDbEntity
100
AcDbLine
  8
STANDARD
 62
7
370
-1
  6
ByLayer
 10
-26.3609287487667459
 20
-28.448366089648367
 30
0.0
 11
27.6390712512332186
 21
-28.448366089648367
 31
0.0
  0
LINE
  5
141
100
AcDbEntity
100
AcDbLine
  8
STANDARD
 62
7
370
-1
  6
ByLayer
 10
-3.8609287487667459
 20
-95.9483660896483741
 30
0.0
 11
27.6390712512332186
 21
-95.9483660896483741
 31
0.0
  0
LINE
  5
142
100
AcDbEntity
100
AcDbLine
  8
STANDARD
 62
7
370
-1
  6
ByLayer
 10
-3.8609287487667459
 20
-37.4483660896483741
 30
0.0
 11
27.6390712512332186
 21
-37.4483660896483741
 31
0.0
  0
LINE
  5
143
100
AcDbEntity
100
AcDbLine
  8
STANDARD
 62
7
370
-1
  6
ByLayer
 10
18.6390712512332541
 20
-104.9483660896483741
 30
0.0
 11
27.6390712512332186
 21
-104.9483660896483741
 31
0.0
  0
LINE
  5
144
100
AcDbEntity
100
AcDbLine
  8
STANDARD
 62
7
370
-1
  6
ByLayer
 10
18.6390712512332541
 20
-46.4483660896483599
 30
0.0
 11
27.6390712512332186
 21
-46.4483660896483599
 31
0.0
  0
LINE
  5
145
100
AcDbEntity
100
AcDbLine
  8
STANDARD
 62
7
370
-1
  6
ByLayer
 10
-48.8609287487667459
 20
-77.9483660896483741
 30
0.0
 11
5.1390712512332186
 21
-77.9483660896483741
 31
0.0
  0
LINE
  5
146
100
AcDbEntity
100
AcDbLine
  8
STANDARD
 62
7
370
-1
  6
ByLayer
 10
-48.8609287487667459
 20
-19.4483660896483812
 30
0.0
 11
27.6390712512332186
 21
-19.4483660896483812
 31
0.0
  0
LINE
  5
147
100
AcDbEntity
100
AcDbLine
  8
STANDARD
 62
7
370
-1
  6
ByLayer
 10
5.1390712512332186
 20
-77.9483660896483741
 30
0.0
 11
7.3890712512332541
 21
-73.4483660896483741
 31
0.0
  0
LINE
  5
148
100
AcDbEntity
100
AcDbLine
  8
STANDARD
 62
7
370
-1
  6
ByLayer
 10
7.3890712512332541
 20
-73.4483660896483741
 30
0.0
 11
27.6390712512332186
 21
-73.4483660896483741
 31
0.0
  0
ENDSEC
  0
SECTION
  2
OBJECTS
  0
DICTIONARY
  5
C
100
AcDbDictionary
280
0
281
1
  3
ACAD_GROUP
350
D
  3
ACAD_LAYOUT
350
1A
  3
ACAD_MLINESTYLE
350
17
  3
ACAD_PLOTSETTINGS
350
19
  3
ACAD_PLOTSTYLENAME
350
E
  3
AcDbVariableDictionary
350
149
  0
DICTIONARY
  5
D
100
AcDbDictionary
280
0
281
1
  0
ACDBDICTIONARYWDFLT
  5
E
100
AcDbDictionary
281
1
  3
Normal
350
F
100
AcDbDictionaryWithDefault
340
F
  0
ACDBPLACEHOLDER
  5
F
  0
DICTIONARY
  5
17
100
AcDbDictionary
280
0
281
1
  3
Standard
350
18
  0
MLINESTYLE
  5
18
100
AcDbMlineStyle
  2
STANDARD
 70
0
  3

 62
256
 51
90.0
 52
90.0
 71
2
 49
0.5
 62
256
  6
BYLAYER
 49
-0.5
 62
256
  6
BYLAYER
  0
DICTIONARY
  5
19
100
AcDbDictionary
280
0
281
1
  0
DICTIONARY
  5
1A
100
AcDbDictionary
281
1
  3
Layout1
350
1E
  3
Layout2
350
26
  3
Model
350
22
  0
LAYOUT
  5
1E
100
AcDbPlotSettings
  1

  2
C:\Program Files\AutoCAD 2002\plotters\DWF ePlot (optimized for plotting).pc3
  4

  6

 40
0.0
 41
0.0
 42
0.0
 43
0.0
 44
0.0
 45
0.0
 46
0.0
 47
0.0
 48
0.0
 49
0.0
140
0.0
141
0.0
142
1.0
143
1.0
 70
688
 72
0
 73
0
 74
5
  7

 75
16
147
1.0
148
0.0
149
0.0
100
AcDbLayout
  1
Layout1
 70
1
 71
1
 10
0.0
 20
0.0
 11
420.0
 21
297.0
 12
0.0
 22
0.0
 32
0.0
 14
100000000000000000000.0
 24
100000000000000000000.0
 34
100000000000000000000.0
 15
-100000000000000000000.0
 25
-100000000000000000000.0
 35
-100000000000000000000.0
146
0.0
 13
0.0
 23
0.0
 33
0.0
 16
1.0
 26
0.0
 36
0.0
 17
0.0
 27
1.0
 37
0.0
 76
0
330
1B
  0
LAYOUT
  5
22
100
AcDbPlotSettings
  1

  2
C:\Program Files\AutoCAD 2002\plotters\DWF ePlot (optimized for plotting).pc3
  4

  6

 40
0.0
 41
0.0
 42
0.0
 43
0.0
 44
0.0
 45
0.0
 46
0.0
 47
0.0
 48
0.0
 49
0.0
140
0.0
141
0.0
142
1.0
143
1.0
 70
1712
 72
0
 73
0
 74
0
  7

 75
0
147
1.0
148
0.0
149
0.0
100
AcDbLayout
  1
Model
 70
1
 71
0
 10
0.0
 20
0.0
 11
12.0
 21
9.0
 12
0.0
 22
0.0
 32
0.0
 14
0.0
 24
0.0
 34
0.0
 15
0.0
 25
0.0
 35
0.0
146
0.0
 13
0.0
 23
0.0
 33
0.0
 16
1.0
 26
0.0
 36
0.0
 17
0.0
 27
1.0
 37
0.0
 76
0
330
1F
  0
LAYOUT
  5
26
100
AcDbPlotSettings
  1

  2
C:\Program Files\AutoCAD 2002\plotters\DWF ePlot (optimized for plotting).pc3
  4

  6

 40
0.0
 41
0.0
 42
0.0
 43
0.0
 44
0.0
 45
0.0
 46
0.0
 47
0.0
 48
0.0
 49
0.0
140
0.0
141
0.0
142
1.0
143
1.0
 70
688
 72
0
 73
0
 74
5
  7

 75
16
147
1.0
148
0.0
149
0.0
100
AcDbLayout
  1
Layout2
 70
1
 71
2
 10
0.0
 20
0.0
 11
12.0
 21
9.0
 12
0.0
 22
0.0
 32
0.0
 14
0.0
 24
0.0
 34
0.0
 15
0.0
 25
0.0
 35
0.0
146
0.0
 13
0.0
 23
0.0
 33
0.0
 16
1.0
 26
0.0
 36
0.0
 17
0.0
 27
1.0
 37
0.0
 76
0
330
23
  0
DICTIONARY
  5
149
100
AcDbDictionary
281
1
  3
DIMASSOC
350
14B
  3
HIDETEXT
350
14A
  0
DICTIONARYVAR
  5
14A
100
DictionaryVariables
280
0
  1
2
  0
DICTIONARYVAR
  5
14B
100
DictionaryVariables
280
0
  1
1
  0
ENDSEC
  0
EOF
