999
dxflib 2.0.4.8
  0
SECTION
  2
HEADER
  9
$ACADVER
  1
AC1015
  9
$HANDSEED
  5
FFFF
  9
$USERR4
 40
0.0
  9
$AXISUNIT
 10
0.0
 20
0.0
 30
0.0
  9
$DIMTAD
 70
0
  9
$VISRETAIN
 70
0
  9
$TILEMODE
 70
1
  9
$SHADEDIF
 70
70
  9
$USERR5
 40
0.0
  9
$UCSYDIR
 10
0.0
 20
1.0
 30
0.0
  9
$ATTREQ
 70
1
  9
$CHAMFERA
 40
0.0
  9
$MENU
  1
acad
  9
$CLAYER
  8
0
  9
$DIMASZ
 40
0.18
  9
$GRIDUNIT
 10
0.0
 20
0.0
  9
$DIMADEC
 70
0
  9
$UCSXDIR
 10
1.0
 20
0.0
 30
0.0
  9
$CHAMFERB
 40
0.0
  9
$TRACEWID
 40
0.05
  9
$REGENMODE
 70
1
  9
$ORTHOMODE
 70
0
  9
$EXTMIN
 10
-25.1999999999999993
 20
5.7000000000000002
 30
0.0
  9
$DIMGAP
 40
0.09
  9
$PUCSYDIR
 10
0.0
 20
1.0
 30
0.0
  9
$ANGBASE
 50
0.0
  9
$USRTIMER
 70
1
  9
$SKETCHINC
 40
0.1
  9
$DIMTFAC
 40
1.0
  9
$DIMSAH
 70
0
  9
$DIMALT
 70
0
  9
$DIMSHO
 70
1
  9
$PUCSXDIR
 10
1.0
 20
0.0
 30
0.0
  9
$SURFTYPE
 70
6
  9
$SPLFRAME
 70
0
  9
$AXISMODE
 70
0
  9
$DIMTSZ
 40
0.0
  9
$LIMMIN
 10
0.0
 20
0.0
  9
$SPLINESEGS
 70
8
  9
$AUPREC
 70
0
  9
$LUNITS
 70
2
  9
$DWGCODEPAGE
  3
dos850
  9
$SURFTAB1
 70
6
  9
$BLIPMODE
 70
1
  9
$UNITMODE
 70
0
  9
$USERI1
 70
0
  9
$SURFTAB2
 70
6
  9
$SKPOLY
 70
0
  9
$ELEVATION
 40
0.0
  9
$DIMCEN
 40
0.09
  9
$DIMRND
 40
0.0
  9
$INSBASE
 10
0.0
 20
0.0
 30
0.0
  9
$DIMEXO
 40
0.0625
  9
$INSUNITS
 70
4
  9
$USERI2
 70
0
  9
$UCSORG
 10
0.0
 20
0.0
 30
0.0
  9
$PELEVATION
 40
0.0
  9
$TEXTSIZE
 40
0.2
  9
$DRAGMODE
 70
2
  9
$FILLMODE
 70
1
  9
$EXTMAX
 10
-10.3000000000000007
 20
23.3999999999999986
 30
0.0
  9
$USERI3
 70
0
  9
$SURFU
 70
6
  9
$ANGDIR
 70
0
  9
$TDUSRTIMER
 40
0.0
  9
$DIMZIN
 70
0
  9
$DIMDLE
 40
0.0
  9
$DIMSCALE
 40
1.0
  9
$DIMLUNIT
 70
2
  9
$WORLDVIEW
 70
1
  9
$USERI4
 70
0
  9
$SURFV
 70
6
  9
$OSMODE
 70
0
  9
$QTEXTMODE
 70
0
  9
$LIMMAX
 10
0.0
 20
0.0
  9
$DIMTXT
 40
0.18
  9
$GRIDMODE
 70
1
  9
$USERI5
 70
0
  9
$HANDLING
 70
1
  9
$PDMODE
 70
0
  9
$LIMCHECK
 70
0
  9
$THICKNESS
 40
0.0
  9
$DIMSE1
 70
0
  9
$DIMLIM
 70
0
  9
$ATTMODE
 70
1
  9
$LUPREC
 70
4
  9
$PEXTMAX
 10
-100000000000000000000.0
 20
-100000000000000000000.0
 30
-100000000000000000000.0
  9
$PEXTMIN
 10
100000000000000000000.0
 20
100000000000000000000.0
 30
100000000000000000000.0
  9
$PUCSORG
 10
0.0
 20
0.0
 30
0.0
  9
$SPLINETYPE
 70
6
  9
$TDINDWG
 40
0.0
  9
$DIMSOXD
 70
0
  9
$DIMLFAC
 40
1.0
  9
$DIMSE2
 70
0
  9
$DIMTOH
 70
1
  9
$CELTYPE
  6
CONTINUOUS
  9
$PLIMCHECK
 70
0
  9
$PLINEWID
 40
0.0
  9
$DIMSTYLE
  2
STANDARD
  9
$DIMTVP
 40
0.0
  9
$DIMASO
 70
1
  9
$DIMTM
 40
0.0
  9
$DIMDLI
 40
0.38
  9
$CECOLOR
 62
256
  9
$PLIMMAX
 10
210.0
 20
297.0
  9
$PLIMMIN
 10
0.0
 20
0.0
  9
$TREEDEPTH
 70
3020
  9
$MAXACTVP
 70
16
  9
$TDUPDATE
 40
0.0
  9
$FILLETRAD
 40
0.0
  9
$DIMCLRT
 70
0
  9
$DIMALTD
 70
2
  9
$DIMTIH
 70
1
  9
$LTSCALE
 40
1.0
  9
$PINSBASE
 10
123.4499999999998039
 20
141.2587336244542939
 30
0.0
  9
$DIMEXE
 40
0.18
  9
$USERR1
 40
0.0
  9
$ATTDIA
 70
0
  9
$PDSIZE
 40
0.0
  9
$DIMCLRD
 70
0
  9
$DIMAUNIT
 70
0
  9
$PSLTSCALE
 70
0
  9
$PLINEGEN
 70
1
  9
$SHADEDGE
 70
3
  9
$USERR2
 40
0.0
  9
$COORDS
 70
0
  9
$TDCREATE
 40
0.0
  9
$DIMCLRE
 70
0
  9
$DIMTOFL
 70
0
  9
$DIMALTF
 40
25.3999999999999986
  9
$DIMTOL
 70
0
  9
$DIMTP
 40
0.0
  9
$TEXTSTYLE
  7
STANDARD
  9
$AUNITS
 70
0
  9
$USERR3
 40
0.0
  9
$DIMTIX
 70
0
  9
$MIRRTEXT
 70
1
  0
ENDSEC
  0
SECTION
  2
TABLES
  0
TABLE
  2
VPORT
  5
8
100
AcDbSymbolTable
 70
1
  0
VPORT
  5
30
100
AcDbSymbolTableRecord
100
AcDbViewportTableRecord
  2
*Active
 70
0
 10
0.0
 20
0.0
 11
1.0
 21
1.0
 12
286.3055555555554861
 22
148.5
 13
0.0
 23
0.0
 14
10.0
 24
10.0
 15
10.0
 25
10.0
 16
0.0
 26
0.0
 36
1.0
 17
0.0
 27
0.0
 37
0.0
 40
297.0
 41
1.92798353909465
 42
50.0
 43
0.0
 44
0.0
 50
0.0
 51
0.0
 71
0
 72
100
 73
1
 74
3
 75
1
 76
1
 77
0
 78
0
281
0
 65
1
110
0.0
120
0.0
130
0.0
111
1.0
121
0.0
131
0.0
112
0.0
122
1.0
132
0.0
 79
0
146
0.0
  0
ENDTAB
  0
TABLE
  2
LTYPE
  5
5
100
AcDbSymbolTable
 70
21
  0
LTYPE
  5
14
100
AcDbSymbolTableRecord
100
AcDbLinetypeTableRecord
  2
ByBlock
 70
0
  3

 72
65
 73
0
 40
0.0
  0
LTYPE
  5
15
100
AcDbSymbolTableRecord
100
AcDbLinetypeTableRecord
  2
ByLayer
 70
0
  3

 72
65
 73
0
 40
0.0
  0
LTYPE
  5
16
100
AcDbSymbolTableRecord
100
AcDbLinetypeTableRecord
  2
CONTINUOUS
 70
0
  3
Solid line
 72
65
 73
0
 40
0.0
  0
LTYPE
  5
31
100
AcDbSymbolTableRecord
100
AcDbLinetypeTableRecord
  2
DOT
 70
0
  3
Dot . . . . . . . . . . . . . . . . . . . . . .
 72
65
 73
2
 40
6.3499999999999996
 49
0.0
 74
0
 49
-6.3499999999999996
 74
0
  0
LTYPE
  5
32
100
AcDbSymbolTableRecord
100
AcDbLinetypeTableRecord
  2
DOT2
 70
0
  3
Dot (.5x) .....................................
 72
65
 73
2
 40
3.1749999999999998
 49
0.0
 74
0
 49
-3.1749999999999998
 74
0
  0
LTYPE
  5
33
100
AcDbSymbolTableRecord
100
AcDbLinetypeTableRecord
  2
DOTX2
 70
0
  3
Dot (2x) .  .  .  .  .  .  .  .  .  .  .  .  .
 72
65
 73
2
 40
12.6999999999999993
 49
0.0
 74
0
 49
-12.6999999999999993
 74
0
  0
LTYPE
  5
34
100
AcDbSymbolTableRecord
100
AcDbLinetypeTableRecord
  2
DASHED
 70
0
  3
Dashed __ __ __ __ __ __ __ __ __ __ __ __ __ _
 72
65
 73
2
 40
19.0500000000000007
 49
12.6999999999999993
 74
0
 49
-6.3499999999999996
 74
0
  0
LTYPE
  5
35
100
AcDbSymbolTableRecord
100
AcDbLinetypeTableRecord
  2
DASHED2
 70
0
  3
Dashed (.5x) _ _ _ _ _ _ _ _ _ _ _ _ _ _ _ _ _
 72
65
 73
2
 40
9.5250000000000004
 49
6.3499999999999996
 74
0
 49
-3.1749999999999998
 74
0
  0
LTYPE
  5
36
100
AcDbSymbolTableRecord
100
AcDbLinetypeTableRecord
  2
DASHEDX2
 70
0
  3
Dashed (2x) ____  ____  ____  ____  ____  ___
 72
65
 73
2
 40
38.1000000000000014
 49
25.3999999999999986
 74
0
 49
-12.6999999999999993
 74
0
  0
LTYPE
  5
37
100
AcDbSymbolTableRecord
100
AcDbLinetypeTableRecord
  2
DASHDOT
 70
0
  3
Dash dot __ . __ . __ . __ . __ . __ . __ . __
 72
65
 73
4
 40
25.3999999999999986
 49
12.6999999999999993
 74
0
 49
-6.3499999999999996
 74
0
 49
0.0
 74
0
 49
-6.3499999999999996
 74
0
  0
LTYPE
  5
38
100
AcDbSymbolTableRecord
100
AcDbLinetypeTableRecord
  2
DASHDOT2
 70
0
  3
Dash dot (.5x) _._._._._._._._._._._._._._._.
 72
65
 73
4
 40
12.6999999999999993
 49
6.3499999999999996
 74
0
 49
-3.1749999999999998
 74
0
 49
0.0
 74
0
 49
-3.1749999999999998
 74
0
  0
LTYPE
  5
39
100
AcDbSymbolTableRecord
100
AcDbLinetypeTableRecord
  2
DASHDOTX2
 70
0
  3
Dash dot (2x) ____  .  ____  .  ____  .  ___
 72
65
 73
4
 40
50.7999999999999972
 49
25.3999999999999986
 74
0
 49
-12.6999999999999993
 74
0
 49
0.0
 74
0
 49
-12.6999999999999993
 74
0
  0
LTYPE
  5
3A
100
AcDbSymbolTableRecord
100
AcDbLinetypeTableRecord
  2
DIVIDE
 70
0
  3
Divide ____ . . ____ . . ____ . . ____ . . ____
 72
65
 73
6
 40
31.75
 49
12.6999999999999993
 74
0
 49
-6.3499999999999996
 74
0
 49
0.0
 74
0
 49
-6.3499999999999996
 74
0
 49
0.0
 74
0
 49
-6.3499999999999996
 74
0
  0
LTYPE
  5
3B
100
AcDbSymbolTableRecord
100
AcDbLinetypeTableRecord
  2
DIVIDE2
 70
0
  3
Divide (.5x) __..__..__..__..__..__..__..__.._
 72
65
 73
6
 40
15.875
 49
6.3499999999999996
 74
0
 49
-3.1749999999999998
 74
0
 49
0.0
 74
0
 49
-3.1749999999999998
 74
0
 49
0.0
 74
0
 49
-3.1749999999999998
 74
0
  0
LTYPE
  5
3C
100
AcDbSymbolTableRecord
100
AcDbLinetypeTableRecord
  2
DIVIDEX2
 70
0
  3
Divide (2x) ________  .  .  ________  .  .  _
 72
65
 73
6
 40
63.5
 49
25.3999999999999986
 74
0
 49
-12.6999999999999993
 74
0
 49
0.0
 74
0
 49
-12.6999999999999993
 74
0
 49
0.0
 74
0
 49
-12.6999999999999993
 74
0
  0
LTYPE
  5
3D
100
AcDbSymbolTableRecord
100
AcDbLinetypeTableRecord
  2
CENTER
 70
0
  3
Center ____ _ ____ _ ____ _ ____ _ ____ _ ____
 72
65
 73
4
 40
50.7999999999999972
 49
31.75
 74
0
 49
-6.3499999999999996
 74
0
 49
6.3499999999999996
 74
0
 49
-6.3499999999999996
 74
0
  0
LTYPE
  5
3E
100
AcDbSymbolTableRecord
100
AcDbLinetypeTableRecord
  2
CENTER2
 70
0
  3
Center (.5x) ___ _ ___ _ ___ _ ___ _ ___ _ ___
 72
65
 73
4
 40
28.5749999999999993
 49
19.0500000000000007
 74
0
 49
-3.1749999999999998
 74
0
 49
3.1749999999999998
 74
0
 49
-3.1749999999999998
 74
0
  0
LTYPE
  5
3F
100
AcDbSymbolTableRecord
100
AcDbLinetypeTableRecord
  2
CENTERX2
 70
0
  3
Center (2x) ________  __  ________  __  _____
 72
65
 73
4
 40
101.5999999999999943
 49
63.5
 74
0
 49
-12.6999999999999993
 74
0
 49
12.6999999999999993
 74
0
 49
-12.6999999999999993
 74
0
  0
LTYPE
  5
40
100
AcDbSymbolTableRecord
100
AcDbLinetypeTableRecord
  2
BORDER
 70
0
  3
Border __ __ . __ __ . __ __ . __ __ . __ __ .
 72
65
 73
6
 40
44.4500000000000028
 49
12.6999999999999993
 74
0
 49
-6.3499999999999996
 74
0
 49
12.6999999999999993
 74
0
 49
-6.3499999999999996
 74
0
 49
0.0
 74
0
 49
-6.3499999999999996
 74
0
  0
LTYPE
  5
41
100
AcDbSymbolTableRecord
100
AcDbLinetypeTableRecord
  2
BORDER2
 70
0
  3
Border (.5x) __.__.__.__.__.__.__.__.__.__.__.
 72
65
 73
6
 40
22.2250000000000014
 49
6.3499999999999996
 74
0
 49
-3.1749999999999998
 74
0
 49
6.3499999999999996
 74
0
 49
-3.1749999999999998
 74
0
 49
0.0
 74
0
 49
-3.1749999999999998
 74
0
  0
LTYPE
  5
42
100
AcDbSymbolTableRecord
100
AcDbLinetypeTableRecord
  2
BORDERX2
 70
0
  3
Border (2x) ____  ____  .  ____  ____  .  ___
 72
65
 73
6
 40
88.9000000000000057
 49
25.3999999999999986
 74
0
 49
-12.6999999999999993
 74
0
 49
25.3999999999999986
 74
0
 49
-12.6999999999999993
 74
0
 49
0.0
 74
0
 49
-12.6999999999999993
 74
0
  0
ENDTAB
  0
TABLE
  2
LAYER
  5
2
100
AcDbSymbolTable
 70
7
  0
LAYER
  5
10
100
AcDbSymbolTableRecord
100
AcDbLayerTableRecord
  2
0
 70
0
 62
7
  6
CONTINUOUS
370
25
390
F
  0
LAYER
  5
43
100
AcDbSymbolTableRecord
100
AcDbLayerTableRecord
  2
MERGE
 70
0
 62
7
  6
CONTINUOUS
390
F
  0
LAYER
  5
44
100
AcDbSymbolTableRecord
100
AcDbLayerTableRecord
  2
STANDARD
 70
0
 62
7
  6
CONTINUOUS
370
25
390
F
  0
LAYER
  5
45
100
AcDbSymbolTableRecord
100
AcDbLayerTableRecord
  2
PINS
 70
0
 62
7
  6
CONTINUOUS
390
F
  0
LAYER
  5
46
100
AcDbSymbolTableRecord
100
AcDbLayerTableRecord
  2
PARAMS
 70
0
 62
7
  6
CONTINUOUS
370
25
390
F
  0
LAYER
  5
47
100
AcDbSymbolTableRecord
100
AcDbLayerTableRecord
  2
OUTLINE
 70
0
 62
7
  6
CONTINUOUS
390
F
  0
LAYER
  5
48
100
AcDbSymbolTableRecord
100
AcDbLayerTableRecord
  2
INTERNALS
 70
0
 62
7
  6
CONTINUOUS
390
F
  0
ENDTAB
  0
TABLE
  2
STYLE
  5
3
100
AcDbSymbolTable
 70
1
  0
STYLE
  5
11
100
AcDbSymbolTableRecord
100
AcDbTextStyleTableRecord
  2
Standard
 70
0
 40
0.0
 41
0.75
 50
0.0
 71
0
 42
2.5
  3
txt
  4

  0
ENDTAB
  0
TABLE
  2
VIEW
  5
6
100
AcDbSymbolTable
 70
0
  0
ENDTAB
  0
TABLE
  2
UCS
  5
7
100
AcDbSymbolTable
 70
0
  0
ENDTAB
  0
TABLE
  2
APPID
  5
9
100
AcDbSymbolTable
 70
1
  0
APPID
  5
12
100
AcDbSymbolTableRecord
100
AcDbRegAppTableRecord
  2
ACAD
 70
0
  0
ENDTAB
  0
TABLE
  2
DIMSTYLE
  5
A
100
AcDbSymbolTable
 70
1
100
AcDbDimStyleTable
 71
0
  0
DIMSTYLE
105
27
100
AcDbSymbolTableRecord
100
AcDbDimStyleTableRecord
  2
Standard
 41
0.18
 42
0.0625
 43
3.75
 44
0.18
 70
0
 73
0
 74
0
 77
1
 78
8
140
0.18
141
2.5
143
0.03937007874016
147
0.09
171
3
172
1
271
2
272
2
274
3
278
44
283
0
284
8
340
11
  0
ENDTAB
  0
TABLE
  2
BLOCK_RECORD
  5
1
100
AcDbSymbolTable
 70
1
  0
BLOCK_RECORD
  5
1F
100
AcDbSymbolTableRecord
100
AcDbBlockTableRecord
  2
*Model_Space
340
22
  0
BLOCK_RECORD
  5
1B
100
AcDbSymbolTableRecord
100
AcDbBlockTableRecord
  2
*Paper_Space
340
1E
  0
BLOCK_RECORD
  5
23
100
AcDbSymbolTableRecord
100
AcDbBlockTableRecord
  2
*Paper_Space0
340
26
  0
ENDTAB
  0
ENDSEC
  0
SECTION
  2
BLOCKS
  0
BLOCK
  5
20
100
AcDbEntity
  8
0
100
AcDbBlockBegin
  2
*Model_Space
 70
0
 10
0.0
 20
0.0
 30
0.0
  3
*Model_Space
  1

  0
ENDBLK
  5
21
100
AcDbEntity
  8
0
100
AcDbBlockEnd
  0
BLOCK
  5
1C
100
AcDbEntity
 67
1
  8
0
100
AcDbBlockBegin
  2
*Paper_Space
 70
0
 10
0.0
 20
0.0
 30
0.0
  3
*Paper_Space
  1

  0
ENDBLK
  5
1D
100
AcDbEntity
 67
1
  8
0
100
AcDbBlockEnd
  0
BLOCK
  5
24
100
AcDbEntity
  8
0
100
AcDbBlockBegin
  2
*Paper_Space0
 70
0
 10
0.0
 20
0.0
 30
0.0
  3
*Paper_Space0
  1

  0
ENDBLK
  5
25
100
AcDbEntity
  8
0
100
AcDbBlockEnd
  0
ENDSEC
  0
SECTION
  2
ENTITIES
  0
LWPOLYLINE
  5
49
  8
0
 62
7
370
-1
  6
ByLayer
100
AcDbEntity
100
AcDbPolyline
 90
8
 70
1
 10
-108.9586899563317388
 20
-74.267685589519786
 10
-108.9586899563317388
 20
-71.8676855895197804
 10
-93.3586899563317303
 20
-71.8676855895197804
 10
-92.1586899563317559
 20
-73.0676855895197832
 10
-93.3586899563317303
 20
-74.267685589519786
 10
-108.9586899563317388
 20
-74.267685589519786
 10
-108.9586899563317388
 20
-74.267685589519786
 10
-108.9586899563317388
 20
-74.267685589519786
  0
LWPOLYLINE
  5
4A
  8
0
 62
7
370
-1
  6
ByLayer
100
AcDbEntity
100
AcDbPolyline
 90
8
 70
1
 10
-108.9586899563317388
 20
-2.2676855895197754
 10
-108.9586899563317388
 20
0.1323144104802161
 10
-93.3586899563317303
 20
0.1323144104802161
 10
-92.1586899563317559
 20
-1.0676855895197797
 10
-93.3586899563317303
 20
-2.2676855895197754
 10
-108.9586899563317388
 20
-2.2676855895197754
 10
-108.9586899563317388
 20
-2.2676855895197754
 10
-108.9586899563317388
 20
-2.2676855895197754
  0
LWPOLYLINE
  5
4B
  8
0
 62
7
370
-1
  6
ByLayer
100
AcDbEntity
100
AcDbPolyline
 90
8
 70
1
 10
-108.9586899563317388
 20
69.732314410480214
 10
-108.9586899563317388
 20
72.1323144104802196
 10
-93.3586899563317303
 20
72.1323144104802196
 10
-92.1586899563317559
 20
70.9323144104802452
 10
-93.3586899563317303
 20
69.732314410480214
 10
-108.9586899563317388
 20
69.732314410480214
 10
-108.9586899563317388
 20
69.732314410480214
 10
-108.9586899563317388
 20
69.732314410480214
  0
MTEXT
  5
4C
100
AcDbEntity
100
AcDbMText
  8
0
 62
7
370
-1
  6
ByLayer
 10
-100.5586899563317473
 20
-73.0676855895197832
 30
0.0
 40
1.2000000000000002
 41
1200.0
 71
5
 72
2
  1
velocity-cmd
  7
STYLE3
 50
0.0
 73
0
 44
1.0
  0
MTEXT
  5
4D
100
AcDbEntity
100
AcDbMText
  8
0
 62
7
370
-1
  6
ByLayer
 10
-100.5586899563317473
 20
-1.0676855895197797
 30
0.0
 40
1.2000000000000002
 41
1200.0
 71
5
 72
2
  1
position-cmd
  7
STYLE3
 50
0.0
 73
0
 44
1.0
  0
MTEXT
  5
4E
100
AcDbEntity
100
AcDbMText
  8
0
 62
7
370
-1
  6
ByLayer
 10
-100.5586899563317473
 20
70.9323144104802452
 30
0.0
 40
1.2000000000000002
 41
1200.0
 71
5
 72
2
  1
position-cmd
  7
STYLE3
 50
0.0
 73
0
 44
1.0
  0
LWPOLYLINE
  5
4F
  8
0
 62
7
370
-1
  6
ByLayer
100
AcDbEntity
100
AcDbPolyline
 90
8
 70
1
 10
68.6413100436682555
 20
-38.2676855895197718
 10
69.8413100436682726
 20
-37.067685589519769
 10
68.6413100436682555
 20
-35.8676855895197804
 10
53.0413100436682896
 20
-35.8676855895197804
 10
53.0413100436682896
 20
-38.2676855895197718
 10
68.6413100436682555
 20
-38.2676855895197718
 10
68.6413100436682555
 20
-38.2676855895197718
 10
68.6413100436682555
 20
-38.2676855895197718
  0
LWPOLYLINE
  5
50
  8
0
 62
7
370
-1
  6
ByLayer
100
AcDbEntity
100
AcDbPolyline
 90
8
 70
1
 10
68.6413100436682555
 20
-49.0676855895197832
 10
69.8413100436682726
 20
-47.8676855895197804
 10
68.6413100436682555
 20
-46.6676855895197775
 10
53.0413100436682896
 20
-46.6676855895197775
 10
53.0413100436682896
 20
-49.0676855895197832
 10
68.6413100436682555
 20
-49.0676855895197832
 10
68.6413100436682555
 20
-49.0676855895197832
 10
68.6413100436682555
 20
-49.0676855895197832
  0
LWPOLYLINE
  5
51
  8
0
 62
7
370
-1
  6
ByLayer
100
AcDbEntity
100
AcDbPolyline
 90
8
 70
1
 10
68.6413100436682555
 20
-45.4676855895197605
 10
69.8413100436682726
 20
-44.2676855895197718
 10
68.6413100436682555
 20
-43.067685589519769
 10
53.0413100436682896
 20
-43.067685589519769
 10
53.0413100436682896
 20
-45.4676855895197605
 10
68.6413100436682555
 20
-45.4676855895197605
 10
68.6413100436682555
 20
-45.4676855895197605
 10
68.6413100436682555
 20
-45.4676855895197605
  0
LWPOLYLINE
  5
52
  8
0
 62
7
370
-1
  6
ByLayer
100
AcDbEntity
100
AcDbPolyline
 90
8
 70
1
 10
68.6413100436682555
 20
26.5323144104802324
 10
69.8413100436682726
 20
27.7323144104802282
 10
68.6413100436682555
 20
28.9323144104802452
 10
53.0413100436682896
 20
28.9323144104802452
 10
53.0413100436682896
 20
26.5323144104802324
 10
68.6413100436682555
 20
26.5323144104802324
 10
68.6413100436682555
 20
26.5323144104802324
 10
68.6413100436682555
 20
26.5323144104802324
  0
LWPOLYLINE
  5
53
  8
0
 62
7
370
-1
  6
ByLayer
100
AcDbEntity
100
AcDbPolyline
 90
8
 70
1
 10
68.6413100436682555
 20
98.5323144104802111
 10
69.8413100436682726
 20
99.7323144104802282
 10
68.6413100436682555
 20
100.9323144104802452
 10
53.0413100436682896
 20
100.9323144104802452
 10
53.0413100436682896
 20
98.5323144104802111
 10
68.6413100436682555
 20
98.5323144104802111
 10
68.6413100436682555
 20
98.5323144104802111
 10
68.6413100436682555
 20
98.5323144104802111
  0
LWPOLYLINE
  5
54
  8
0
 62
7
370
-1
  6
ByLayer
100
AcDbEntity
100
AcDbPolyline
 90
8
 70
1
 10
68.6413100436682555
 20
-34.6676855895197633
 10
69.8413100436682726
 20
-33.4676855895197605
 10
68.6413100436682555
 20
-32.2676855895197718
 10
53.0413100436682896
 20
-32.2676855895197718
 10
53.0413100436682896
 20
-34.6676855895197633
 10
68.6413100436682555
 20
-34.6676855895197633
 10
68.6413100436682555
 20
-34.6676855895197633
 10
68.6413100436682555
 20
-34.6676855895197633
  0
LWPOLYLINE
  5
55
  8
0
 62
7
370
-1
  6
ByLayer
100
AcDbEntity
100
AcDbPolyline
 90
8
 70
1
 10
68.6413100436682555
 20
-41.8676855895197662
 10
69.8413100436682726
 20
-40.6676855895197633
 10
68.6413100436682555
 20
-39.4676855895197605
 10
53.0413100436682896
 20
-39.4676855895197605
 10
53.0413100436682896
 20
-41.8676855895197662
 10
68.6413100436682555
 20
-41.8676855895197662
 10
68.6413100436682555
 20
-41.8676855895197662
 10
68.6413100436682555
 20
-41.8676855895197662
  0
LWPOLYLINE
  5
56
  8
0
 62
7
370
-1
  6
ByLayer
100
AcDbEntity
100
AcDbPolyline
 90
8
 70
1
 10
68.6413100436682555
 20
33.7323144104802282
 10
69.8413100436682726
 20
34.9323144104802452
 10
68.6413100436682555
 20
36.1323144104802196
 10
53.0413100436682896
 20
36.1323144104802196
 10
53.0413100436682896
 20
33.7323144104802282
 10
68.6413100436682555
 20
33.7323144104802282
 10
68.6413100436682555
 20
33.7323144104802282
 10
68.6413100436682555
 20
33.7323144104802282
  0
LWPOLYLINE
  5
57
  8
0
 62
7
370
-1
  6
ByLayer
100
AcDbEntity
100
AcDbPolyline
 90
8
 70
1
 10
68.6413100436682555
 20
105.7323144104802282
 10
69.8413100436682726
 20
106.9323144104802452
 10
68.6413100436682555
 20
108.1323144104802196
 10
53.0413100436682896
 20
108.1323144104802196
 10
53.0413100436682896
 20
105.7323144104802282
 10
68.6413100436682555
 20
105.7323144104802282
 10
68.6413100436682555
 20
105.7323144104802282
 10
68.6413100436682555
 20
105.7323144104802282
  0
LWPOLYLINE
  5
58
  8
0
 62
7
370
-1
  6
ByLayer
100
AcDbEntity
100
AcDbPolyline
 90
8
 70
1
 10
-107.7586899563317502
 20
-38.2676855895197718
 10
-108.9586899563317388
 20
-37.067685589519769
 10
-107.7586899563317502
 20
-35.8676855895197804
 10
-92.1586899563317559
 20
-35.8676855895197804
 10
-92.1586899563317559
 20
-38.2676855895197718
 10
-107.7586899563317502
 20
-38.2676855895197718
 10
-107.7586899563317502
 20
-38.2676855895197718
 10
-107.7586899563317502
 20
-38.2676855895197718
  0
LWPOLYLINE
  5
59
  8
0
 62
7
370
-1
  6
ByLayer
100
AcDbEntity
100
AcDbPolyline
 90
8
 70
1
 10
-107.7586899563317502
 20
33.7323144104802282
 10
-108.9586899563317388
 20
34.9323144104802452
 10
-107.7586899563317502
 20
36.1323144104802196
 10
-92.1586899563317559
 20
36.1323144104802196
 10
-92.1586899563317559
 20
33.7323144104802282
 10
-107.7586899563317502
 20
33.7323144104802282
 10
-107.7586899563317502
 20
33.7323144104802282
 10
-107.7586899563317502
 20
33.7323144104802282
  0
LWPOLYLINE
  5
5A
  8
0
 62
7
370
-1
  6
ByLayer
100
AcDbEntity
100
AcDbPolyline
 90
8
 70
1
 10
-107.7586899563317502
 20
105.7323144104802282
 10
-108.9586899563317388
 20
106.9323144104802452
 10
-107.7586899563317502
 20
108.1323144104802196
 10
-92.1586899563317559
 20
108.1323144104802196
 10
-92.1586899563317559
 20
105.7323144104802282
 10
-107.7586899563317502
 20
105.7323144104802282
 10
-107.7586899563317502
 20
105.7323144104802282
 10
-107.7586899563317502
 20
105.7323144104802282
  0
LWPOLYLINE
  5
5B
  8
0
 62
7
370
-1
  6
ByLayer
100
AcDbEntity
100
AcDbPolyline
 90
8
 70
1
 10
-107.7586899563317502
 20
-43.067685589519769
 10
-108.9586899563317388
 20
-41.8676855895197662
 10
-107.7586899563317502
 20
-40.6676855895197633
 10
-92.1586899563317559
 20
-40.6676855895197633
 10
-92.1586899563317559
 20
-43.067685589519769
 10
-107.7586899563317502
 20
-43.067685589519769
 10
-107.7586899563317502
 20
-43.067685589519769
 10
-107.7586899563317502
 20
-43.067685589519769
  0
LWPOLYLINE
  5
5C
  8
0
 62
7
370
-1
  6
ByLayer
100
AcDbEntity
100
AcDbPolyline
 90
8
 70
1
 10
-107.7586899563317502
 20
28.9323144104802452
 10
-108.9586899563317388
 20
30.1323144104802196
 10
-107.7586899563317502
 20
31.3323144104802367
 10
-92.1586899563317559
 20
31.3323144104802367
 10
-92.1586899563317559
 20
28.9323144104802452
 10
-107.7586899563317502
 20
28.9323144104802452
 10
-107.7586899563317502
 20
28.9323144104802452
 10
-107.7586899563317502
 20
28.9323144104802452
  0
LWPOLYLINE
  5
5D
  8
0
 62
7
370
-1
  6
ByLayer
100
AcDbEntity
100
AcDbPolyline
 90
8
 70
1
 10
-107.7586899563317502
 20
100.9323144104802452
 10
-108.9586899563317388
 20
102.1323144104802196
 10
-107.7586899563317502
 20
103.3323144104802367
 10
-92.1586899563317559
 20
103.3323144104802367
 10
-92.1586899563317559
 20
100.9323144104802452
 10
-107.7586899563317502
 20
100.9323144104802452
 10
-107.7586899563317502
 20
100.9323144104802452
 10
-107.7586899563317502
 20
100.9323144104802452
  0
MTEXT
  5
5E
100
AcDbEntity
100
AcDbMText
  8
0
 62
7
370
-1
  6
ByLayer
 10
61.4413100436682669
 20
-37.067685589519769
 30
0.0
 40
1.2000000000000002
 41
1200.0
 71
5
 72
2
  1
phase-B
  7
STYLE3
 50
0.0
 73
0
 44
1.0
  0
MTEXT
  5
5F
100
AcDbEntity
100
AcDbMText
  8
0
 62
7
370
-1
  6
ByLayer
 10
61.4413100436682669
 20
-47.8676855895197804
 30
0.0
 40
1.2000000000000002
 41
1200.0
 71
5
 72
2
  1
phase-E
  7
STYLE3
 50
0.0
 73
0
 44
1.0
  0
MTEXT
  5
60
100
AcDbEntity
100
AcDbMText
  8
0
 62
7
370
-1
  6
ByLayer
 10
61.4413100436682669
 20
-44.2676855895197718
 30
0.0
 40
1.2000000000000002
 41
1200.0
 71
5
 72
2
  1
phase-D
  7
STYLE3
 50
0.0
 73
0
 44
1.0
  0
MTEXT
  5
61
100
AcDbEntity
100
AcDbMText
  8
0
 62
7
370
-1
  6
ByLayer
 10
61.4413100436682669
 20
27.7323144104802282
 30
0.0
 40
1.2000000000000002
 41
1200.0
 71
5
 72
2
  1
down
  7
STYLE3
 50
0.0
 73
0
 44
1.0
  0
MTEXT
  5
62
100
AcDbEntity
100
AcDbMText
  8
0
 62
7
370
-1
  6
ByLayer
 10
61.4413100436682669
 20
99.7323144104802282
 30
0.0
 40
1.2000000000000002
 41
1200.0
 71
5
 72
2
  1
step
  7
STYLE3
 50
0.0
 73
0
 44
1.0
  0
MTEXT
  5
63
100
AcDbEntity
100
AcDbMText
  8
0
 62
7
370
-1
  6
ByLayer
 10
61.4413100436682669
 20
-33.4676855895197605
 30
0.0
 40
1.2000000000000002
 41
1200.0
 71
5
 72
2
  1
phase-A
  7
STYLE3
 50
0.0
 73
0
 44
1.0
  0
MTEXT
  5
64
100
AcDbEntity
100
AcDbMText
  8
0
 62
7
370
-1
  6
ByLayer
 10
61.4413100436682669
 20
-40.6676855895197633
 30
0.0
 40
1.2000000000000002
 41
1200.0
 71
5
 72
2
  1
phase-C
  7
STYLE3
 50
0.0
 73
0
 44
1.0
  0
MTEXT
  5
65
100
AcDbEntity
100
AcDbMText
  8
0
 62
7
370
-1
  6
ByLayer
 10
61.4413100436682669
 20
34.9323144104802452
 30
0.0
 40
1.2000000000000002
 41
1200.0
 71
5
 72
2
  1
up
  7
STYLE3
 50
0.0
 73
0
 44
1.0
  0
MTEXT
  5
66
100
AcDbEntity
100
AcDbMText
  8
0
 62
7
370
-1
  6
ByLayer
 10
61.4413100436682669
 20
106.9323144104802452
 30
0.0
 40
1.2000000000000002
 41
1200.0
 71
5
 72
2
  1
dir
  7
STYLE3
 50
0.0
 73
0
 44
1.0
  0
MTEXT
  5
67
100
AcDbEntity
100
AcDbMText
  8
0
 62
7
370
-1
  6
ByLayer
 10
-56.7251619563317462
 20
5.2132704104802201
 30
0.0
 40
1.2000000000000002
 41
1200.0
 71
5
 72
2
  1
pos\~err
  7
STYLE3
 50
0.0
 73
0
 44
1.0
  0
MTEXT
  5
68
100
AcDbEntity
100
AcDbMText
  8
0
 62
7
370
-1
  6
ByLayer
 10
-56.7251619563317462
 20
77.2132704104802059
 30
0.0
 40
1.2000000000000002
 41
1200.0
 71
5
 72
2
  1
pos\~err
  7
STYLE3
 50
0.0
 73
0
 44
1.0
  0
MTEXT
  5
69
100
AcDbEntity
100
AcDbMText
  8
0
 62
7
370
-1
  6
ByLayer
 10
-56.6291499563317302
 20
-4.3887695895197751
 30
0.0
 40
1.2000000000000002
 41
1200.0
 71
5
 72
2
  1
vel\~err
  7
STYLE3
 50
0.0
 73
0
 44
1.0
  0
MTEXT
  5
6A
100
AcDbEntity
100
AcDbMText
  8
0
 62
7
370
-1
  6
ByLayer
 10
-56.6291499563317302
 20
67.6112304104802462
 30
0.0
 40
1.2000000000000002
 41
1200.0
 71
5
 72
2
  1
vel\~err
  7
STYLE3
 50
0.0
 73
0
 44
1.0
  0
MTEXT
  5
6B
100
AcDbEntity
100
AcDbMText
  8
0
 62
7
370
-1
  6
ByLayer
 10
-99.3586899563317303
 20
-37.067685589519769
 30
0.0
 40
1.2000000000000002
 41
1200.0
 71
5
 72
2
  1
counts
  7
STYLE3
 50
0.0
 73
0
 44
1.0
  0
MTEXT
  5
6C
100
AcDbEntity
100
AcDbMText
  8
0
 62
7
370
-1
  6
ByLayer
 10
-99.3586899563317303
 20
34.9323144104802452
 30
0.0
 40
1.2000000000000002
 41
1200.0
 71
5
 72
2
  1
counts
  7
STYLE3
 50
0.0
 73
0
 44
1.0
  0
MTEXT
  5
6D
100
AcDbEntity
100
AcDbMText
  8
0
 62
7
370
-1
  6
ByLayer
 10
-99.3586899563317303
 20
106.9323144104802452
 30
0.0
 40
1.2000000000000002
 41
1200.0
 71
5
 72
2
  1
counts
  7
STYLE3
 50
0.0
 73
0
 44
1.0
  0
MTEXT
  5
6E
100
AcDbEntity
100
AcDbMText
  8
0
 62
7
370
-1
  6
ByLayer
 10
-99.3586899563317303
 20
-41.8676855895197662
 30
0.0
 40
1.2000000000000002
 41
1200.0
 71
5
 72
2
  1
position-fb
  7
STYLE3
 50
0.0
 73
0
 44
1.0
  0
MTEXT
  5
6F
100
AcDbEntity
100
AcDbMText
  8
0
 62
7
370
-1
  6
ByLayer
 10
-99.3586899563317303
 20
30.1323144104802196
 30
0.0
 40
1.2000000000000002
 41
1200.0
 71
5
 72
2
  1
position-fb
  7
STYLE3
 50
0.0
 73
0
 44
1.0
  0
MTEXT
  5
70
100
AcDbEntity
100
AcDbMText
  8
0
 62
7
370
-1
  6
ByLayer
 10
-99.3586899563317303
 20
102.1323144104802196
 30
0.0
 40
1.2000000000000002
 41
1200.0
 71
5
 72
2
  1
position-fb
  7
STYLE3
 50
0.0
 73
0
 44
1.0
  0
MTEXT
  5
71
100
AcDbEntity
100
AcDbMText
  8
PARAMS
 62
7
370
-1
  6
ByLayer
 10
-46.5586899563317473
 20
-86.2676855895197718
 30
0.0
 40
1.2000000000000002
 41
1200.0
 71
5
 72
2
  1
maxaccel
  7
STYLE3
 50
0.0
 73
0
 44
1.0
  0
MTEXT
  5
72
100
AcDbEntity
100
AcDbMText
  8
PARAMS
 62
7
370
-1
  6
ByLayer
 10
-53.7586899563317502
 20
-14.2676855895197754
 30
0.0
 40
1.2000000000000002
 41
1200.0
 71
5
 72
2
  1
maxaccel
  7
STYLE3
 50
0.0
 73
0
 44
1.0
  0
MTEXT
  5
73
100
AcDbEntity
100
AcDbMText
  8
PARAMS
 62
7
370
-1
  6
ByLayer
 10
-53.7586899563317502
 20
57.7323144104802282
 30
0.0
 40
1.2000000000000002
 41
1200.0
 71
5
 72
2
  1
maxaccel
  7
STYLE3
 50
0.0
 73
0
 44
1.0
  0
MTEXT
  5
74
100
AcDbEntity
100
AcDbMText
  8
PARAMS
 62
7
370
-1
  6
ByLayer
 10
-46.5586899563317473
 20
-82.6676855895197917
 30
0.0
 40
1.2000000000000002
 41
1200.0
 71
5
 72
2
  1
maxfreq
  7
STYLE3
 50
0.0
 73
0
 44
1.0
  0
MTEXT
  5
75
100
AcDbEntity
100
AcDbMText
  8
PARAMS
 62
7
370
-1
  6
ByLayer
 10
-23.7586899563317502
 20
-10.6676855895197598
 30
0.0
 40
1.2000000000000002
 41
1200.0
 71
5
 72
2
  1
maxfreq
  7
STYLE3
 50
0.0
 73
0
 44
1.0
  0
MTEXT
  5
76
100
AcDbEntity
100
AcDbMText
  8
PARAMS
 62
7
370
-1
  6
ByLayer
 10
-23.7586899563317502
 20
61.3323144104802367
 30
0.0
 40
1.2000000000000002
 41
1200.0
 71
5
 72
2
  1
maxfreq
  7
STYLE3
 50
0.0
 73
0
 44
1.0
  0
MTEXT
  5
77
100
AcDbEntity
100
AcDbMText
  8
PARAMS
 62
7
370
-1
  6
ByLayer
 10
14.8594460436682567
 20
-72.165045589519778
 30
0.0
 40
1.2000000000000002
 41
1200.0
 71
5
 72
2
  1
position
  7
STYLE3
 50
0.0
 73
0
 44
1.0
  0
MTEXT
  5
78
100
AcDbEntity
100
AcDbMText
  8
PARAMS
 62
7
370
-1
  6
ByLayer
 10
14.8594460436682567
 20
-0.1650455895197815
 30
0.0
 40
1.2000000000000002
 41
1200.0
 71
5
 72
2
  1
position
  7
STYLE3
 50
0.0
 73
0
 44
1.0
  0
MTEXT
  5
79
100
AcDbEntity
100
AcDbMText
  8
PARAMS
 62
7
370
-1
  6
ByLayer
 10
14.8594460436682567
 20
71.834954410480222
 30
0.0
 40
1.2000000000000002
 41
1200.0
 71
5
 72
2
  1
position
  7
STYLE3
 50
0.0
 73
0
 44
1.0
  0
MTEXT
  5
7A
100
AcDbEntity
100
AcDbMText
  8
PARAMS
 62
7
370
-1
  6
ByLayer
 10
14.8594460436682567
 20
-73.9650455895197751
 30
0.0
 40
1.2000000000000002
 41
1200.0
 71
5
 72
2
  1
accumulator
  7
STYLE3
 50
0.0
 73
0
 44
1.0
  0
MTEXT
  5
7B
100
AcDbEntity
100
AcDbMText
  8
PARAMS
 62
7
370
-1
  6
ByLayer
 10
14.8594460436682567
 20
-1.9650455895197823
 30
0.0
 40
1.2000000000000002
 41
1200.0
 71
5
 72
2
  1
accumulator
  7
STYLE3
 50
0.0
 73
0
 44
1.0
  0
MTEXT
  5
7C
100
AcDbEntity
100
AcDbMText
  8
PARAMS
 62
7
370
-1
  6
ByLayer
 10
14.8594460436682567
 20
70.0349544104802391
 30
0.0
 40
1.2000000000000002
 41
1200.0
 71
5
 72
2
  1
accumulator
  7
STYLE3
 50
0.0
 73
0
 44
1.0
  0
MTEXT
  5
7D
100
AcDbEntity
100
AcDbMText
  8
PARAMS
 62
7
370
-1
  6
ByLayer
 10
36.0247580436682711
 20
-39.7676855895197718
 30
0.0
 40
1.2000000000000002
 41
1200.0
 71
5
 72
2
  1
lookup
  7
STYLE3
 50
0.0
 73
0
 44
1.0
  0
MTEXT
  5
7E
100
AcDbEntity
100
AcDbMText
  8
PARAMS
 62
7
370
-1
  6
ByLayer
 10
36.0247580436682711
 20
-41.567685589519769
 30
0.0
 40
1.2000000000000002
 41
1200.0
 71
5
 72
2
  1
table
  7
STYLE3
 50
0.0
 73
0
 44
1.0
  0
MTEXT
  5
7F
100
AcDbEntity
100
AcDbMText
  8
PARAMS
 62
7
370
-1
  6
ByLayer
 10
-20.1586899563317417
 20
-73.0676855895197832
 30
0.0
 40
1.2000000000000002
 41
1200.0
 71
5
 72
2
  1
ramp
  7
STYLE3
 50
0.0
 73
0
 44
1.0
  0
MTEXT
  5
80
100
AcDbEntity
100
AcDbMText
  8
PARAMS
 62
7
370
-1
  6
ByLayer
 10
2.6413100436682555
 20
-73.0676855895197832
 30
0.0
 40
1.2000000000000002
 41
1200.0
 71
5
 72
2
  1
ramp
  7
STYLE3
 50
0.0
 73
0
 44
1.0
  0
MTEXT
  5
81
100
AcDbEntity
100
AcDbMText
  8
PARAMS
 62
7
370
-1
  6
ByLayer
 10
2.6413100436682555
 20
-1.0676855895197797
 30
0.0
 40
1.2000000000000002
 41
1200.0
 71
5
 72
2
  1
ramp
  7
STYLE3
 50
0.0
 73
0
 44
1.0
  0
MTEXT
  5
82
100
AcDbEntity
100
AcDbMText
  8
PARAMS
 62
7
370
-1
  6
ByLayer
 10
2.6413100436682555
 20
70.9323144104802452
 30
0.0
 40
1.2000000000000002
 41
1200.0
 71
5
 72
2
  1
ramp
  7
STYLE3
 50
0.0
 73
0
 44
1.0
  0
MTEXT
  5
83
100
AcDbEntity
100
AcDbMText
  8
PARAMS
 62
7
370
-1
  6
ByLayer
 10
-45.3586899563317161
 20
-39.4676855895197605
 30
0.0
 40
1.2000000000000002
 41
1200.0
 71
5
 72
2
  1
latch
  7
STYLE3
 50
0.0
 73
0
 44
1.0
  0
MTEXT
  5
84
100
AcDbEntity
100
AcDbMText
  8
PARAMS
 62
7
370
-1
  6
ByLayer
 10
-45.3586899563317161
 20
32.5323144104802111
 30
0.0
 40
1.2000000000000002
 41
1200.0
 71
5
 72
2
  1
latch
  7
STYLE3
 50
0.0
 73
0
 44
1.0
  0
MTEXT
  5
85
100
AcDbEntity
100
AcDbMText
  8
PARAMS
 62
7
370
-1
  6
ByLayer
 10
-45.3586899563317161
 20
104.5323144104802111
 30
0.0
 40
1.2000000000000002
 41
1200.0
 71
5
 72
2
  1
latch
  7
STYLE3
 50
0.0
 73
0
 44
1.0
  0
MTEXT
  5
86
100
AcDbEntity
100
AcDbMText
  8
PARAMS
 62
7
370
-1
  6
ByLayer
 10
36.0247580436682711
 20
-57.1676855895197775
 30
0.0
 40
1.2000000000000002
 41
1200.0
 71
5
 72
2
  1
state
  7
STYLE3
 50
0.0
 73
0
 44
1.0
  0
MTEXT
  5
87
100
AcDbEntity
100
AcDbMText
  8
PARAMS
 62
7
370
-1
  6
ByLayer
 10
36.0247580436682711
 20
14.8323144104802367
 30
0.0
 40
1.2000000000000002
 41
1200.0
 71
5
 72
2
  1
up/down
  7
STYLE3
 50
0.0
 73
0
 44
1.0
  0
MTEXT
  5
88
100
AcDbEntity
100
AcDbMText
  8
PARAMS
 62
7
370
-1
  6
ByLayer
 10
36.0247580436682711
 20
86.8323144104802367
 30
0.0
 40
1.2000000000000002
 41
1200.0
 71
5
 72
2
  1
step/dir
  7
STYLE3
 50
0.0
 73
0
 44
1.0
  0
MTEXT
  5
89
100
AcDbEntity
100
AcDbMText
  8
PARAMS
 62
7
370
-1
  6
ByLayer
 10
36.0247580436682711
 20
-58.9676855895197747
 30
0.0
 40
1.2000000000000002
 41
1200.0
 71
5
 72
2
  1
counter
  7
STYLE3
 50
0.0
 73
0
 44
1.0
  0
MTEXT
  5
8A
100
AcDbEntity
100
AcDbMText
  8
PARAMS
 62
7
370
-1
  6
ByLayer
 10
36.0247580436682711
 20
13.0323144104802306
 30
0.0
 40
1.2000000000000002
 41
1200.0
 71
5
 72
2
  1
logic
  7
STYLE3
 50
0.0
 73
0
 44
1.0
  0
MTEXT
  5
8B
100
AcDbEntity
100
AcDbMText
  8
PARAMS
 62
7
370
-1
  6
ByLayer
 10
36.0247580436682711
 20
85.0323144104802111
 30
0.0
 40
1.2000000000000002
 41
1200.0
 71
5
 72
2
  1
logic
  7
STYLE3
 50
0.0
 73
0
 44
1.0
  0
MTEXT
  5
8C
100
AcDbEntity
100
AcDbMText
  8
PARAMS
 62
7
370
-1
  6
ByLayer
 10
36.0247580436682711
 20
-60.767685589519786
 30
0.0
 40
1.2000000000000002
 41
1200.0
 71
5
 72
2
  1
and
  7
STYLE3
 50
0.0
 73
0
 44
1.0
  0
MTEXT
  5
8D
100
AcDbEntity
100
AcDbMText
  8
PARAMS
 62
7
370
-1
  6
ByLayer
 10
36.0247580436682711
 20
11.2323144104802264
 30
0.0
 40
1.2000000000000002
 41
1200.0
 71
5
 72
2
  1
and
  7
STYLE3
 50
0.0
 73
0
 44
1.0
  0
MTEXT
  5
8E
100
AcDbEntity
100
AcDbMText
  8
PARAMS
 62
7
370
-1
  6
ByLayer
 10
36.0247580436682711
 20
83.232314410480214
 30
0.0
 40
1.2000000000000002
 41
1200.0
 71
5
 72
2
  1
and
  7
STYLE3
 50
0.0
 73
0
 44
1.0
  0
MTEXT
  5
8F
100
AcDbEntity
100
AcDbMText
  8
PARAMS
 62
7
370
-1
  6
ByLayer
 10
36.0247580436682711
 20
-62.5676855895197832
 30
0.0
 40
1.2000000000000002
 41
1200.0
 71
5
 72
2
  1
timing
  7
STYLE3
 50
0.0
 73
0
 44
1.0
  0
MTEXT
  5
90
100
AcDbEntity
100
AcDbMText
  8
PARAMS
 62
7
370
-1
  6
ByLayer
 10
36.0247580436682711
 20
9.4323144104802203
 30
0.0
 40
1.2000000000000002
 41
1200.0
 71
5
 72
2
  1
timing
  7
STYLE3
 50
0.0
 73
0
 44
1.0
  0
MTEXT
  5
91
100
AcDbEntity
100
AcDbMText
  8
PARAMS
 62
7
370
-1
  6
ByLayer
 10
36.0247580436682711
 20
81.4323144104802452
 30
0.0
 40
1.2000000000000002
 41
1200.0
 71
5
 72
2
  1
timing
  7
STYLE3
 50
0.0
 73
0
 44
1.0
  0
MTEXT
  5
92
100
AcDbEntity
100
AcDbMText
  8
PARAMS
 62
7
370
-1
  6
ByLayer
 10
-21.3586899563317161
 20
-61.0676855895197832
 30
0.0
 40
1.2000000000000002
 41
1200.0
 71
5
 72
2
  1
frequency
  7
STYLE3
 50
0.0
 73
0
 44
1.0
  0
MTEXT
  5
93
100
AcDbEntity
100
AcDbMText
  8
PARAMS
 62
7
370
-1
  6
ByLayer
 10
-18.9586899563317388
 20
10.9323144104802221
 30
0.0
 40
1.2000000000000002
 41
1200.0
 71
5
 72
2
  1
frequency
  7
STYLE3
 50
0.0
 73
0
 44
1.0
  0
MTEXT
  5
94
100
AcDbEntity
100
AcDbMText
  8
PARAMS
 62
7
370
-1
  6
ByLayer
 10
-18.9586899563317388
 20
82.9323144104802452
 30
0.0
 40
1.2000000000000002
 41
1200.0
 71
5
 72
2
  1
frequency
  7
STYLE3
 50
0.0
 73
0
 44
1.0
  0
MTEXT
  5
95
100
AcDbEntity
100
AcDbMText
  8
PARAMS
 62
7
370
-1
  6
ByLayer
 10
55.2247580436682597
 20
14.5323144104802306
 30
0.0
 40
1.2000000000000002
 41
1200.0
 71
5
 72
2
  1
stepspace
  7
STYLE3
 50
0.000005
 73
0
 44
1.0
  0
MTEXT
  5
96
100
AcDbEntity
100
AcDbMText
  8
PARAMS
 62
7
370
-1
  6
ByLayer
 10
55.2247580436682597
 20
86.5323144104802111
 30
0.0
 40
1.2000000000000002
 41
1200.0
 71
5
 72
2
  1
stepspace
  7
STYLE3
 50
0.000005
 73
0
 44
1.0
  0
MTEXT
  5
97
100
AcDbEntity
100
AcDbMText
  8
PARAMS
 62
7
370
-1
  6
ByLayer
 10
55.2247580436682597
 20
82.9323144104802452
 30
0.0
 40
1.2000000000000002
 41
1200.0
 71
5
 72
2
  1
dirsetup
  7
STYLE3
 50
0.000005
 73
0
 44
1.0
  0
MTEXT
  5
98
100
AcDbEntity
100
AcDbMText
  8
PARAMS
 62
7
370
-1
  6
ByLayer
 10
55.2247580436682597
 20
-61.0676855895197832
 30
0.0
 40
1.2000000000000002
 41
1200.0
 71
5
 72
2
  1
dirdelay
  7
STYLE3
 50
0.000005
 73
0
 44
1.0
  0
MTEXT
  5
99
100
AcDbEntity
100
AcDbMText
  8
PARAMS
 62
7
370
-1
  6
ByLayer
 10
55.2247580436682597
 20
7.3323144104802349
 30
0.0
 40
1.2000000000000002
 41
1200.0
 71
5
 72
2
  1
dirdelay
  7
STYLE3
 50
0.000005
 73
0
 44
1.0
  0
MTEXT
  5
9A
100
AcDbEntity
100
AcDbMText
  8
PARAMS
 62
7
370
-1
  6
ByLayer
 10
55.2247580436682597
 20
79.3323144104802367
 30
0.0
 40
1.2000000000000002
 41
1200.0
 71
5
 72
2
  1
dirhold
  7
STYLE3
 50
0.000005
 73
0
 44
1.0
  0
MTEXT
  5
9B
100
AcDbEntity
100
AcDbMText
  8
PARAMS
 62
7
370
-1
  6
ByLayer
 10
55.2247580436682597
 20
-57.4676855895197747
 30
0.0
 40
1.2000000000000002
 41
1200.0
 71
5
 72
2
  1
steplen
  7
STYLE3
 50
0.000005
 73
0
 44
1.0
  0
MTEXT
  5
9C
100
AcDbEntity
100
AcDbMText
  8
PARAMS
 62
7
370
-1
  6
ByLayer
 10
55.2247580436682597
 20
18.1323144104802196
 30
0.0
 40
1.2000000000000002
 41
1200.0
 71
5
 72
2
  1
steplen
  7
STYLE3
 50
0.000005
 73
0
 44
1.0
  0
MTEXT
  5
9D
100
AcDbEntity
100
AcDbMText
  8
PARAMS
 62
7
370
-1
  6
ByLayer
 10
55.2247580436682597
 20
90.1323144104802196
 30
0.0
 40
1.2000000000000002
 41
1200.0
 71
5
 72
2
  1
steplen
  7
STYLE3
 50
0.000005
 73
0
 44
1.0
  0
MTEXT
  5
9E
100
AcDbEntity
100
AcDbMText
  8
PARAMS
 62
7
370
-1
  6
ByLayer
 10
17.0413100436682754
 20
-31.0676855895197725
 30
0.0
 40
1.2000000000000002
 41
1200.0
 71
5
 72
2
  1
rawcounts
  7
STYLE3
 50
0.0
 73
0
 44
1.0
  0
MTEXT
  5
9F
100
AcDbEntity
100
AcDbMText
  8
PARAMS
 62
7
370
-1
  6
ByLayer
 10
17.0413100436682754
 20
40.9323144104802452
 30
0.0
 40
1.2000000000000002
 41
1200.0
 71
5
 72
2
  1
rawcounts
  7
STYLE3
 50
0.0
 73
0
 44
1.0
  0
MTEXT
  5
A0
100
AcDbEntity
100
AcDbMText
  8
PARAMS
 62
7
370
-1
  6
ByLayer
 10
17.0413100436682754
 20
112.9323144104802452
 30
0.0
 40
1.2000000000000002
 41
1200.0
 71
5
 72
2
  1
rawcounts
  7
STYLE3
 50
0.0
 73
0
 44
1.0
  0
MTEXT
  5
A1
100
AcDbEntity
100
AcDbMText
  8
PARAMS
 62
7
370
-1
  6
ByLayer
 10
-95.7586899563317644
 20
-64.6676855895197775
 30
0.0
 40
1.2000000000000002
 41
1200.0
 71
5
 72
2
  1
position-scale
  7
STYLE3
 50
0.0
 73
0
 44
1.0
  0
MTEXT
  5
A2
100
AcDbEntity
100
AcDbMText
  8
PARAMS
 62
7
370
-1
  6
ByLayer
 10
-96.9586899563317388
 20
7.3323144104802349
 30
0.0
 40
1.2000000000000002
 41
1200.0
 71
5
 72
2
  1
position-scale
  7
STYLE3
 50
0.0
 73
0
 44
1.0
  0
MTEXT
  5
A3
100
AcDbEntity
100
AcDbMText
  8
PARAMS
 62
7
370
-1
  6
ByLayer
 10
-96.9586899563317388
 20
79.3323144104802367
 30
0.0
 40
1.2000000000000002
 41
1200.0
 71
5
 72
2
  1
position-scale
  7
STYLE3
 50
0.0
 73
0
 44
1.0
  0
LINE
  5
A4
100
AcDbEntity
100
AcDbLine
  8
PARAMS
 62
7
370
-1
  6
ByLayer
 10
-53.7586899563317502
 20
-87.4676855895197747
 30
0.0
 11
-53.7586899563317502
 21
-85.067685589519769
 31
0.0
  0
LINE
  5
A5
100
AcDbEntity
100
AcDbLine
  8
PARAMS
 62
7
370
-1
  6
ByLayer
 10
-60.9586899563317388
 20
-15.467685589519764
 30
0.0
 11
-60.9586899563317388
 21
-13.0676855895197725
 31
0.0
  0
LINE
  5
A6
100
AcDbEntity
100
AcDbLine
  8
PARAMS
 62
7
370
-1
  6
ByLayer
 10
-60.9586899563317388
 20
56.5323144104802111
 30
0.0
 11
-60.9586899563317388
 21
58.9323144104802452
 31
0.0
  0
LINE
  5
A7
100
AcDbEntity
100
AcDbLine
  8
PARAMS
 62
7
370
-1
  6
ByLayer
 10
-53.7586899563317502
 20
-83.8676855895197519
 30
0.0
 11
-53.7586899563317502
 21
-81.4676855895197747
 31
0.0
  0
LINE
  5
A8
100
AcDbEntity
100
AcDbLine
  8
PARAMS
 62
7
370
-1
  6
ByLayer
 10
-30.9586899563317388
 20
-11.8676855895197839
 30
0.0
 11
-30.9586899563317388
 21
-9.467685589519764
 31
0.0
  0
LINE
  5
A9
100
AcDbEntity
100
AcDbLine
  8
PARAMS
 62
7
370
-1
  6
ByLayer
 10
-30.9586899563317388
 20
60.1323144104802196
 30
0.0
 11
-30.9586899563317388
 21
62.5323144104802111
 31
0.0
  0
LINE
  5
AA
100
AcDbEntity
100
AcDbLine
  8
PARAMS
 62
7
370
-1
  6
ByLayer
 10
-28.5586899563317473
 20
-62.267685589519786
 30
0.0
 11
-28.5586899563317473
 21
-59.8676855895197804
 31
0.0
  0
LINE
  5
AB
100
AcDbEntity
100
AcDbLine
  8
PARAMS
 62
7
370
-1
  6
ByLayer
 10
-26.1586899563317417
 20
9.7323144104802264
 30
0.0
 11
-26.1586899563317417
 21
12.1323144104802179
 31
0.0
  0
LINE
  5
AC
100
AcDbEntity
100
AcDbLine
  8
PARAMS
 62
7
370
-1
  6
ByLayer
 10
-26.1586899563317417
 20
81.732314410480214
 30
0.0
 11
-26.1586899563317417
 21
84.1323144104802196
 31
0.0
  0
LINE
  5
AD
100
AcDbEntity
100
AcDbLine
  8
PARAMS
 62
7
370
-1
  6
ByLayer
 10
62.4247580436682483
 20
13.3323144104802349
 30
0.0
 11
62.4247580436682483
 21
15.7323144104802282
 31
0.0
  0
LINE
  5
AE
100
AcDbEntity
100
AcDbLine
  8
PARAMS
 62
7
370
-1
  6
ByLayer
 10
62.4247580436682483
 20
85.3323144104802367
 30
0.0
 11
62.4247580436682483
 21
87.7323144104802282
 31
0.0
  0
LINE
  5
AF
100
AcDbEntity
100
AcDbLine
  8
PARAMS
 62
7
370
-1
  6
ByLayer
 10
62.4247580436682483
 20
81.732314410480214
 30
0.0
 11
62.4247580436682483
 21
84.1323144104802196
 31
0.0
  0
LINE
  5
B0
100
AcDbEntity
100
AcDbLine
  8
PARAMS
 62
7
370
-1
  6
ByLayer
 10
62.4247580436682483
 20
-62.267685589519786
 30
0.0
 11
62.4247580436682483
 21
-59.8676855895197804
 31
0.0
  0
LINE
  5
B1
100
AcDbEntity
100
AcDbLine
  8
PARAMS
 62
7
370
-1
  6
ByLayer
 10
62.4247580436682483
 20
6.1323144104802196
 30
0.0
 11
62.4247580436682483
 21
8.5323144104802324
 31
0.0
  0
LINE
  5
B2
100
AcDbEntity
100
AcDbLine
  8
PARAMS
 62
7
370
-1
  6
ByLayer
 10
62.4247580436682483
 20
78.1323144104802196
 30
0.0
 11
62.4247580436682483
 21
80.5323144104802111
 31
0.0
  0
LINE
  5
B3
100
AcDbEntity
100
AcDbLine
  8
PARAMS
 62
7
370
-1
  6
ByLayer
 10
62.4247580436682483
 20
-58.6676855895197775
 30
0.0
 11
62.4247580436682483
 21
-56.267685589519786
 31
0.0
  0
LINE
  5
B4
100
AcDbEntity
100
AcDbLine
  8
PARAMS
 62
7
370
-1
  6
ByLayer
 10
62.4247580436682483
 20
16.9323144104802239
 30
0.0
 11
62.4247580436682483
 21
19.3323144104802367
 31
0.0
  0
LINE
  5
B5
100
AcDbEntity
100
AcDbLine
  8
PARAMS
 62
7
370
-1
  6
ByLayer
 10
62.4247580436682483
 20
88.9323144104802452
 30
0.0
 11
62.4247580436682483
 21
91.3323144104802367
 31
0.0
  0
LINE
  5
B6
100
AcDbEntity
100
AcDbLine
  8
PARAMS
 62
7
370
-1
  6
ByLayer
 10
9.8413100436682583
 20
-32.2676855895197718
 30
0.0
 11
9.8413100436682583
 21
-29.8676855895197839
 31
0.0
  0
LINE
  5
B7
100
AcDbEntity
100
AcDbLine
  8
PARAMS
 62
7
370
-1
  6
ByLayer
 10
9.8413100436682583
 20
39.7323144104802282
 30
0.0
 11
9.8413100436682583
 21
42.1323144104802196
 31
0.0
  0
LINE
  5
B8
100
AcDbEntity
100
AcDbLine
  8
PARAMS
 62
7
370
-1
  6
ByLayer
 10
9.8413100436682583
 20
111.7323144104802282
 30
0.0
 11
9.8413100436682583
 21
114.1323144104802196
 31
0.0
  0
LINE
  5
B9
100
AcDbEntity
100
AcDbLine
  8
PARAMS
 62
7
370
-1
  6
ByLayer
 10
-102.9586899563317388
 20
-65.8676855895197804
 30
0.0
 11
-102.9586899563317388
 21
-63.4676855895197747
 31
0.0
  0
LINE
  5
BA
100
AcDbEntity
100
AcDbLine
  8
PARAMS
 62
7
370
-1
  6
ByLayer
 10
-104.1586899563317559
 20
6.1323144104802196
 30
0.0
 11
-104.1586899563317559
 21
8.5323144104802324
 31
0.0
  0
LINE
  5
BB
100
AcDbEntity
100
AcDbLine
  8
PARAMS
 62
7
370
-1
  6
ByLayer
 10
-104.1586899563317559
 20
78.1323144104802196
 30
0.0
 11
-104.1586899563317559
 21
80.5323144104802111
 31
0.0
  0
LINE
  5
BC
100
AcDbEntity
100
AcDbLine
  8
PARAMS
 62
7
370
-1
  6
ByLayer
 10
-53.7586899563317502
 20
-85.067685589519769
 30
0.0
 11
-39.3586899563317303
 21
-85.067685589519769
 31
0.0
  0
LINE
  5
BD
100
AcDbEntity
100
AcDbLine
  8
PARAMS
 62
7
370
-1
  6
ByLayer
 10
-60.9586899563317388
 20
-13.0676855895197725
 30
0.0
 11
-46.5586899563317473
 21
-13.0676855895197725
 31
0.0
  0
LINE
  5
BE
100
AcDbEntity
100
AcDbLine
  8
PARAMS
 62
7
370
-1
  6
ByLayer
 10
-60.9586899563317388
 20
58.9323144104802452
 30
0.0
 11
-46.5586899563317473
 21
58.9323144104802452
 31
0.0
  0
LINE
  5
BF
100
AcDbEntity
100
AcDbLine
  8
PARAMS
 62
7
370
-1
  6
ByLayer
 10
-53.7586899563317502
 20
-81.4676855895197747
 30
0.0
 11
-39.3586899563317303
 21
-81.4676855895197747
 31
0.0
  0
LINE
  5
C0
100
AcDbEntity
100
AcDbLine
  8
PARAMS
 62
7
370
-1
  6
ByLayer
 10
-30.9586899563317388
 20
-9.467685589519764
 30
0.0
 11
-16.5586899563317473
 21
-9.467685589519764
 31
0.0
  0
LINE
  5
C1
100
AcDbEntity
100
AcDbLine
  8
PARAMS
 62
7
370
-1
  6
ByLayer
 10
-30.9586899563317388
 20
62.5323144104802111
 30
0.0
 11
-16.5586899563317473
 21
62.5323144104802111
 31
0.0
  0
LINE
  5
C2
100
AcDbEntity
100
AcDbLine
  8
PARAMS
 62
7
370
-1
  6
ByLayer
 10
-28.5586899563317473
 20
-59.8676855895197804
 30
0.0
 11
-14.1586899563317417
 21
-59.8676855895197804
 31
0.0
  0
LINE
  5
C3
100
AcDbEntity
100
AcDbLine
  8
PARAMS
 62
7
370
-1
  6
ByLayer
 10
-26.1586899563317417
 20
12.1323144104802179
 30
0.0
 11
-11.7586899563317502
 21
12.1323144104802179
 31
0.0
  0
LINE
  5
C4
100
AcDbEntity
100
AcDbLine
  8
PARAMS
 62
7
370
-1
  6
ByLayer
 10
-26.1586899563317417
 20
84.1323144104802196
 30
0.0
 11
-11.7586899563317502
 21
84.1323144104802196
 31
0.0
  0
LINE
  5
C5
100
AcDbEntity
100
AcDbLine
  8
PARAMS
 62
7
370
-1
  6
ByLayer
 10
62.4247580436682483
 20
15.7323144104802282
 30
0.0
 11
48.0247580436682711
 21
15.7323144104802282
 31
0.0
  0
LINE
  5
C6
100
AcDbEntity
100
AcDbLine
  8
PARAMS
 62
7
370
-1
  6
ByLayer
 10
62.4247580436682483
 20
87.7323144104802282
 30
0.0
 11
48.0247580436682711
 21
87.7323144104802282
 31
0.0
  0
LINE
  5
C7
100
AcDbEntity
100
AcDbLine
  8
PARAMS
 62
7
370
-1
  6
ByLayer
 10
62.4247580436682483
 20
84.1323144104802196
 30
0.0
 11
48.0247580436682711
 21
84.1323144104802196
 31
0.0
  0
LINE
  5
C8
100
AcDbEntity
100
AcDbLine
  8
PARAMS
 62
7
370
-1
  6
ByLayer
 10
62.4247580436682483
 20
-59.8676855895197804
 30
0.0
 11
48.0247580436682711
 21
-59.8676855895197804
 31
0.0
  0
LINE
  5
C9
100
AcDbEntity
100
AcDbLine
  8
PARAMS
 62
7
370
-1
  6
ByLayer
 10
62.4247580436682483
 20
8.5323144104802324
 30
0.0
 11
48.0247580436682711
 21
8.5323144104802324
 31
0.0
  0
LINE
  5
CA
100
AcDbEntity
100
AcDbLine
  8
PARAMS
 62
7
370
-1
  6
ByLayer
 10
62.4247580436682483
 20
80.5323144104802111
 30
0.0
 11
48.0247580436682711
 21
80.5323144104802111
 31
0.0
  0
LINE
  5
CB
100
AcDbEntity
100
AcDbLine
  8
PARAMS
 62
7
370
-1
  6
ByLayer
 10
62.4247580436682483
 20
-56.267685589519786
 30
0.0
 11
48.0247580436682711
 21
-56.267685589519786
 31
0.0
  0
LINE
  5
CC
100
AcDbEntity
100
AcDbLine
  8
PARAMS
 62
7
370
-1
  6
ByLayer
 10
62.4247580436682483
 20
19.3323144104802367
 30
0.0
 11
48.0247580436682711
 21
19.3323144104802367
 31
0.0
  0
LINE
  5
CD
100
AcDbEntity
100
AcDbLine
  8
PARAMS
 62
7
370
-1
  6
ByLayer
 10
62.4247580436682483
 20
91.3323144104802367
 30
0.0
 11
48.0247580436682711
 21
91.3323144104802367
 31
0.0
  0
LINE
  5
CE
100
AcDbEntity
100
AcDbLine
  8
PARAMS
 62
7
370
-1
  6
ByLayer
 10
9.8413100436682583
 20
-29.8676855895197839
 30
0.0
 11
24.2413100436682782
 21
-29.8676855895197839
 31
0.0
  0
LINE
  5
CF
100
AcDbEntity
100
AcDbLine
  8
PARAMS
 62
7
370
-1
  6
ByLayer
 10
9.8413100436682583
 20
42.1323144104802196
 30
0.0
 11
24.2413100436682782
 21
42.1323144104802196
 31
0.0
  0
LINE
  5
D0
100
AcDbEntity
100
AcDbLine
  8
PARAMS
 62
7
370
-1
  6
ByLayer
 10
9.8413100436682583
 20
114.1323144104802196
 30
0.0
 11
24.2413100436682782
 21
114.1323144104802196
 31
0.0
  0
LINE
  5
D1
100
AcDbEntity
100
AcDbLine
  8
PARAMS
 62
7
370
-1
  6
ByLayer
 10
-102.9586899563317388
 20
-63.4676855895197747
 30
0.0
 11
-88.5586899563317473
 21
-63.4676855895197747
 31
0.0
  0
LINE
  5
D2
100
AcDbEntity
100
AcDbLine
  8
PARAMS
 62
7
370
-1
  6
ByLayer
 10
-104.1586899563317559
 20
8.5323144104802324
 30
0.0
 11
-89.7586899563317644
 21
8.5323144104802324
 31
0.0
  0
LINE
  5
D3
100
AcDbEntity
100
AcDbLine
  8
PARAMS
 62
7
370
-1
  6
ByLayer
 10
-104.1586899563317559
 20
80.5323144104802111
 30
0.0
 11
-89.7586899563317644
 21
80.5323144104802111
 31
0.0
  0
LINE
  5
D4
100
AcDbEntity
100
AcDbLine
  8
PARAMS
 62
7
370
-1
  6
ByLayer
 10
-39.3586899563317303
 20
-85.067685589519769
 30
0.0
 11
-39.3586899563317303
 21
-87.4676855895197747
 31
0.0
  0
LINE
  5
D5
100
AcDbEntity
100
AcDbLine
  8
PARAMS
 62
7
370
-1
  6
ByLayer
 10
-46.5586899563317473
 20
-13.0676855895197725
 30
0.0
 11
-46.5586899563317473
 21
-15.467685589519764
 31
0.0
  0
LINE
  5
D6
100
AcDbEntity
100
AcDbLine
  8
PARAMS
 62
7
370
-1
  6
ByLayer
 10
-46.5586899563317473
 20
58.9323144104802452
 30
0.0
 11
-46.5586899563317473
 21
56.5323144104802111
 31
0.0
  0
LINE
  5
D7
100
AcDbEntity
100
AcDbLine
  8
PARAMS
 62
7
370
-1
  6
ByLayer
 10
-39.3586899563317303
 20
-81.4676855895197747
 30
0.0
 11
-39.3586899563317303
 21
-83.8676855895197519
 31
0.0
  0
LINE
  5
D8
100
AcDbEntity
100
AcDbLine
  8
PARAMS
 62
7
370
-1
  6
ByLayer
 10
-16.5586899563317473
 20
-9.467685589519764
 30
0.0
 11
-16.5586899563317473
 21
-11.8676855895197839
 31
0.0
  0
LINE
  5
D9
100
AcDbEntity
100
AcDbLine
  8
PARAMS
 62
7
370
-1
  6
ByLayer
 10
-16.5586899563317473
 20
62.5323144104802111
 30
0.0
 11
-16.5586899563317473
 21
60.1323144104802196
 31
0.0
  0
LINE
  5
DA
100
AcDbEntity
100
AcDbLine
  8
PARAMS
 62
7
370
-1
  6
ByLayer
 10
-14.1586899563317417
 20
-59.8676855895197804
 30
0.0
 11
-14.1586899563317417
 21
-62.267685589519786
 31
0.0
  0
LINE
  5
DB
100
AcDbEntity
100
AcDbLine
  8
PARAMS
 62
7
370
-1
  6
ByLayer
 10
-11.7586899563317502
 20
12.1323144104802179
 30
0.0
 11
-11.7586899563317502
 21
9.7323144104802264
 31
0.0
  0
LINE
  5
DC
100
AcDbEntity
100
AcDbLine
  8
PARAMS
 62
7
370
-1
  6
ByLayer
 10
-11.7586899563317502
 20
84.1323144104802196
 30
0.0
 11
-11.7586899563317502
 21
81.732314410480214
 31
0.0
  0
LINE
  5
DD
100
AcDbEntity
100
AcDbLine
  8
PARAMS
 62
7
370
-1
  6
ByLayer
 10
48.0247580436682711
 20
15.7323144104802282
 30
0.0
 11
48.0247580436682711
 21
13.3323144104802349
 31
0.0
  0
LINE
  5
DE
100
AcDbEntity
100
AcDbLine
  8
PARAMS
 62
7
370
-1
  6
ByLayer
 10
48.0247580436682711
 20
87.7323144104802282
 30
0.0
 11
48.0247580436682711
 21
85.3323144104802367
 31
0.0
  0
LINE
  5
DF
100
AcDbEntity
100
AcDbLine
  8
PARAMS
 62
7
370
-1
  6
ByLayer
 10
48.0247580436682711
 20
84.1323144104802196
 30
0.0
 11
48.0247580436682711
 21
81.732314410480214
 31
0.0
  0
LINE
  5
E0
100
AcDbEntity
100
AcDbLine
  8
PARAMS
 62
7
370
-1
  6
ByLayer
 10
48.0247580436682711
 20
-59.8676855895197804
 30
0.0
 11
48.0247580436682711
 21
-62.267685589519786
 31
0.0
  0
LINE
  5
E1
100
AcDbEntity
100
AcDbLine
  8
PARAMS
 62
7
370
-1
  6
ByLayer
 10
48.0247580436682711
 20
8.5323144104802324
 30
0.0
 11
48.0247580436682711
 21
6.1323144104802196
 31
0.0
  0
LINE
  5
E2
100
AcDbEntity
100
AcDbLine
  8
PARAMS
 62
7
370
-1
  6
ByLayer
 10
48.0247580436682711
 20
80.5323144104802111
 30
0.0
 11
48.0247580436682711
 21
78.1323144104802196
 31
0.0
  0
LINE
  5
E3
100
AcDbEntity
100
AcDbLine
  8
PARAMS
 62
7
370
-1
  6
ByLayer
 10
48.0247580436682711
 20
-56.267685589519786
 30
0.0
 11
48.0247580436682711
 21
-58.6676855895197775
 31
0.0
  0
LINE
  5
E4
100
AcDbEntity
100
AcDbLine
  8
PARAMS
 62
7
370
-1
  6
ByLayer
 10
48.0247580436682711
 20
19.3323144104802367
 30
0.0
 11
48.0247580436682711
 21
16.9323144104802239
 31
0.0
  0
LINE
  5
E5
100
AcDbEntity
100
AcDbLine
  8
PARAMS
 62
7
370
-1
  6
ByLayer
 10
48.0247580436682711
 20
91.3323144104802367
 30
0.0
 11
48.0247580436682711
 21
88.9323144104802452
 31
0.0
  0
LINE
  5
E6
100
AcDbEntity
100
AcDbLine
  8
PARAMS
 62
7
370
-1
  6
ByLayer
 10
24.2413100436682782
 20
-29.8676855895197839
 30
0.0
 11
24.2413100436682782
 21
-32.2676855895197718
 31
0.0
  0
LINE
  5
E7
100
AcDbEntity
100
AcDbLine
  8
PARAMS
 62
7
370
-1
  6
ByLayer
 10
24.2413100436682782
 20
42.1323144104802196
 30
0.0
 11
24.2413100436682782
 21
39.7323144104802282
 31
0.0
  0
LINE
  5
E8
100
AcDbEntity
100
AcDbLine
  8
PARAMS
 62
7
370
-1
  6
ByLayer
 10
24.2413100436682782
 20
114.1323144104802196
 30
0.0
 11
24.2413100436682782
 21
111.7323144104802282
 31
0.0
  0
LINE
  5
E9
100
AcDbEntity
100
AcDbLine
  8
PARAMS
 62
7
370
-1
  6
ByLayer
 10
-88.5586899563317473
 20
-63.4676855895197747
 30
0.0
 11
-88.5586899563317473
 21
-65.8676855895197804
 31
0.0
  0
LINE
  5
EA
100
AcDbEntity
100
AcDbLine
  8
PARAMS
 62
7
370
-1
  6
ByLayer
 10
-89.7586899563317644
 20
8.5323144104802324
 30
0.0
 11
-89.7586899563317644
 21
6.1323144104802196
 31
0.0
  0
LINE
  5
EB
100
AcDbEntity
100
AcDbLine
  8
PARAMS
 62
7
370
-1
  6
ByLayer
 10
-89.7586899563317644
 20
80.5323144104802111
 30
0.0
 11
-89.7586899563317644
 21
78.1323144104802196
 31
0.0
  0
LINE
  5
EC
100
AcDbEntity
100
AcDbLine
  8
PARAMS
 62
7
370
-1
  6
ByLayer
 10
-39.3586899563317303
 20
-87.4676855895197747
 30
0.0
 11
-53.7586899563317502
 21
-87.4676855895197747
 31
0.0
  0
LINE
  5
ED
100
AcDbEntity
100
AcDbLine
  8
PARAMS
 62
7
370
-1
  6
ByLayer
 10
-46.5586899563317473
 20
-15.467685589519764
 30
0.0
 11
-60.9586899563317388
 21
-15.467685589519764
 31
0.0
  0
LINE
  5
EE
100
AcDbEntity
100
AcDbLine
  8
PARAMS
 62
7
370
-1
  6
ByLayer
 10
-46.5586899563317473
 20
56.5323144104802111
 30
0.0
 11
-60.9586899563317388
 21
56.5323144104802111
 31
0.0
  0
LINE
  5
EF
100
AcDbEntity
100
AcDbLine
  8
PARAMS
 62
7
370
-1
  6
ByLayer
 10
-39.3586899563317303
 20
-83.8676855895197519
 30
0.0
 11
-53.7586899563317502
 21
-83.8676855895197519
 31
0.0
  0
LINE
  5
F0
100
AcDbEntity
100
AcDbLine
  8
PARAMS
 62
7
370
-1
  6
ByLayer
 10
-16.5586899563317473
 20
-11.8676855895197839
 30
0.0
 11
-30.9586899563317388
 21
-11.8676855895197839
 31
0.0
  0
LINE
  5
F1
100
AcDbEntity
100
AcDbLine
  8
PARAMS
 62
7
370
-1
  6
ByLayer
 10
-16.5586899563317473
 20
60.1323144104802196
 30
0.0
 11
-30.9586899563317388
 21
60.1323144104802196
 31
0.0
  0
LINE
  5
F2
100
AcDbEntity
100
AcDbLine
  8
PARAMS
 62
7
370
-1
  6
ByLayer
 10
-14.1586899563317417
 20
-62.267685589519786
 30
0.0
 11
-28.5586899563317473
 21
-62.267685589519786
 31
0.0
  0
LINE
  5
F3
100
AcDbEntity
100
AcDbLine
  8
PARAMS
 62
7
370
-1
  6
ByLayer
 10
-11.7586899563317502
 20
9.7323144104802264
 30
0.0
 11
-26.1586899563317417
 21
9.7323144104802264
 31
0.0
  0
LINE
  5
F4
100
AcDbEntity
100
AcDbLine
  8
PARAMS
 62
7
370
-1
  6
ByLayer
 10
-11.7586899563317502
 20
81.732314410480214
 30
0.0
 11
-26.1586899563317417
 21
81.732314410480214
 31
0.0
  0
LINE
  5
F5
100
AcDbEntity
100
AcDbLine
  8
PARAMS
 62
7
370
-1
  6
ByLayer
 10
48.0247580436682711
 20
13.3323144104802349
 30
0.0
 11
62.4247580436682483
 21
13.3323144104802349
 31
0.0
  0
LINE
  5
F6
100
AcDbEntity
100
AcDbLine
  8
PARAMS
 62
7
370
-1
  6
ByLayer
 10
48.0247580436682711
 20
85.3323144104802367
 30
0.0
 11
62.4247580436682483
 21
85.3323144104802367
 31
0.0
  0
LINE
  5
F7
100
AcDbEntity
100
AcDbLine
  8
PARAMS
 62
7
370
-1
  6
ByLayer
 10
48.0247580436682711
 20
81.732314410480214
 30
0.0
 11
62.4247580436682483
 21
81.732314410480214
 31
0.0
  0
LINE
  5
F8
100
AcDbEntity
100
AcDbLine
  8
PARAMS
 62
7
370
-1
  6
ByLayer
 10
48.0247580436682711
 20
-62.267685589519786
 30
0.0
 11
62.4247580436682483
 21
-62.267685589519786
 31
0.0
  0
LINE
  5
F9
100
AcDbEntity
100
AcDbLine
  8
PARAMS
 62
7
370
-1
  6
ByLayer
 10
48.0247580436682711
 20
6.1323144104802196
 30
0.0
 11
62.4247580436682483
 21
6.1323144104802196
 31
0.0
  0
LINE
  5
FA
100
AcDbEntity
100
AcDbLine
  8
PARAMS
 62
7
370
-1
  6
ByLayer
 10
48.0247580436682711
 20
78.1323144104802196
 30
0.0
 11
62.4247580436682483
 21
78.1323144104802196
 31
0.0
  0
LINE
  5
FB
100
AcDbEntity
100
AcDbLine
  8
PARAMS
 62
7
370
-1
  6
ByLayer
 10
48.0247580436682711
 20
-58.6676855895197775
 30
0.0
 11
62.4247580436682483
 21
-58.6676855895197775
 31
0.0
  0
LINE
  5
FC
100
AcDbEntity
100
AcDbLine
  8
PARAMS
 62
7
370
-1
  6
ByLayer
 10
48.0247580436682711
 20
16.9323144104802239
 30
0.0
 11
62.4247580436682483
 21
16.9323144104802239
 31
0.0
  0
LINE
  5
FD
100
AcDbEntity
100
AcDbLine
  8
PARAMS
 62
7
370
-1
  6
ByLayer
 10
48.0247580436682711
 20
88.9323144104802452
 30
0.0
 11
62.4247580436682483
 21
88.9323144104802452
 31
0.0
  0
LINE
  5
FE
100
AcDbEntity
100
AcDbLine
  8
PARAMS
 62
7
370
-1
  6
ByLayer
 10
24.2413100436682782
 20
-32.2676855895197718
 30
0.0
 11
9.8413100436682583
 21
-32.2676855895197718
 31
0.0
  0
LINE
  5
FF
100
AcDbEntity
100
AcDbLine
  8
PARAMS
 62
7
370
-1
  6
ByLayer
 10
24.2413100436682782
 20
39.7323144104802282
 30
0.0
 11
9.8413100436682583
 21
39.7323144104802282
 31
0.0
  0
LINE
  5
100
100
AcDbEntity
100
AcDbLine
  8
PARAMS
 62
7
370
-1
  6
ByLayer
 10
24.2413100436682782
 20
111.7323144104802282
 30
0.0
 11
9.8413100436682583
 21
111.7323144104802282
 31
0.0
  0
LINE
  5
101
100
AcDbEntity
100
AcDbLine
  8
PARAMS
 62
7
370
-1
  6
ByLayer
 10
-88.5586899563317473
 20
-65.8676855895197804
 30
0.0
 11
-102.9586899563317388
 21
-65.8676855895197804
 31
0.0
  0
LINE
  5
102
100
AcDbEntity
100
AcDbLine
  8
PARAMS
 62
7
370
-1
  6
ByLayer
 10
-89.7586899563317644
 20
6.1323144104802196
 30
0.0
 11
-104.1586899563317559
 21
6.1323144104802196
 31
0.0
  0
LINE
  5
103
100
AcDbEntity
100
AcDbLine
  8
PARAMS
 62
7
370
-1
  6
ByLayer
 10
-89.7586899563317644
 20
78.1323144104802196
 30
0.0
 11
-104.1586899563317559
 21
78.1323144104802196
 31
0.0
  0
LWPOLYLINE
  5
104
  8
0
 62
7
370
-1
  6
ByLayer
100
AcDbEntity
100
AcDbPolyline
 90
6
 70
1
 10
9.8413100436682583
 20
-76.6676855895197917
 10
9.8413100436682583
 20
-69.4676855895197747
 10
19.4413100436682527
 20
-69.4676855895197747
 10
19.4413100436682527
 20
-76.6676855895197917
 10
9.8413100436682583
 20
-76.6676855895197917
 10
9.8413100436682583
 20
-76.6676855895197917
  0
LWPOLYLINE
  5
105
  8
0
 62
7
370
-1
  6
ByLayer
100
AcDbEntity
100
AcDbPolyline
 90
6
 70
1
 10
9.8413100436682583
 20
-4.6676855895197669
 10
9.8413100436682583
 20
2.5323144104802324
 10
19.4413100436682527
 20
2.5323144104802324
 10
19.4413100436682527
 20
-4.6676855895197669
 10
9.8413100436682583
 20
-4.6676855895197669
 10
9.8413100436682583
 20
-4.6676855895197669
  0
LWPOLYLINE
  5
106
  8
0
 62
7
370
-1
  6
ByLayer
100
AcDbEntity
100
AcDbPolyline
 90
6
 70
1
 10
9.8413100436682583
 20
67.3323144104802367
 10
9.8413100436682583
 20
74.5323144104802111
 10
19.4413100436682527
 20
74.5323144104802111
 10
19.4413100436682527
 20
67.3323144104802367
 10
9.8413100436682583
 20
67.3323144104802367
 10
9.8413100436682583
 20
67.3323144104802367
  0
LWPOLYLINE
  5
107
  8
0
 62
7
370
-1
  6
ByLayer
100
AcDbEntity
100
AcDbPolyline
 90
6
 70
1
 10
-23.7586899563317502
 20
-76.6676855895197917
 10
-23.7586899563317502
 20
-69.4676855895197747
 10
-16.5586899563317473
 20
-69.4676855895197747
 10
-16.5586899563317473
 20
-76.6676855895197917
 10
-23.7586899563317502
 20
-76.6676855895197917
 10
-23.7586899563317502
 20
-76.6676855895197917
  0
LWPOLYLINE
  5
108
  8
0
 62
7
370
-1
  6
ByLayer
100
AcDbEntity
100
AcDbPolyline
 90
6
 70
1
 10
-0.9586899563317246
 20
-76.6676855895197917
 10
-0.9586899563317246
 20
-69.4676855895197747
 10
6.2413100436682498
 20
-69.4676855895197747
 10
6.2413100436682498
 20
-76.6676855895197917
 10
-0.9586899563317246
 20
-76.6676855895197917
 10
-0.9586899563317246
 20
-76.6676855895197917
  0
LWPOLYLINE
  5
109
  8
0
 62
7
370
-1
  6
ByLayer
100
AcDbEntity
100
AcDbPolyline
 90
6
 70
1
 10
-0.9586899563317246
 20
-4.6676855895197669
 10
-0.9586899563317246
 20
2.5323144104802324
 10
6.2413100436682498
 20
2.5323144104802324
 10
6.2413100436682498
 20
-4.6676855895197669
 10
-0.9586899563317246
 20
-4.6676855895197669
 10
-0.9586899563317246
 20
-4.6676855895197669
  0
LWPOLYLINE
  5
10A
  8
0
 62
7
370
-1
  6
ByLayer
100
AcDbEntity
100
AcDbPolyline
 90
6
 70
1
 10
-0.9586899563317246
 20
67.3323144104802367
 10
-0.9586899563317246
 20
74.5323144104802111
 10
6.2413100436682498
 20
74.5323144104802111
 10
6.2413100436682498
 20
67.3323144104802367
 10
-0.9586899563317246
 20
67.3323144104802367
 10
-0.9586899563317246
 20
67.3323144104802367
  0
LWPOLYLINE
  5
10B
  8
0
 62
7
370
-1
  6
ByLayer
100
AcDbEntity
100
AcDbPolyline
 90
6
 70
1
 10
-39.3586899563317303
 20
-4.6676855895197669
 10
-39.3586899563317303
 20
2.5323144104802324
 10
-32.1586899563317417
 20
2.5323144104802324
 10
-32.1586899563317417
 20
-4.6676855895197669
 10
-39.3586899563317303
 20
-4.6676855895197669
 10
-39.3586899563317303
 20
-4.6676855895197669
  0
LWPOLYLINE
  5
10C
  8
0
 62
7
370
-1
  6
ByLayer
100
AcDbEntity
100
AcDbPolyline
 90
6
 70
1
 10
-39.3586899563317303
 20
67.3323144104802367
 10
-39.3586899563317303
 20
74.5323144104802111
 10
-32.1586899563317417
 20
74.5323144104802111
 10
-32.1586899563317417
 20
67.3323144104802367
 10
-39.3586899563317303
 20
67.3323144104802367
 10
-39.3586899563317303
 20
67.3323144104802367
  0
LWPOLYLINE
  5
10D
  8
0
 62
7
370
-1
  6
ByLayer
100
AcDbEntity
100
AcDbPolyline
 90
6
 70
1
 10
-39.3586899563317303
 20
-76.6676855895197917
 10
-39.3586899563317303
 20
-69.4676855895197747
 10
-32.1586899563317417
 20
-69.4676855895197747
 10
-32.1586899563317417
 20
-76.6676855895197917
 10
-39.3586899563317303
 20
-76.6676855895197917
 10
-39.3586899563317303
 20
-76.6676855895197917
  0
LWPOLYLINE
  5
10E
  8
0
 62
7
370
-1
  6
ByLayer
100
AcDbEntity
100
AcDbPolyline
 90
6
 70
1
 10
18.2413100436682498
 20
-63.4676855895197747
 10
18.2413100436682498
 20
-56.267685589519786
 10
25.4413100436682669
 20
-56.267685589519786
 10
25.4413100436682669
 20
-63.4676855895197747
 10
18.2413100436682498
 20
-63.4676855895197747
 10
18.2413100436682498
 20
-63.4676855895197747
  0
LWPOLYLINE
  5
10F
  8
0
 62
7
370
-1
  6
ByLayer
100
AcDbEntity
100
AcDbPolyline
 90
6
 70
1
 10
18.2413100436682498
 20
8.5323144104802324
 10
18.2413100436682498
 20
15.7323144104802282
 10
25.4413100436682669
 20
15.7323144104802282
 10
25.4413100436682669
 20
8.5323144104802324
 10
18.2413100436682498
 20
8.5323144104802324
 10
18.2413100436682498
 20
8.5323144104802324
  0
LWPOLYLINE
  5
110
  8
0
 62
7
370
-1
  6
ByLayer
100
AcDbEntity
100
AcDbPolyline
 90
6
 70
1
 10
18.2413100436682498
 20
80.5323144104802111
 10
18.2413100436682498
 20
87.7323144104802282
 10
25.4413100436682669
 20
87.7323144104802282
 10
25.4413100436682669
 20
80.5323144104802111
 10
18.2413100436682498
 20
80.5323144104802111
 10
18.2413100436682498
 20
80.5323144104802111
  0
LWPOLYLINE
  5
111
  8
0
 62
7
370
-1
  6
ByLayer
100
AcDbEntity
100
AcDbPolyline
 90
6
 70
1
 10
-16.5586899563317473
 20
-4.6676855895197669
 10
-16.5586899563317473
 20
2.5323144104802324
 10
-9.3586899563317161
 20
2.5323144104802324
 10
-9.3586899563317161
 20
-4.6676855895197669
 10
-16.5586899563317473
 20
-4.6676855895197669
 10
-16.5586899563317473
 20
-4.6676855895197669
  0
LWPOLYLINE
  5
112
  8
0
 62
7
370
-1
  6
ByLayer
100
AcDbEntity
100
AcDbPolyline
 90
6
 70
1
 10
-16.5586899563317473
 20
67.3323144104802367
 10
-16.5586899563317473
 20
74.5323144104802111
 10
-9.3586899563317161
 20
74.5323144104802111
 10
-9.3586899563317161
 20
67.3323144104802367
 10
-16.5586899563317473
 20
67.3323144104802367
 10
-16.5586899563317473
 20
67.3323144104802367
  0
LWPOLYLINE
  5
113
  8
0
 62
7
370
-1
  6
ByLayer
100
AcDbEntity
100
AcDbPolyline
 90
6
 70
1
 10
-48.9586899563317388
 20
-44.2676855895197718
 10
-48.9586899563317388
 20
-34.6676855895197633
 10
-41.7586899563317644
 20
-34.6676855895197633
 10
-41.7586899563317644
 20
-44.2676855895197718
 10
-48.9586899563317388
 20
-44.2676855895197718
 10
-48.9586899563317388
 20
-44.2676855895197718
  0
LWPOLYLINE
  5
114
  8
0
 62
7
370
-1
  6
ByLayer
100
AcDbEntity
100
AcDbPolyline
 90
6
 70
1
 10
-48.9586899563317388
 20
27.7323144104802282
 10
-48.9586899563317388
 20
37.3323144104802367
 10
-41.7586899563317644
 20
37.3323144104802367
 10
-41.7586899563317644
 20
27.7323144104802282
 10
-48.9586899563317388
 20
27.7323144104802282
 10
-48.9586899563317388
 20
27.7323144104802282
  0
LWPOLYLINE
  5
115
  8
0
 62
7
370
-1
  6
ByLayer
100
AcDbEntity
100
AcDbPolyline
 90
6
 70
1
 10
-48.9586899563317388
 20
99.7323144104802282
 10
-48.9586899563317388
 20
109.3323144104802509
 10
-41.7586899563317644
 20
109.3323144104802509
 10
-41.7586899563317644
 20
99.7323144104802282
 10
-48.9586899563317388
 20
99.7323144104802282
 10
-48.9586899563317388
 20
99.7323144104802282
  0
LWPOLYLINE
  5
116
  8
0
 62
7
370
-1
  6
ByLayer
100
AcDbEntity
100
AcDbPolyline
 90
6
 70
1
 10
32.4247580436682483
 20
-44.2676855895197718
 10
32.4247580436682483
 20
-37.067685589519769
 10
39.6247580436682654
 20
-37.067685589519769
 10
39.6247580436682654
 20
-44.2676855895197718
 10
32.4247580436682483
 20
-44.2676855895197718
 10
32.4247580436682483
 20
-44.2676855895197718
  0
LWPOLYLINE
  5
117
  8
0
 62
7
370
-1
  6
ByLayer
100
AcDbEntity
100
AcDbPolyline
 90
6
 70
1
 10
32.4247580436682483
 20
-64.6676855895197775
 10
32.4247580436682483
 20
-55.0676855895197832
 10
39.6247580436682654
 20
-55.0676855895197832
 10
39.6247580436682654
 20
-64.6676855895197775
 10
32.4247580436682483
 20
-64.6676855895197775
 10
32.4247580436682483
 20
-64.6676855895197775
  0
LWPOLYLINE
  5
118
  8
0
 62
7
370
-1
  6
ByLayer
100
AcDbEntity
100
AcDbPolyline
 90
6
 70
1
 10
32.4247580436682483
 20
7.3323144104802349
 10
32.4247580436682483
 20
16.9323144104802239
 10
39.6247580436682654
 20
16.9323144104802239
 10
39.6247580436682654
 20
7.3323144104802349
 10
32.4247580436682483
 20
7.3323144104802349
 10
32.4247580436682483
 20
7.3323144104802349
  0
LWPOLYLINE
  5
119
  8
0
 62
7
370
-1
  6
ByLayer
100
AcDbEntity
100
AcDbPolyline
 90
6
 70
1
 10
32.4247580436682483
 20
79.3323144104802367
 10
32.4247580436682483
 20
88.9323144104802452
 10
39.6247580436682654
 20
88.9323144104802452
 10
39.6247580436682654
 20
79.3323144104802367
 10
32.4247580436682483
 20
79.3323144104802367
 10
32.4247580436682483
 20
79.3323144104802367
  0
LINE
  5
11A
100
AcDbEntity
100
AcDbLine
  8
0
 62
7
370
-1
  6
CONTINUOUS
 10
-39.3586899563317303
 20
-1.0676855895197797
 30
0.0
 11
-32.1586899563317417
 21
-1.0676855895197797
 31
0.0
  0
LINE
  5
11B
100
AcDbEntity
100
AcDbLine
  8
0
 62
7
370
-1
  6
CONTINUOUS
 10
-39.3586899563317303
 20
70.9323144104802452
 30
0.0
 11
-32.1586899563317417
 21
70.9323144104802452
 31
0.0
  0
LINE
  5
11C
100
AcDbEntity
100
AcDbLine
  8
0
 62
7
370
-1
  6
CONTINUOUS
 10
-39.3586899563317303
 20
-73.0676855895197832
 30
0.0
 11
-32.1586899563317417
 21
-73.0676855895197832
 31
0.0
  0
LINE
  5
11D
100
AcDbEntity
100
AcDbLine
  8
0
 62
7
370
-1
  6
CONTINUOUS
 10
18.2413100436682498
 20
-59.8676855895197804
 30
0.0
 11
25.4413100436682669
 21
-59.8676855895197804
 31
0.0
  0
LINE
  5
11E
100
AcDbEntity
100
AcDbLine
  8
0
 62
7
370
-1
  6
CONTINUOUS
 10
18.2413100436682498
 20
12.1323144104802179
 30
0.0
 11
25.4413100436682669
 21
12.1323144104802179
 31
0.0
  0
LINE
  5
11F
100
AcDbEntity
100
AcDbLine
  8
0
 62
7
370
-1
  6
CONTINUOUS
 10
18.2413100436682498
 20
84.1323144104802196
 30
0.0
 11
25.4413100436682669
 21
84.1323144104802196
 31
0.0
  0
LINE
  5
120
100
AcDbEntity
100
AcDbLine
  8
0
 62
7
370
-1
  6
CONTINUOUS
 10
-16.5586899563317473
 20
-1.0676855895197797
 30
0.0
 11
-9.3586899563317161
 21
-1.0676855895197797
 31
0.0
  0
LINE
  5
121
100
AcDbEntity
100
AcDbLine
  8
0
 62
7
370
-1
  6
CONTINUOUS
 10
-16.5586899563317473
 20
70.9323144104802452
 30
0.0
 11
-9.3586899563317161
 21
70.9323144104802452
 31
0.0
  0
LINE
  5
122
100
AcDbEntity
100
AcDbLine
  8
0
 62
7
370
-1
  6
CONTINUOUS
 10
-35.7586899563317644
 20
2.5323144104802324
 30
0.0
 11
-35.7586899563317644
 21
-4.6676855895197669
 31
0.0
  0
LINE
  5
123
100
AcDbEntity
100
AcDbLine
  8
0
 62
7
370
-1
  6
CONTINUOUS
 10
-35.7586899563317644
 20
74.5323144104802111
 30
0.0
 11
-35.7586899563317644
 21
67.3323144104802367
 31
0.0
  0
LINE
  5
124
100
AcDbEntity
100
AcDbLine
  8
0
 62
7
370
-1
  6
CONTINUOUS
 10
-35.7586899563317644
 20
-69.4676855895197747
 30
0.0
 11
-35.7586899563317644
 21
-76.6676855895197917
 31
0.0
  0
LINE
  5
125
100
AcDbEntity
100
AcDbLine
  8
0
 62
7
370
-1
  6
CONTINUOUS
 10
21.8413100436682441
 20
-56.267685589519786
 30
0.0
 11
21.8413100436682441
 21
-63.4676855895197747
 31
0.0
  0
LINE
  5
126
100
AcDbEntity
100
AcDbLine
  8
0
 62
7
370
-1
  6
CONTINUOUS
 10
21.8413100436682441
 20
15.7323144104802282
 30
0.0
 11
21.8413100436682441
 21
8.5323144104802324
 31
0.0
  0
LINE
  5
127
100
AcDbEntity
100
AcDbLine
  8
0
 62
7
370
-1
  6
CONTINUOUS
 10
21.8413100436682441
 20
87.7323144104802282
 30
0.0
 11
21.8413100436682441
 21
80.5323144104802111
 31
0.0
  0
LINE
  5
128
100
AcDbEntity
100
AcDbLine
  8
0
 62
7
370
-1
  6
CONTINUOUS
 10
-12.9586899563317388
 20
2.5323144104802324
 30
0.0
 11
-12.9586899563317388
 21
-4.6676855895197669
 31
0.0
  0
LINE
  5
129
100
AcDbEntity
100
AcDbLine
  8
0
 62
7
370
-1
  6
CONTINUOUS
 10
-12.9586899563317388
 20
74.5323144104802111
 30
0.0
 11
-12.9586899563317388
 21
67.3323144104802367
 31
0.0
  0
LINE
  5
12A
100
AcDbEntity
100
AcDbLine
  8
0
 62
7
370
-1
  6
ByLayer
 10
-39.3586899563317303
 20
-3.4676855895197676
 30
0.0
 11
-38.1586899563317417
 21
-3.4676855895197676
 31
0.0
  0
LINE
  5
12B
100
AcDbEntity
100
AcDbLine
  8
0
 62
7
370
-1
  6
ByLayer
 10
-39.3586899563317303
 20
68.5323144104802111
 30
0.0
 11
-38.1586899563317417
 21
68.5323144104802111
 31
0.0
  0
LINE
  5
12C
100
AcDbEntity
100
AcDbLine
  8
0
 62
7
370
-1
  6
ByLayer
 10
-39.3586899563317303
 20
-75.4676855895197747
 30
0.0
 11
-38.1586899563317417
 21
-75.4676855895197747
 31
0.0
  0
LINE
  5
12D
100
AcDbEntity
100
AcDbLine
  8
0
 62
7
370
-1
  6
ByLayer
 10
-16.5586899563317473
 20
-3.4676855895197676
 30
0.0
 11
-15.3586899563317161
 21
-3.4676855895197676
 31
0.0
  0
LINE
  5
12E
100
AcDbEntity
100
AcDbLine
  8
0
 62
7
370
-1
  6
ByLayer
 10
-16.5586899563317473
 20
68.5323144104802111
 30
0.0
 11
-15.3586899563317161
 21
68.5323144104802111
 31
0.0
  0
LINE
  5
12F
100
AcDbEntity
100
AcDbLine
  8
0
 62
7
370
-1
  6
ByLayer
 10
-38.1586899563317417
 20
-3.4676855895197676
 30
0.0
 11
-33.3586899563317303
 21
1.3323144104802331
 31
0.0
  0
LINE
  5
130
100
AcDbEntity
100
AcDbLine
  8
0
 62
7
370
-1
  6
ByLayer
 10
-38.1586899563317417
 20
68.5323144104802111
 30
0.0
 11
-33.3586899563317303
 21
73.3323144104802367
 31
0.0
  0
LINE
  5
131
100
AcDbEntity
100
AcDbLine
  8
0
 62
7
370
-1
  6
ByLayer
 10
-38.1586899563317417
 20
-75.4676855895197747
 30
0.0
 11
-33.3586899563317303
 21
-70.6676855895197917
 31
0.0
  0
LINE
  5
132
100
AcDbEntity
100
AcDbLine
  8
0
 62
7
370
-1
  6
ByLayer
 10
-15.3586899563317161
 20
-3.4676855895197676
 30
0.0
 11
-10.5586899563317473
 21
1.3323144104802331
 31
0.0
  0
LINE
  5
133
100
AcDbEntity
100
AcDbLine
  8
0
 62
7
370
-1
  6
ByLayer
 10
-15.3586899563317161
 20
68.5323144104802111
 30
0.0
 11
-10.5586899563317473
 21
73.3323144104802367
 31
0.0
  0
LINE
  5
134
100
AcDbEntity
100
AcDbLine
  8
0
 62
7
370
-1
  6
ByLayer
 10
-33.3586899563317303
 20
1.3323144104802331
 30
0.0
 11
-32.1586899563317417
 21
1.3323144104802331
 31
0.0
  0
LINE
  5
135
100
AcDbEntity
100
AcDbLine
  8
0
 62
7
370
-1
  6
ByLayer
 10
-33.3586899563317303
 20
73.3323144104802367
 30
0.0
 11
-32.1586899563317417
 21
73.3323144104802367
 31
0.0
  0
LINE
  5
136
100
AcDbEntity
100
AcDbLine
  8
0
 62
7
370
-1
  6
ByLayer
 10
-33.3586899563317303
 20
-70.6676855895197917
 30
0.0
 11
-32.1586899563317417
 21
-70.6676855895197917
 31
0.0
  0
LINE
  5
137
100
AcDbEntity
100
AcDbLine
  8
0
 62
7
370
-1
  6
ByLayer
 10
-10.5586899563317473
 20
1.3323144104802331
 30
0.0
 11
-9.3586899563317161
 21
1.3323144104802331
 31
0.0
  0
LINE
  5
138
100
AcDbEntity
100
AcDbLine
  8
0
 62
7
370
-1
  6
ByLayer
 10
-10.5586899563317473
 20
73.3323144104802367
 30
0.0
 11
-9.3586899563317161
 21
73.3323144104802367
 31
0.0
  0
CIRCLE
  5
139
100
AcDbEntity
100
AcDbCircle
  8
0
 62
7
370
-1
  6
ByLayer
 10
-63.3586899563317161
 20
-5.8676855895197839
 30
0.0
 40
2.4000000000000004
  0
CIRCLE
  5
13A
100
AcDbEntity
100
AcDbCircle
  8
0
 62
7
370
-1
  6
ByLayer
 10
-63.3586899563317161
 20
66.1323144104802196
 30
0.0
 40
2.4000000000000004
  0
CIRCLE
  5
13B
100
AcDbEntity
100
AcDbCircle
  8
0
 62
7
370
-1
  6
ByLayer
 10
-63.3586899563317161
 20
3.7323144104802282
 30
0.0
 40
2.4000000000000004
  0
CIRCLE
  5
13C
100
AcDbEntity
100
AcDbCircle
  8
0
 62
7
370
-1
  6
ByLayer
 10
-63.3586899563317161
 20
75.732314410480214
 30
0.0
 40
2.4000000000000004
  0
LINE
  5
13D
100
AcDbEntity
100
AcDbLine
  8
0
 62
7
370
-1
  6
ByLayer
 10
-63.3586899563317161
 20
-5.8676855895197839
 30
0.0
 11
-61.6616379563317594
 21
-4.1706335895197704
 31
0.0
  0
LINE
  5
13E
100
AcDbEntity
100
AcDbLine
  8
0
 62
7
370
-1
  6
ByLayer
 10
-63.3586899563317161
 20
66.1323144104802196
 30
0.0
 11
-61.6616379563317594
 21
67.8293664104802332
 31
0.0
  0
LINE
  5
13F
100
AcDbEntity
100
AcDbLine
  8
0
 62
7
370
-1
  6
ByLayer
 10
-63.3586899563317161
 20
3.7323144104802282
 30
0.0
 11
-61.6616379563317594
 21
5.4293664104802168
 31
0.0
  0
LINE
  5
140
100
AcDbEntity
100
AcDbLine
  8
0
 62
7
370
-1
  6
ByLayer
 10
-63.3586899563317161
 20
75.732314410480214
 30
0.0
 11
-61.6616379563317594
 21
77.4293664104802417
 31
0.0
  0
LINE
  5
141
100
AcDbEntity
100
AcDbLine
  8
0
 62
7
370
-1
  6
ByLayer
 10
-63.3586899563317161
 20
-5.8676855895197839
 30
0.0
 11
-65.0557419563317438
 21
-4.1706335895197704
 31
0.0
  0
LINE
  5
142
100
AcDbEntity
100
AcDbLine
  8
0
 62
7
370
-1
  6
ByLayer
 10
-63.3586899563317161
 20
66.1323144104802196
 30
0.0
 11
-65.0557419563317438
 21
67.8293664104802332
 31
0.0
  0
LINE
  5
143
100
AcDbEntity
100
AcDbLine
  8
0
 62
7
370
-1
  6
ByLayer
 10
-63.3586899563317161
 20
3.7323144104802282
 30
0.0
 11
-65.0557419563317438
 21
5.4293664104802168
 31
0.0
  0
LINE
  5
144
100
AcDbEntity
100
AcDbLine
  8
0
 62
7
370
-1
  6
ByLayer
 10
-63.3586899563317161
 20
75.732314410480214
 30
0.0
 11
-65.0557419563317438
 21
77.4293664104802417
 31
0.0
  0
LINE
  5
145
100
AcDbEntity
100
AcDbLine
  8
0
 62
7
370
-1
  6
ByLayer
 10
-63.3586899563317161
 20
-5.8676855895197839
 30
0.0
 11
-65.0557419563317438
 21
-7.5647375895197762
 31
0.0
  0
LINE
  5
146
100
AcDbEntity
100
AcDbLine
  8
0
 62
7
370
-1
  6
ByLayer
 10
-63.3586899563317161
 20
66.1323144104802196
 30
0.0
 11
-65.0557419563317438
 21
64.4352624104802487
 31
0.0
  0
LINE
  5
147
100
AcDbEntity
100
AcDbLine
  8
0
 62
7
370
-1
  6
ByLayer
 10
-63.3586899563317161
 20
3.7323144104802282
 30
0.0
 11
-65.0557419563317438
 21
2.0352624104802359
 31
0.0
  0
LINE
  5
148
100
AcDbEntity
100
AcDbLine
  8
0
 62
7
370
-1
  6
ByLayer
 10
-63.3586899563317161
 20
75.732314410480214
 30
0.0
 11
-65.0557419563317438
 21
74.0352624104802146
 31
0.0
  0
LINE
  5
149
100
AcDbEntity
100
AcDbLine
  8
0
 62
7
370
-1
  6
ByLayer
 10
-63.3586899563317161
 20
-5.8676855895197839
 30
0.0
 11
-61.6616379563317594
 21
-7.5647375895197762
 31
0.0
  0
LINE
  5
14A
100
AcDbEntity
100
AcDbLine
  8
0
 62
7
370
-1
  6
ByLayer
 10
-63.3586899563317161
 20
66.1323144104802196
 30
0.0
 11
-61.6616379563317594
 21
64.4352624104802487
 31
0.0
  0
LINE
  5
14B
100
AcDbEntity
100
AcDbLine
  8
0
 62
7
370
-1
  6
ByLayer
 10
-63.3586899563317161
 20
3.7323144104802282
 30
0.0
 11
-61.6616379563317594
 21
2.0352624104802359
 31
0.0
  0
LINE
  5
14C
100
AcDbEntity
100
AcDbLine
  8
0
 62
7
370
-1
  6
ByLayer
 10
-63.3586899563317161
 20
75.732314410480214
 30
0.0
 11
-61.6616379563317594
 21
74.0352624104802146
 31
0.0
  0
LINE
  5
14D
100
AcDbEntity
100
AcDbLine
  8
0
 62
7
370
-1
  6
ByLayer
 10
-63.9586899563317388
 20
-7.307685589519771
 30
0.0
 11
-62.7586899563317502
 21
-7.307685589519771
 31
0.0
  0
LINE
  5
14E
100
AcDbEntity
100
AcDbLine
  8
0
 62
7
370
-1
  6
ByLayer
 10
-63.9586899563317388
 20
64.6923144104802077
 30
0.0
 11
-62.7586899563317502
 21
64.6923144104802077
 31
0.0
  0
LINE
  5
14F
100
AcDbEntity
100
AcDbLine
  8
0
 62
7
370
-1
  6
ByLayer
 10
-63.9586899563317388
 20
5.1723144104802188
 30
0.0
 11
-62.7586899563317502
 21
5.1723144104802188
 31
0.0
  0
LINE
  5
150
100
AcDbEntity
100
AcDbLine
  8
0
 62
7
370
-1
  6
ByLayer
 10
-63.9586899563317388
 20
77.1723144104802401
 30
0.0
 11
-62.7586899563317502
 21
77.1723144104802401
 31
0.0
  0
LINE
  5
151
100
AcDbEntity
100
AcDbLine
  8
0
 62
7
370
-1
  6
ByLayer
 10
-64.1986899563317337
 20
-5.8676855895197839
 30
0.0
 11
-65.3986899563317365
 21
-5.8676855895197839
 31
0.0
  0
LINE
  5
152
100
AcDbEntity
100
AcDbLine
  8
0
 62
7
370
-1
  6
ByLayer
 10
-64.1986899563317337
 20
66.1323144104802196
 30
0.0
 11
-65.3986899563317365
 21
66.1323144104802196
 31
0.0
  0
LINE
  5
153
100
AcDbEntity
100
AcDbLine
  8
0
 62
7
370
-1
  6
ByLayer
 10
-64.1986899563317337
 20
3.7323144104802282
 30
0.0
 11
-65.3986899563317365
 21
3.7323144104802282
 31
0.0
  0
LINE
  5
154
100
AcDbEntity
100
AcDbLine
  8
0
 62
7
370
-1
  6
ByLayer
 10
-64.1986899563317337
 20
75.732314410480214
 30
0.0
 11
-65.3986899563317365
 21
75.732314410480214
 31
0.0
  0
LINE
  5
155
100
AcDbEntity
100
AcDbLine
  8
0
 62
7
370
-1
  6
ByLayer
 10
-64.7986899563317422
 20
-5.2676855895197754
 30
0.0
 11
-64.7986899563317422
 21
-6.4676855895197676
 31
0.0
  0
LINE
  5
156
100
AcDbEntity
100
AcDbLine
  8
0
 62
7
370
-1
  6
ByLayer
 10
-64.7986899563317422
 20
66.7323144104802282
 30
0.0
 11
-64.7986899563317422
 21
65.5323144104802111
 31
0.0
  0
LINE
  5
157
100
AcDbEntity
100
AcDbLine
  8
0
 62
7
370
-1
  6
ByLayer
 10
-64.7986899563317422
 20
4.3323144104802367
 30
0.0
 11
-64.7986899563317422
 21
3.1323144104802161
 31
0.0
  0
LINE
  5
158
100
AcDbEntity
100
AcDbLine
  8
0
 62
7
370
-1
  6
ByLayer
 10
-64.7986899563317422
 20
76.3323144104802367
 30
0.0
 11
-64.7986899563317422
 21
75.1323144104802196
 31
0.0
  0
LWPOLYLINE
  5
159
  8
0
 62
7
370
-1
  6
ByLayer
100
AcDbEntity
100
AcDbPolyline
 90
8
 70
1
 10
-77.7586899563317644
 20
-9.467685589519764
 10
-77.7586899563317644
 20
-2.2676855895197754
 10
-70.5586899563317473
 20
-2.2676855895197754
 10
-69.3586899563317161
 20
-5.8676855895197839
 10
-70.5586899563317473
 20
-9.467685589519764
 10
-77.7586899563317644
 20
-9.467685589519764
 10
-77.7586899563317644
 20
-9.467685589519764
 10
-77.7586899563317644
 20
-9.467685589519764
  0
LWPOLYLINE
  5
15A
  8
0
 62
7
370
-1
  6
ByLayer
100
AcDbEntity
100
AcDbPolyline
 90
8
 70
1
 10
-77.7586899563317644
 20
62.5323144104802111
 10
-77.7586899563317644
 20
69.732314410480214
 10
-70.5586899563317473
 20
69.732314410480214
 10
-69.3586899563317161
 20
66.1323144104802196
 10
-70.5586899563317473
 20
62.5323144104802111
 10
-77.7586899563317644
 20
62.5323144104802111
 10
-77.7586899563317644
 20
62.5323144104802111
 10
-77.7586899563317644
 20
62.5323144104802111
  0
LWPOLYLINE
  5
15B
  8
0
 62
7
370
-1
  6
ByLayer
100
AcDbEntity
100
AcDbPolyline
 90
8
 70
1
 10
-28.5586899563317473
 20
-4.6676855895197669
 10
-28.5586899563317473
 20
2.5323144104802324
 10
-21.3586899563317161
 20
2.5323144104802324
 10
-20.1586899563317417
 20
-1.0676855895197797
 10
-21.3586899563317161
 20
-4.6676855895197669
 10
-28.5586899563317473
 20
-4.6676855895197669
 10
-28.5586899563317473
 20
-4.6676855895197669
 10
-28.5586899563317473
 20
-4.6676855895197669
  0
LWPOLYLINE
  5
15C
  8
0
 62
7
370
-1
  6
ByLayer
100
AcDbEntity
100
AcDbPolyline
 90
8
 70
1
 10
-28.5586899563317473
 20
67.3323144104802367
 10
-28.5586899563317473
 20
74.5323144104802111
 10
-21.3586899563317161
 20
74.5323144104802111
 10
-20.1586899563317417
 20
70.9323144104802452
 10
-21.3586899563317161
 20
67.3323144104802367
 10
-28.5586899563317473
 20
67.3323144104802367
 10
-28.5586899563317473
 20
67.3323144104802367
 10
-28.5586899563317473
 20
67.3323144104802367
  0
MTEXT
  5
15D
100
AcDbEntity
100
AcDbMText
  8
0
 62
7
370
-1
  6
ByLayer
 10
-74.1586899563317559
 20
-4.6676855895197669
 30
0.0
 40
1.2000000000000002
 41
1200.0
 71
5
 72
2
  1
d
  7
STYLE3
 50
0.0
 73
0
 44
1.0
  0
MTEXT
  5
15E
100
AcDbEntity
100
AcDbMText
  8
0
 62
7
370
-1
  6
ByLayer
 10
-74.1586899563317559
 20
67.3323144104802367
 30
0.0
 40
1.2000000000000002
 41
1200.0
 71
5
 72
2
  1
d
  7
STYLE3
 50
0.0
 73
0
 44
1.0
  0
MTEXT
  5
15F
100
AcDbEntity
100
AcDbMText
  8
0
 62
7
370
-1
  6
ByLayer
 10
-74.1586899563317559
 20
-7.0676855895197797
 30
0.0
 40
1.2000000000000002
 41
1200.0
 71
5
 72
2
  1
dT
  7
STYLE3
 50
0.0
 73
0
 44
1.0
  0
MTEXT
  5
160
100
AcDbEntity
100
AcDbMText
  8
0
 62
7
370
-1
  6
ByLayer
 10
-74.1586899563317559
 20
64.9323144104802452
 30
0.0
 40
1.2000000000000002
 41
1200.0
 71
5
 72
2
  1
dT
  7
STYLE3
 50
0.0
 73
0
 44
1.0
  0
LINE
  5
161
100
AcDbEntity
100
AcDbLine
  8
0
 62
7
370
-1
  6
ByLayer
 10
-75.3586899563317303
 20
-5.8676855895197839
 30
0.0
 11
-72.9586899563317388
 21
-5.8676855895197839
 31
0.0
  0
LINE
  5
162
100
AcDbEntity
100
AcDbLine
  8
0
 62
7
370
-1
  6
ByLayer
 10
-75.3586899563317303
 20
66.1323144104802196
 30
0.0
 11
-72.9586899563317388
 21
66.1323144104802196
 31
0.0
  0
LWPOLYLINE
  5
163
  8
0
 62
7
370
-1
  6
ByLayer
100
AcDbEntity
100
AcDbPolyline
 90
25
 70
0
 10
-23.7586899563317502
 20
1.3323144104802331
 10
-23.9082939563317183
 20
1.3307544104802318
 10
-24.0555699563317376
 20
1.3198104104802368
 10
-24.1981419563317672
 20
1.2901224104802189
 10
-24.3336939563317287
 20
1.2323184104802287
 10
-24.4598619563317357
 20
1.1370024104802177
 10
-24.5743179563317398
 20
0.9948144104802203
 10
-24.6747099563317533
 20
0.7963824104802164
 10
-24.7586859563317603
 20
0.5323104104802248
 10
-24.8250939563317274
 20
0.1979424104802341
 10
-24.8774379563317325
 20
-0.192681589519772
 10
-24.9204099563317385
 20
-0.6208055895197688
 10
-24.9586899563317388
 20
-1.0676855895197797
 10
-24.9969699563317249
 20
-1.5145655895197656
 10
-25.0399419563317451
 20
-1.9426895895197802
 10
-25.0922859563317502
 20
-2.3333135895197721
 10
-25.15869395633176
 20
-2.6676815895197841
 10
-25.2426699563317385
 20
-2.9317535895197757
 10
-25.3430619563317236
 20
-3.1301855895197797
 10
-25.4575179563317278
 20
-3.272373589519777
 10
-25.5836859563317347
 20
-3.3676895895197632
 10
-25.7192379563317388
 20
-3.4254935895197782
 10
-25.8618099563317401
 20
-3.4551815895197713
 10
-26.0090859563317309
 20
-3.4661255895197662
 10
-26.1586899563317417
 20
-3.4676855895197676
  0
LWPOLYLINE
  5
164
  8
0
 62
7
370
-1
  6
ByLayer
100
AcDbEntity
100
AcDbPolyline
 90
25
 70
0
 10
-23.7586899563317502
 20
73.3323144104802367
 10
-23.9082939563317183
 20
73.3307544104801963
 10
-24.0555699563317376
 20
73.3198104104802013
 10
-24.1981419563317672
 20
73.2901224104802225
 10
-24.3336939563317287
 20
73.2323184104802323
 10
-24.4598619563317357
 20
73.1370024104802212
 10
-24.5743179563317398
 20
72.9948144104802452
 10
-24.6747099563317533
 20
72.79638241048022
 10
-24.7586859563317603
 20
72.532310410480207
 10
-24.8250939563317274
 20
72.1979424104802376
 10
-24.8774379563317325
 20
71.8073184104802493
 10
-24.9204099563317385
 20
71.3791944104802099
 10
-24.9586899563317388
 20
70.9323144104802452
 10
-24.9969699563317249
 20
70.4854344104802379
 10
-25.0399419563317451
 20
70.0573104104802411
 10
-25.0922859563317502
 20
69.6666864104802102
 10
-25.15869395633176
 20
69.3323184104802266
 10
-25.2426699563317385
 20
69.0682464104802278
 10
-25.3430619563317236
 20
68.8698144104802452
 10
-25.4575179563317278
 20
68.7276264104802266
 10
-25.5836859563317347
 20
68.6323104104802013
 10
-25.7192379563317388
 20
68.5745064104802253
 10
-25.8618099563317401
 20
68.5448184104802323
 10
-26.0090859563317309
 20
68.5338744104802373
 10
-26.1586899563317417
 20
68.5323144104802111
  0
LINE
  5
165
100
AcDbEntity
100
AcDbLine
  8
0
 62
7
370
-1
  6
ByLayer
 10
-39.3586899563317303
 20
-82.6676855895197917
 30
0.0
 11
-35.7586899563317644
 21
-82.6676855895197917
 31
0.0
  0
LINE
  5
166
100
AcDbEntity
100
AcDbLine
  8
0
 62
7
370
-1
  6
ByLayer
 10
-16.5586899563317473
 20
-10.6676855895197598
 30
0.0
 11
-12.9586899563317388
 21
-10.6676855895197598
 31
0.0
  0
LINE
  5
167
100
AcDbEntity
100
AcDbLine
  8
0
 62
7
370
-1
  6
ByLayer
 10
-16.5586899563317473
 20
61.3323144104802367
 30
0.0
 11
-12.9586899563317388
 21
61.3323144104802367
 31
0.0
  0
LINE
  5
168
100
AcDbEntity
100
AcDbLine
  8
0
 62
7
370
-1
  6
ByLayer
 10
-35.7586899563317644
 20
-82.6676855895197917
 30
0.0
 11
-35.7586899563317644
 21
-76.6676855895197917
 31
0.0
  0
LWPOLYLINE
  5
169
  8
0
 62
7
370
-1
  6
ByLayer
100
AcDbEntity
100
AcDbPolyline
 90
4
 70
0
 10
-35.7586899563317644
 20
-76.6676855895197917
 10
-35.9720499563317304
 20
-77.6276855895197855
 10
-35.5453299563317415
 20
-77.6276855895197855
 10
-35.7586899563317644
 20
-76.6676855895197917
  0
LINE
  5
16A
100
AcDbEntity
100
AcDbLine
  8
0
 62
7
370
-1
  6
ByLayer
 10
-12.9586899563317388
 20
-10.6676855895197598
 30
0.0
 11
-12.9586899563317388
 21
-4.6676855895197669
 31
0.0
  0
LINE
  5
16B
100
AcDbEntity
100
AcDbLine
  8
0
 62
7
370
-1
  6
ByLayer
 10
-12.9586899563317388
 20
61.3323144104802367
 30
0.0
 11
-12.9586899563317388
 21
67.3323144104802367
 31
0.0
  0
LWPOLYLINE
  5
16C
  8
0
 62
7
370
-1
  6
ByLayer
100
AcDbEntity
100
AcDbPolyline
 90
4
 70
0
 10
-12.9586899563317388
 20
-4.6676855895197669
 10
-13.1720499563317617
 20
-5.6276855895197642
 10
-12.7453299563317586
 20
-5.6276855895197642
 10
-12.9586899563317388
 20
-4.6676855895197669
  0
LWPOLYLINE
  5
16D
  8
0
 62
7
370
-1
  6
ByLayer
100
AcDbEntity
100
AcDbPolyline
 90
4
 70
0
 10
-12.9586899563317388
 20
67.3323144104802367
 10
-13.1720499563317617
 20
66.3723144104802145
 10
-12.7453299563317586
 20
66.3723144104802145
 10
-12.9586899563317388
 20
67.3323144104802367
  0
LINE
  5
16E
100
AcDbEntity
100
AcDbLine
  8
0
 62
7
370
-1
  6
ByLayer
 10
29.0413100436682896
 20
-31.0676855895197725
 30
0.0
 11
29.0413100436682896
 21
-59.8676855895197804
 31
0.0
  0
LINE
  5
16F
100
AcDbEntity
100
AcDbLine
  8
0
 62
7
370
-1
  6
ByLayer
 10
29.0413100436682896
 20
40.9323144104802452
 30
0.0
 11
29.0413100436682896
 21
12.1323144104802179
 31
0.0
  0
LINE
  5
170
100
AcDbEntity
100
AcDbLine
  8
0
 62
7
370
-1
  6
ByLayer
 10
29.0413100436682896
 20
112.9323144104802452
 30
0.0
 11
29.0413100436682896
 21
84.1323144104802196
 31
0.0
  0
LINE
  5
171
100
AcDbEntity
100
AcDbLine
  8
0
 62
7
370
-1
  6
ByLayer
 10
-84.9586899563317388
 20
-73.0676855895197832
 30
0.0
 11
-85.5586899563317473
 21
-72.4676855895197747
 31
0.0
  0
LINE
  5
172
100
AcDbEntity
100
AcDbLine
  8
0
 62
7
370
-1
  6
ByLayer
 10
-86.1586899563317559
 20
-1.0676855895197797
 30
0.0
 11
-86.7586899563317644
 21
-0.4676855895197676
 31
0.0
  0
LINE
  5
173
100
AcDbEntity
100
AcDbLine
  8
0
 62
7
370
-1
  6
ByLayer
 10
-86.1586899563317559
 20
70.9323144104802452
 30
0.0
 11
-86.7586899563317644
 21
71.5323144104802111
 31
0.0
  0
LINE
  5
174
100
AcDbEntity
100
AcDbLine
  8
0
 62
7
370
-1
  6
ByLayer
 10
-84.9586899563317388
 20
-41.8676855895197662
 30
0.0
 11
-85.5586899563317473
 21
-41.2676855895197718
 31
0.0
  0
LINE
  5
175
100
AcDbEntity
100
AcDbLine
  8
0
 62
7
370
-1
  6
ByLayer
 10
-86.1586899563317559
 20
30.1323144104802196
 30
0.0
 11
-86.7586899563317644
 21
30.7323144104802282
 31
0.0
  0
LINE
  5
176
100
AcDbEntity
100
AcDbLine
  8
0
 62
7
370
-1
  6
ByLayer
 10
-86.1586899563317559
 20
102.1323144104802196
 30
0.0
 11
-86.7586899563317644
 21
102.7323144104802282
 31
0.0
  0
LINE
  5
177
100
AcDbEntity
100
AcDbLine
  8
0
 62
7
370
-1
  6
ByLayer
 10
-84.9586899563317388
 20
-73.0676855895197832
 30
0.0
 11
-85.5586899563317473
 21
-73.6676855895197917
 31
0.0
  0
LINE
  5
178
100
AcDbEntity
100
AcDbLine
  8
0
 62
7
370
-1
  6
ByLayer
 10
-86.1586899563317559
 20
-1.0676855895197797
 30
0.0
 11
-86.7586899563317644
 21
-1.6676855895197669
 31
0.0
  0
LINE
  5
179
100
AcDbEntity
100
AcDbLine
  8
0
 62
7
370
-1
  6
ByLayer
 10
-86.1586899563317559
 20
70.9323144104802452
 30
0.0
 11
-86.7586899563317644
 21
70.3323144104802367
 31
0.0
  0
LINE
  5
17A
100
AcDbEntity
100
AcDbLine
  8
0
 62
7
370
-1
  6
ByLayer
 10
-84.9586899563317388
 20
-41.8676855895197662
 30
0.0
 11
-85.5586899563317473
 21
-42.4676855895197605
 31
0.0
  0
LINE
  5
17B
100
AcDbEntity
100
AcDbLine
  8
0
 62
7
370
-1
  6
ByLayer
 10
-86.1586899563317559
 20
30.1323144104802196
 30
0.0
 11
-86.7586899563317644
 21
29.5323144104802147
 31
0.0
  0
LINE
  5
17C
100
AcDbEntity
100
AcDbLine
  8
0
 62
7
370
-1
  6
ByLayer
 10
-86.1586899563317559
 20
102.1323144104802196
 30
0.0
 11
-86.7586899563317644
 21
101.5323144104802111
 31
0.0
  0
LINE
  5
17D
100
AcDbEntity
100
AcDbLine
  8
0
 62
7
370
-1
  6
ByLayer
 10
-84.9586899563317388
 20
-73.0676855895197832
 30
0.0
 11
-84.3586899563317303
 21
-73.6676855895197917
 31
0.0
  0
LINE
  5
17E
100
AcDbEntity
100
AcDbLine
  8
0
 62
7
370
-1
  6
ByLayer
 10
-86.1586899563317559
 20
-1.0676855895197797
 30
0.0
 11
-85.5586899563317473
 21
-1.6676855895197669
 31
0.0
  0
LINE
  5
17F
100
AcDbEntity
100
AcDbLine
  8
0
 62
7
370
-1
  6
ByLayer
 10
-86.1586899563317559
 20
70.9323144104802452
 30
0.0
 11
-85.5586899563317473
 21
70.3323144104802367
 31
0.0
  0
LINE
  5
180
100
AcDbEntity
100
AcDbLine
  8
0
 62
7
370
-1
  6
ByLayer
 10
-84.9586899563317388
 20
-41.8676855895197662
 30
0.0
 11
-84.3586899563317303
 21
-42.4676855895197605
 31
0.0
  0
LINE
  5
181
100
AcDbEntity
100
AcDbLine
  8
0
 62
7
370
-1
  6
ByLayer
 10
-86.1586899563317559
 20
30.1323144104802196
 30
0.0
 11
-85.5586899563317473
 21
29.5323144104802147
 31
0.0
  0
LINE
  5
182
100
AcDbEntity
100
AcDbLine
  8
0
 62
7
370
-1
  6
ByLayer
 10
-86.1586899563317559
 20
102.1323144104802196
 30
0.0
 11
-85.5586899563317473
 21
101.5323144104802111
 31
0.0
  0
LINE
  5
183
100
AcDbEntity
100
AcDbLine
  8
0
 62
7
370
-1
  6
ByLayer
 10
-84.9586899563317388
 20
-73.0676855895197832
 30
0.0
 11
-84.3586899563317303
 21
-72.4676855895197747
 31
0.0
  0
LINE
  5
184
100
AcDbEntity
100
AcDbLine
  8
0
 62
7
370
-1
  6
ByLayer
 10
-86.1586899563317559
 20
-1.0676855895197797
 30
0.0
 11
-85.5586899563317473
 21
-0.4676855895197676
 31
0.0
  0
LINE
  5
185
100
AcDbEntity
100
AcDbLine
  8
0
 62
7
370
-1
  6
ByLayer
 10
-86.1586899563317559
 20
70.9323144104802452
 30
0.0
 11
-85.5586899563317473
 21
71.5323144104802111
 31
0.0
  0
LINE
  5
186
100
AcDbEntity
100
AcDbLine
  8
0
 62
7
370
-1
  6
ByLayer
 10
-84.9586899563317388
 20
-41.8676855895197662
 30
0.0
 11
-84.3586899563317303
 21
-41.2676855895197718
 31
0.0
  0
LINE
  5
187
100
AcDbEntity
100
AcDbLine
  8
0
 62
7
370
-1
  6
ByLayer
 10
-86.1586899563317559
 20
30.1323144104802196
 30
0.0
 11
-85.5586899563317473
 21
30.7323144104802282
 31
0.0
  0
LINE
  5
188
100
AcDbEntity
100
AcDbLine
  8
0
 62
7
370
-1
  6
ByLayer
 10
-86.1586899563317559
 20
102.1323144104802196
 30
0.0
 11
-85.5586899563317473
 21
102.7323144104802282
 31
0.0
  0
CIRCLE
  5
189
100
AcDbEntity
100
AcDbCircle
  8
0
 62
7
370
-1
  6
ByLayer
 10
-84.9586899563317388
 20
-73.0676855895197832
 30
0.0
 40
1.8
  0
CIRCLE
  5
18A
100
AcDbEntity
100
AcDbCircle
  8
0
 62
7
370
-1
  6
ByLayer
 10
-86.1586899563317559
 20
-1.0676855895197797
 30
0.0
 40
1.8
  0
CIRCLE
  5
18B
100
AcDbEntity
100
AcDbCircle
  8
0
 62
7
370
-1
  6
ByLayer
 10
-86.1586899563317559
 20
70.9323144104802452
 30
0.0
 40
1.8
  0
CIRCLE
  5
18C
100
AcDbEntity
100
AcDbCircle
  8
0
 62
7
370
-1
  6
ByLayer
 10
-84.9586899563317388
 20
-41.8676855895197662
 30
0.0
 40
1.8
  0
CIRCLE
  5
18D
100
AcDbEntity
100
AcDbCircle
  8
0
 62
7
370
-1
  6
ByLayer
 10
-86.1586899563317559
 20
30.1323144104802196
 30
0.0
 40
1.8
  0
CIRCLE
  5
18E
100
AcDbEntity
100
AcDbCircle
  8
0
 62
7
370
-1
  6
ByLayer
 10
-86.1586899563317559
 20
102.1323144104802196
 30
0.0
 40
1.8
  0
LINE
  5
18F
100
AcDbEntity
100
AcDbLine
  8
0
 62
7
370
-1
  6
ByLayer
 10
-106.5586899563317473
 20
-43.067685589519769
 30
0.0
 11
-106.5586899563317473
 21
-71.8676855895197804
 31
0.0
  0
LINE
  5
190
100
AcDbEntity
100
AcDbLine
  8
0
 62
7
370
-1
  6
ByLayer
 10
-106.5586899563317473
 20
28.9323144104802452
 30
0.0
 11
-106.5586899563317473
 21
0.1323144104802161
 31
0.0
  0
LINE
  5
191
100
AcDbEntity
100
AcDbLine
  8
0
 62
7
370
-1
  6
ByLayer
 10
-106.5586899563317473
 20
100.9323144104802452
 30
0.0
 11
-106.5586899563317473
 21
72.1323144104802196
 31
0.0
  0
LINE
  5
192
100
AcDbEntity
100
AcDbLine
  8
0
 62
7
370
-1
  6
ByLayer
 10
-106.5586899563317473
 20
-38.2676855895197718
 30
0.0
 11
-106.5586899563317473
 21
-40.6676855895197633
 31
0.0
  0
LINE
  5
193
100
AcDbEntity
100
AcDbLine
  8
0
 62
7
370
-1
  6
ByLayer
 10
-106.5586899563317473
 20
33.7323144104802282
 30
0.0
 11
-106.5586899563317473
 21
31.3323144104802367
 31
0.0
  0
LINE
  5
194
100
AcDbEntity
100
AcDbLine
  8
0
 62
7
370
-1
  6
ByLayer
 10
-106.5586899563317473
 20
105.7323144104802282
 30
0.0
 11
-106.5586899563317473
 21
103.3323144104802367
 31
0.0
  0
LINE
  5
195
100
AcDbEntity
100
AcDbLine
  8
0
 62
7
370
-1
  6
ByLayer
 10
-106.5586899563317473
 20
-35.8676855895197804
 30
0.0
 11
-106.5586899563317473
 21
-27.467685589519764
 31
0.0
  0
LINE
  5
196
100
AcDbEntity
100
AcDbLine
  8
0
 62
7
370
-1
  6
ByLayer
 10
-106.5586899563317473
 20
36.1323144104802196
 30
0.0
 11
-106.5586899563317473
 21
44.5323144104802111
 31
0.0
  0
LINE
  5
197
100
AcDbEntity
100
AcDbLine
  8
0
 62
7
370
-1
  6
ByLayer
 10
-106.5586899563317473
 20
108.1323144104802196
 30
0.0
 11
-106.5586899563317473
 21
116.5323144104802253
 31
0.0
  0
LINE
  5
198
100
AcDbEntity
100
AcDbLine
  8
0
 62
7
370
-1
  6
ByLayer
 10
-106.5586899563317473
 20
-27.467685589519764
 30
0.0
 11
67.4413100436682669
 21
-27.467685589519764
 31
0.0
  0
LINE
  5
199
100
AcDbEntity
100
AcDbLine
  8
0
 62
7
370
-1
  6
ByLayer
 10
-106.5586899563317473
 20
44.5323144104802111
 30
0.0
 11
67.4413100436682669
 21
44.5323144104802111
 31
0.0
  0
LINE
  5
19A
100
AcDbEntity
100
AcDbLine
  8
0
 62
7
370
-1
  6
ByLayer
 10
-106.5586899563317473
 20
116.5323144104802253
 30
0.0
 11
67.4413100436682669
 21
116.5323144104802253
 31
0.0
  0
LINE
  5
19B
100
AcDbEntity
100
AcDbLine
  8
0
 62
7
370
-1
  6
ByLayer
 10
67.4413100436682669
 20
-38.2676855895197718
 30
0.0
 11
67.4413100436682669
 21
-39.4676855895197605
 31
0.0
  0
LINE
  5
19C
100
AcDbEntity
100
AcDbLine
  8
0
 62
7
370
-1
  6
ByLayer
 10
67.4413100436682669
 20
-34.6676855895197633
 30
0.0
 11
67.4413100436682669
 21
-35.8676855895197804
 31
0.0
  0
LINE
  5
19D
100
AcDbEntity
100
AcDbLine
  8
0
 62
7
370
-1
  6
ByLayer
 10
67.4413100436682669
 20
-27.467685589519764
 30
0.0
 11
67.4413100436682669
 21
-32.2676855895197718
 31
0.0
  0
LINE
  5
19E
100
AcDbEntity
100
AcDbLine
  8
0
 62
7
370
-1
  6
ByLayer
 10
67.4413100436682669
 20
44.5323144104802111
 30
0.0
 11
67.4413100436682669
 21
36.1323144104802196
 31
0.0
  0
LINE
  5
19F
100
AcDbEntity
100
AcDbLine
  8
0
 62
7
370
-1
  6
ByLayer
 10
67.4413100436682669
 20
116.5323144104802253
 30
0.0
 11
67.4413100436682669
 21
108.1323144104802196
 31
0.0
  0
LINE
  5
1A0
100
AcDbEntity
100
AcDbLine
  8
0
 62
7
370
-1
  6
ByLayer
 10
67.4413100436682669
 20
-41.8676855895197662
 30
0.0
 11
67.4413100436682669
 21
-43.067685589519769
 31
0.0
  0
LINE
  5
1A1
100
AcDbEntity
100
AcDbLine
  8
0
 62
7
370
-1
  6
ByLayer
 10
67.4413100436682669
 20
33.7323144104802282
 30
0.0
 11
67.4413100436682669
 21
28.9323144104802452
 31
0.0
  0
LINE
  5
1A2
100
AcDbEntity
100
AcDbLine
  8
0
 62
7
370
-1
  6
ByLayer
 10
67.4413100436682669
 20
105.7323144104802282
 30
0.0
 11
67.4413100436682669
 21
100.9323144104802452
 31
0.0
  0
LINE
  5
1A3
100
AcDbEntity
100
AcDbLine
  8
0
 62
7
370
-1
  6
ByLayer
 10
67.4413100436682669
 20
-49.0676855895197832
 30
0.0
 11
67.4413100436682669
 21
-95.8676855895197519
 31
0.0
  0
LINE
  5
1A4
100
AcDbEntity
100
AcDbLine
  8
0
 62
7
370
-1
  6
ByLayer
 10
67.4413100436682669
 20
-45.4676855895197605
 30
0.0
 11
67.4413100436682669
 21
-46.6676855895197775
 31
0.0
  0
LINE
  5
1A5
100
AcDbEntity
100
AcDbLine
  8
0
 62
7
370
-1
  6
ByLayer
 10
67.4413100436682669
 20
26.5323144104802324
 30
0.0
 11
67.4413100436682669
 21
-23.8676855895197839
 31
0.0
  0
LINE
  5
1A6
100
AcDbEntity
100
AcDbLine
  8
0
 62
7
370
-1
  6
ByLayer
 10
67.4413100436682669
 20
98.5323144104802111
 30
0.0
 11
67.4413100436682669
 21
48.1323144104802196
 31
0.0
  0
LINE
  5
1A7
100
AcDbEntity
100
AcDbLine
  8
0
 62
7
370
-1
  6
ByLayer
 10
67.4413100436682669
 20
-95.8676855895197519
 30
0.0
 11
-106.5586899563317473
 21
-95.8676855895197519
 31
0.0
  0
LINE
  5
1A8
100
AcDbEntity
100
AcDbLine
  8
0
 62
7
370
-1
  6
ByLayer
 10
67.4413100436682669
 20
-23.8676855895197839
 30
0.0
 11
-106.5586899563317473
 21
-23.8676855895197839
 31
0.0
  0
LINE
  5
1A9
100
AcDbEntity
100
AcDbLine
  8
0
 62
7
370
-1
  6
ByLayer
 10
67.4413100436682669
 20
48.1323144104802196
 30
0.0
 11
-106.5586899563317473
 21
48.1323144104802196
 31
0.0
  0
LINE
  5
1AA
100
AcDbEntity
100
AcDbLine
  8
0
 62
7
370
-1
  6
ByLayer
 10
-106.5586899563317473
 20
-95.8676855895197519
 30
0.0
 11
-106.5586899563317473
 21
-74.267685589519786
 31
0.0
  0
LINE
  5
1AB
100
AcDbEntity
100
AcDbLine
  8
0
 62
7
370
-1
  6
ByLayer
 10
-106.5586899563317473
 20
-23.8676855895197839
 30
0.0
 11
-106.5586899563317473
 21
-2.2676855895197754
 31
0.0
  0
LINE
  5
1AC
100
AcDbEntity
100
AcDbLine
  8
0
 62
7
370
-1
  6
ByLayer
 10
-106.5586899563317473
 20
48.1323144104802196
 30
0.0
 11
-106.5586899563317473
 21
69.732314410480214
 31
0.0
  0
LINE
  5
1AD
100
AcDbEntity
100
AcDbLine
  8
0
 62
7
370
-1
  6
ByLayer
 10
24.2413100436682782
 20
-31.0676855895197725
 30
0.0
 11
29.0413100436682896
 21
-31.0676855895197725
 31
0.0
  0
LINE
  5
1AE
100
AcDbEntity
100
AcDbLine
  8
0
 62
7
370
-1
  6
ByLayer
 10
24.2413100436682782
 20
40.9323144104802452
 30
0.0
 11
29.0413100436682896
 21
40.9323144104802452
 31
0.0
  0
LINE
  5
1AF
100
AcDbEntity
100
AcDbLine
  8
0
 62
7
370
-1
  6
ByLayer
 10
24.2413100436682782
 20
112.9323144104802452
 30
0.0
 11
29.0413100436682896
 21
112.9323144104802452
 31
0.0
  0
LWPOLYLINE
  5
1B0
  8
0
 62
7
370
-1
  6
ByLayer
100
AcDbEntity
100
AcDbPolyline
 90
4
 70
0
 10
24.2413100436682782
 20
-31.0676855895197725
 10
25.2013100436682578
 20
-31.2810455895197741
 10
25.2013100436682578
 20
-30.8543255895197781
 10
24.2413100436682782
 20
-31.0676855895197725
  0
LWPOLYLINE
  5
1B1
  8
0
 62
7
370
-1
  6
ByLayer
100
AcDbEntity
100
AcDbPolyline
 90
4
 70
0
 10
24.2413100436682782
 20
40.9323144104802452
 10
25.2013100436682578
 20
40.7189544104802224
 10
25.2013100436682578
 20
41.1456744104802254
 10
24.2413100436682782
 20
40.9323144104802452
  0
LWPOLYLINE
  5
1B2
  8
0
 62
7
370
-1
  6
ByLayer
100
AcDbEntity
100
AcDbPolyline
 90
4
 70
0
 10
24.2413100436682782
 20
112.9323144104802452
 10
25.2013100436682578
 20
112.7189544104802366
 10
25.2013100436682578
 20
113.1456744104802397
 10
24.2413100436682782
 20
112.9323144104802452
  0
MTEXT
  5
1B3
100
AcDbEntity
100
AcDbMText
  8
0
 62
7
370
-1
  6
ByLayer
 10
41.0413100436682896
 20
-50.267685589519786
 30
0.0
 40
1.2000000000000002
 41
1200.0
 71
6
 72
2
  1
state
  7
STYLE3
 50
0.0
 73
0
 44
1.0
  0
MTEXT
  5
1B4
100
AcDbEntity
100
AcDbMText
  8
0
 62
7
370
-1
  6
ByLayer
 10
32.6413100436682555
 20
-71.8676855895197804
 30
0.0
 40
1.2000000000000002
 41
1200.0
 71
6
 72
2
  1
hold
  7
STYLE3
 50
0.0
 73
0
 44
1.0
  0
MTEXT
  5
1B5
100
AcDbEntity
100
AcDbMText
  8
0
 62
7
370
-1
  6
ByLayer
 10
32.6413100436682555
 20
0.1323144104802161
 30
0.0
 40
1.2000000000000002
 41
1200.0
 71
6
 72
2
  1
hold
  7
STYLE3
 50
0.0
 73
0
 44
1.0
  0
MTEXT
  5
1B6
100
AcDbEntity
100
AcDbMText
  8
0
 62
7
370
-1
  6
ByLayer
 10
32.6413100436682555
 20
72.1323144104802196
 30
0.0
 40
1.2000000000000002
 41
1200.0
 71
6
 72
2
  1
hold
  7
STYLE3
 50
0.0
 73
0
 44
1.0
  0
LWPOLYLINE
  5
1B7
  8
0
 62
7
370
-1
  6
ByLayer
100
AcDbEntity
100
AcDbPolyline
 90
4
 70
0
 10
-41.7586899563317644
 20
-37.067685589519769
 10
-40.798689956331728
 20
-37.2810455895197776
 10
-40.798689956331728
 20
-36.8543255895197746
 10
-41.7586899563317644
 20
-37.067685589519769
  0
LWPOLYLINE
  5
1B8
  8
0
 62
7
370
-1
  6
ByLayer
100
AcDbEntity
100
AcDbPolyline
 90
4
 70
0
 10
-41.7586899563317644
 20
34.9323144104802452
 10
-40.798689956331728
 20
34.7189544104802224
 10
-40.798689956331728
 20
35.1456744104802254
 10
-41.7586899563317644
 20
34.9323144104802452
  0
LWPOLYLINE
  5
1B9
  8
0
 62
7
370
-1
  6
ByLayer
100
AcDbEntity
100
AcDbPolyline
 90
4
 70
0
 10
-41.7586899563317644
 20
106.9323144104802452
 10
-40.798689956331728
 20
106.7189544104802224
 10
-40.798689956331728
 20
107.1456744104802397
 10
-41.7586899563317644
 20
106.9323144104802452
  0
LWPOLYLINE
  5
1BA
  8
0
 62
7
370
-1
  6
ByLayer
100
AcDbEntity
100
AcDbPolyline
 90
4
 70
0
 10
-41.7586899563317644
 20
-41.8676855895197662
 10
-40.798689956331728
 20
-42.081045589519789
 10
-40.798689956331728
 20
-41.6543255895197717
 10
-41.7586899563317644
 20
-41.8676855895197662
  0
LWPOLYLINE
  5
1BB
  8
0
 62
7
370
-1
  6
ByLayer
100
AcDbEntity
100
AcDbPolyline
 90
4
 70
0
 10
-41.7586899563317644
 20
30.1323144104802196
 10
-40.798689956331728
 20
29.918954410480243
 10
-40.798689956331728
 20
30.3456744104802425
 10
-41.7586899563317644
 20
30.1323144104802196
  0
LWPOLYLINE
  5
1BC
  8
0
 62
7
370
-1
  6
ByLayer
100
AcDbEntity
100
AcDbPolyline
 90
4
 70
0
 10
-41.7586899563317644
 20
102.1323144104802196
 10
-40.798689956331728
 20
101.9189544104802394
 10
-40.798689956331728
 20
102.3456744104802425
 10
-41.7586899563317644
 20
102.1323144104802196
  0
LINE
  5
1BD
100
AcDbEntity
100
AcDbLine
  8
0
 62
7
370
-1
  6
ByLayer
 10
-83.1586899563317559
 20
-41.8676855895197662
 30
0.0
 11
-48.9586899563317388
 21
-41.8676855895197662
 31
0.0
  0
LINE
  5
1BE
100
AcDbEntity
100
AcDbLine
  8
0
 62
7
370
-1
  6
ByLayer
 10
-84.3586899563317303
 20
30.1323144104802196
 30
0.0
 11
-63.3586899563317161
 21
30.1323144104802196
 31
0.0
  0
LINE
  5
1BF
100
AcDbEntity
100
AcDbLine
  8
0
 62
7
370
-1
  6
ByLayer
 10
-84.3586899563317303
 20
102.1323144104802196
 30
0.0
 11
-63.3586899563317161
 21
102.1323144104802196
 31
0.0
  0
LWPOLYLINE
  5
1C0
  8
0
 62
7
370
-1
  6
ByLayer
100
AcDbEntity
100
AcDbPolyline
 90
4
 70
0
 10
-83.1586899563317559
 20
-41.8676855895197662
 10
-82.1986899563317337
 20
-42.081045589519789
 10
-82.1986899563317337
 20
-41.6543255895197717
 10
-83.1586899563317559
 20
-41.8676855895197662
  0
LWPOLYLINE
  5
1C1
  8
0
 62
7
370
-1
  6
ByLayer
100
AcDbEntity
100
AcDbPolyline
 90
4
 70
0
 10
-84.3586899563317303
 20
30.1323144104802196
 10
-83.3986899563317507
 20
29.918954410480243
 10
-83.3986899563317507
 20
30.3456744104802425
 10
-84.3586899563317303
 20
30.1323144104802196
  0
LWPOLYLINE
  5
1C2
  8
0
 62
7
370
-1
  6
ByLayer
100
AcDbEntity
100
AcDbPolyline
 90
4
 70
0
 10
-84.3586899563317303
 20
102.1323144104802196
 10
-83.3986899563317507
 20
101.9189544104802394
 10
-83.3986899563317507
 20
102.3456744104802425
 10
-84.3586899563317303
 20
102.1323144104802196
  0
LINE
  5
1C3
100
AcDbEntity
100
AcDbLine
  8
0
 62
7
370
-1
  6
ByLayer
 10
-63.3586899563317161
 20
30.1323144104802196
 30
0.0
 11
-48.9586899563317388
 21
30.1323144104802196
 31
0.0
  0
LINE
  5
1C4
100
AcDbEntity
100
AcDbLine
  8
0
 62
7
370
-1
  6
ByLayer
 10
-63.3586899563317161
 20
102.1323144104802196
 30
0.0
 11
-48.9586899563317388
 21
102.1323144104802196
 31
0.0
  0
LWPOLYLINE
  5
1C5
  8
0
 62
7
370
-1
  6
ByLayer
100
AcDbEntity
100
AcDbPolyline
 90
4
 70
0
 10
-63.3586899563317161
 20
30.1323144104802196
 10
-62.3986899563317365
 20
29.918954410480243
 10
-62.3986899563317365
 20
30.3456744104802425
 10
-63.3586899563317161
 20
30.1323144104802196
  0
LWPOLYLINE
  5
1C6
  8
0
 62
7
370
-1
  6
ByLayer
100
AcDbEntity
100
AcDbPolyline
 90
4
 70
0
 10
-63.3586899563317161
 20
102.1323144104802196
 10
-62.3986899563317365
 20
101.9189544104802394
 10
-62.3986899563317365
 20
102.3456744104802425
 10
-63.3586899563317161
 20
102.1323144104802196
  0
LINE
  5
1C7
100
AcDbEntity
100
AcDbLine
  8
0
 62
7
370
-1
  6
ByLayer
 10
-84.9586899563317388
 20
-64.6676855895197775
 30
0.0
 11
-84.9586899563317388
 21
-71.267685589519786
 31
0.0
  0
LWPOLYLINE
  5
1C8
  8
0
 62
7
370
-1
  6
ByLayer
100
AcDbEntity
100
AcDbPolyline
 90
4
 70
0
 10
-84.9586899563317388
 20
-71.267685589519786
 10
-84.7453299563317586
 20
-70.3076855895197781
 10
-85.1720499563317617
 20
-70.3076855895197781
 10
-84.9586899563317388
 20
-71.267685589519786
  0
LINE
  5
1C9
100
AcDbEntity
100
AcDbLine
  8
0
 62
7
370
-1
  6
ByLayer
 10
-86.1586899563317559
 20
7.3323144104802349
 30
0.0
 11
-86.1586899563317559
 21
0.7323144104802246
 31
0.0
  0
LINE
  5
1CA
100
AcDbEntity
100
AcDbLine
  8
0
 62
7
370
-1
  6
ByLayer
 10
-86.1586899563317559
 20
79.3323144104802367
 30
0.0
 11
-86.1586899563317559
 21
72.732314410480214
 31
0.0
  0
LWPOLYLINE
  5
1CB
  8
0
 62
7
370
-1
  6
ByLayer
100
AcDbEntity
100
AcDbPolyline
 90
4
 70
0
 10
-86.1586899563317559
 20
0.7323144104802246
 10
-85.945329956331733
 20
1.692314410480229
 10
-86.3720499563317361
 20
1.692314410480229
 10
-86.1586899563317559
 20
0.7323144104802246
  0
LWPOLYLINE
  5
1CC
  8
0
 62
7
370
-1
  6
ByLayer
100
AcDbEntity
100
AcDbPolyline
 90
4
 70
0
 10
-86.1586899563317559
 20
72.732314410480214
 10
-85.945329956331733
 20
73.6923144104801935
 10
-86.3720499563317361
 20
73.6923144104801935
 10
-86.1586899563317559
 20
72.732314410480214
  0
LINE
  5
1CD
100
AcDbEntity
100
AcDbLine
  8
0
 62
7
370
-1
  6
ByLayer
 10
-48.9586899563317388
 20
-37.067685589519769
 30
0.0
 11
-92.1586899563317559
 21
-37.067685589519769
 31
0.0
  0
LINE
  5
1CE
100
AcDbEntity
100
AcDbLine
  8
0
 62
7
370
-1
  6
ByLayer
 10
-48.9586899563317388
 20
34.9323144104802452
 30
0.0
 11
-92.1586899563317559
 21
34.9323144104802452
 31
0.0
  0
LINE
  5
1CF
100
AcDbEntity
100
AcDbLine
  8
0
 62
7
370
-1
  6
ByLayer
 10
-48.9586899563317388
 20
106.9323144104802452
 30
0.0
 11
-92.1586899563317559
 21
106.9323144104802452
 31
0.0
  0
LWPOLYLINE
  5
1D0
  8
0
 62
7
370
-1
  6
ByLayer
100
AcDbEntity
100
AcDbPolyline
 90
4
 70
0
 10
-92.1586899563317559
 20
-37.067685589519769
 10
-91.1986899563317337
 20
-37.2810455895197776
 10
-91.1986899563317337
 20
-36.8543255895197746
 10
-92.1586899563317559
 20
-37.067685589519769
  0
LWPOLYLINE
  5
1D1
  8
0
 62
7
370
-1
  6
ByLayer
100
AcDbEntity
100
AcDbPolyline
 90
4
 70
0
 10
-92.1586899563317559
 20
34.9323144104802452
 10
-91.1986899563317337
 20
34.7189544104802224
 10
-91.1986899563317337
 20
35.1456744104802254
 10
-92.1586899563317559
 20
34.9323144104802452
  0
LWPOLYLINE
  5
1D2
  8
0
 62
7
370
-1
  6
ByLayer
100
AcDbEntity
100
AcDbPolyline
 90
4
 70
0
 10
-92.1586899563317559
 20
106.9323144104802452
 10
-91.1986899563317337
 20
106.7189544104802224
 10
-91.1986899563317337
 20
107.1456744104802397
 10
-92.1586899563317559
 20
106.9323144104802452
  0
LINE
  5
1D3
100
AcDbEntity
100
AcDbLine
  8
0
 62
7
370
-1
  6
ByLayer
 10
-86.7586899563317644
 20
-41.8676855895197662
 30
0.0
 11
-92.1586899563317559
 21
-41.8676855895197662
 31
0.0
  0
LINE
  5
1D4
100
AcDbEntity
100
AcDbLine
  8
0
 62
7
370
-1
  6
ByLayer
 10
-87.9586899563317388
 20
30.1323144104802196
 30
0.0
 11
-92.1586899563317559
 21
30.1323144104802196
 31
0.0
  0
LINE
  5
1D5
100
AcDbEntity
100
AcDbLine
  8
0
 62
7
370
-1
  6
ByLayer
 10
-87.9586899563317388
 20
102.1323144104802196
 30
0.0
 11
-92.1586899563317559
 21
102.1323144104802196
 31
0.0
  0
LWPOLYLINE
  5
1D6
  8
0
 62
7
370
-1
  6
ByLayer
100
AcDbEntity
100
AcDbPolyline
 90
4
 70
0
 10
-92.1586899563317559
 20
-41.8676855895197662
 10
-91.1986899563317337
 20
-42.081045589519789
 10
-91.1986899563317337
 20
-41.6543255895197717
 10
-92.1586899563317559
 20
-41.8676855895197662
  0
LWPOLYLINE
  5
1D7
  8
0
 62
7
370
-1
  6
ByLayer
100
AcDbEntity
100
AcDbPolyline
 90
4
 70
0
 10
-92.1586899563317559
 20
30.1323144104802196
 10
-91.1986899563317337
 20
29.918954410480243
 10
-91.1986899563317337
 20
30.3456744104802425
 10
-92.1586899563317559
 20
30.1323144104802196
  0
LWPOLYLINE
  5
1D8
  8
0
 62
7
370
-1
  6
ByLayer
100
AcDbEntity
100
AcDbPolyline
 90
4
 70
0
 10
-92.1586899563317559
 20
102.1323144104802196
 10
-91.1986899563317337
 20
101.9189544104802394
 10
-91.1986899563317337
 20
102.3456744104802425
 10
-92.1586899563317559
 20
102.1323144104802196
  0
LINE
  5
1D9
100
AcDbEntity
100
AcDbLine
  8
0
 62
7
370
-1
  6
CONTINUOUS
 10
-3.3586899563317161
 20
-51.4676855895197747
 30
0.0
 11
-3.3586899563317161
 21
-95.8676855895197519
 31
0.0
  0
LINE
  5
1DA
100
AcDbEntity
100
AcDbLine
  8
0
 62
7
370
-1
  6
CONTINUOUS
 10
-3.3586899563317161
 20
20.5323144104802289
 30
0.0
 11
-3.3586899563317161
 21
-23.8676855895197839
 31
0.0
  0
LINE
  5
1DB
100
AcDbEntity
100
AcDbLine
  8
0
 62
7
370
-1
  6
CONTINUOUS
 10
-3.3586899563317161
 20
92.5323144104802111
 30
0.0
 11
-3.3586899563317161
 21
48.1323144104802196
 31
0.0
  0
LINE
  5
1DC
100
AcDbEntity
100
AcDbLine
  8
0
 62
7
370
-1
  6
CONTINUOUS
 10
-3.3586899563317161
 20
-27.467685589519764
 30
0.0
 11
-3.3586899563317161
 21
-51.4676855895197747
 31
0.0
  0
LINE
  5
1DD
100
AcDbEntity
100
AcDbLine
  8
0
 62
7
370
-1
  6
CONTINUOUS
 10
-3.3586899563317161
 20
44.5323144104802111
 30
0.0
 11
-3.3586899563317161
 21
20.5323144104802289
 31
0.0
  0
LINE
  5
1DE
100
AcDbEntity
100
AcDbLine
  8
0
 62
7
370
-1
  6
CONTINUOUS
 10
-3.3586899563317161
 20
116.5323144104802253
 30
0.0
 11
-3.3586899563317161
 21
92.5323144104802111
 31
0.0
  0
MTEXT
  5
1DF
100
AcDbEntity
100
AcDbMText
  8
0
 62
7
370
-1
  6
ByLayer
 10
37.4413100436682669
 20
-92.2676855895197718
 30
0.0
 40
1.2000000000000002
 41
1200.0
 71
5
 72
2
  1
make_pulses()
  7
STYLE3
 50
0.0
 73
0
 44
1.0
  0
MTEXT
  5
1E0
100
AcDbEntity
100
AcDbMText
  8
0
 62
7
370
-1
  6
ByLayer
 10
37.4413100436682669
 20
-20.2676855895197754
 30
0.0
 40
1.2000000000000002
 41
1200.0
 71
5
 72
2
  1
make_pulses()
  7
STYLE3
 50
0.0
 73
0
 44
1.0
  0
MTEXT
  5
1E1
100
AcDbEntity
100
AcDbMText
  8
0
 62
7
370
-1
  6
ByLayer
 10
37.4413100436682669
 20
52.9323144104802523
 30
0.0
 40
1.2000000000000002
 41
1200.0
 71
5
 72
2
  1
make_pulses()
  7
STYLE3
 50
0.0
 73
0
 44
1.0
  0
MTEXT
  5
1E2
100
AcDbEntity
100
AcDbMText
  8
0
 62
7
370
-1
  6
ByLayer
 10
44.6413100436682555
 20
-3.4676855895197676
 30
0.0
 40
1.2000000000000002
 41
1200.0
 71
5
 72
2
  1
STEP\~TYPE\~=\~1
  7
STYLE3
 50
0.0
 73
0
 44
1.0
  0
MTEXT
  5
1E3
100
AcDbEntity
100
AcDbMText
  8
0
 62
7
370
-1
  6
ByLayer
 10
45.8413100436682441
 20
-75.4676855895197747
 30
0.0
 40
1.2000000000000002
 41
1200.0
 71
5
 72
2
  1
STEP\~TYPE\~=\~2\~-\~14
  7
STYLE3
 50
0.0
 73
0
 44
1.0
  0
MTEXT
  5
1E4
100
AcDbEntity
100
AcDbMText
  8
0
 62
7
370
-1
  6
ByLayer
 10
-78.9586899563317388
 20
-92.2676855895197718
 30
0.0
 40
1.2000000000000002
 41
1200.0
 71
5
 72
2
  1
CTRL\~TYPE\~=\~VELOCITY
  7
STYLE3
 50
0.0
 73
0
 44
1.0
  0
MTEXT
  5
1E5
100
AcDbEntity
100
AcDbMText
  8
0
 62
7
370
-1
  6
ByLayer
 10
-78.9586899563317388
 20
-20.2676855895197754
 30
0.0
 40
1.2000000000000002
 41
1200.0
 71
5
 72
2
  1
CTRL\~TYPE\~=\~POSITION
  7
STYLE3
 50
0.0
 73
0
 44
1.0
  0
MTEXT
  5
1E6
100
AcDbEntity
100
AcDbMText
  8
0
 62
7
370
-1
  6
ByLayer
 10
-78.9586899563317388
 20
51.7323144104802282
 30
0.0
 40
1.2000000000000002
 41
1200.0
 71
5
 72
2
  1
CTRL\~TYPE\~=\~POSITION
  7
STYLE3
 50
0.0
 73
0
 44
1.0
  0
MTEXT
  5
1E7
100
AcDbEntity
100
AcDbMText
  8
0
 62
7
370
-1
  6
ByLayer
 10
38.6413100436682555
 20
64.9323144104802452
 30
0.0
 40
1.2000000000000002
 41
1200.0
 71
5
 72
2
  1
STEP\~TYPE\~=\~0
  7
STYLE3
 50
0.0
 73
0
 44
1.0
  0
MTEXT
  5
1E8
100
AcDbEntity
100
AcDbMText
  8
0
 62
7
370
-1
  6
ByLayer
 10
-75.3586899563317303
 20
-87.4676855895197747
 30
0.0
 40
1.2000000000000002
 41
1200.0
 71
5
 72
2
  1
update_freq()
  7
STYLE3
 50
0.0
 73
0
 44
1.0
  0
MTEXT
  5
1E9
100
AcDbEntity
100
AcDbMText
  8
0
 62
7
370
-1
  6
ByLayer
 10
-75.3586899563317303
 20
-15.467685589519764
 30
0.0
 40
1.2000000000000002
 41
1200.0
 71
5
 72
2
  1
update_freq()
  7
STYLE3
 50
0.0
 73
0
 44
1.0
  0
MTEXT
  5
1EA
100
AcDbEntity
100
AcDbMText
  8
0
 62
7
370
-1
  6
ByLayer
 10
-75.3586899563317303
 20
56.5323144104802111
 30
0.0
 40
1.2000000000000002
 41
1200.0
 71
5
 72
2
  1
update_freq()
  7
STYLE3
 50
0.0
 73
0
 44
1.0
  0
MTEXT
  5
1EB
100
AcDbEntity
100
AcDbMText
  8
0
 62
7
370
-1
  6
ByLayer
 10
-58.5586899563317473
 20
-31.0676855895197725
 30
0.0
 40
1.2000000000000002
 41
1200.0
 71
5
 72
2
  1
capture_position()
  7
STYLE3
 50
0.0
 73
0
 44
1.0
  0
MTEXT
  5
1EC
100
AcDbEntity
100
AcDbMText
  8
0
 62
7
370
-1
  6
ByLayer
 10
-58.5586899563317473
 20
40.9323144104802452
 30
0.0
 40
1.2000000000000002
 41
1200.0
 71
5
 72
2
  1
capture_position()
  7
STYLE3
 50
0.0
 73
0
 44
1.0
  0
MTEXT
  5
1ED
100
AcDbEntity
100
AcDbMText
  8
0
 62
7
370
-1
  6
ByLayer
 10
-58.5586899563317473
 20
112.9323144104802452
 30
0.0
 40
1.2000000000000002
 41
1200.0
 71
5
 72
2
  1
capture_position()
  7
STYLE3
 50
0.0
 73
0
 44
1.0
  0
MTEXT
  5
1EE
100
AcDbEntity
100
AcDbMText
  8
0
 62
7
370
-1
  6
ByLayer
 10
-96.9586899563317388
 20
-91.067685589519769
 30
0.0
 40
2.4000000000000004
 41
1200.0
 71
5
 72
2
  1
stepgen.0
  7
STYLE3
 50
0.0
 73
0
 44
1.0
  0
MTEXT
  5
1EF
100
AcDbEntity
100
AcDbMText
  8
0
 62
7
370
-1
  6
ByLayer
 10
-96.9586899563317388
 20
-19.0676855895197725
 30
0.0
 40
2.4000000000000004
 41
1200.0
 71
5
 72
2
  1
stepgen.0
  7
STYLE3
 50
0.0
 73
0
 44
1.0
  0
MTEXT
  5
1F0
100
AcDbEntity
100
AcDbMText
  8
0
 62
7
370
-1
  6
ByLayer
 10
-96.9586899563317388
 20
52.9323144104802523
 30
0.0
 40
2.4000000000000004
 41
1200.0
 71
5
 72
2
  1
stepgen.0
  7
STYLE3
 50
0.0
 73
0
 44
1.0
  0
LINE
  5
1F1
100
AcDbEntity
100
AcDbLine
  8
0
 62
7
370
-1
  6
ByLayer
 10
-86.7586899563317644
 20
-73.0676855895197832
 30
0.0
 11
-92.1586899563317559
 21
-73.0676855895197832
 31
0.0
  0
LWPOLYLINE
  5
1F2
  8
0
 62
7
370
-1
  6
ByLayer
100
AcDbEntity
100
AcDbPolyline
 90
4
 70
0
 10
-86.7586899563317644
 20
-73.0676855895197832
 10
-87.7186899563317439
 20
-72.8543255895197888
 10
-87.7186899563317439
 20
-73.2810455895197776
 10
-86.7586899563317644
 20
-73.0676855895197832
  0
LINE
  5
1F3
100
AcDbEntity
100
AcDbLine
  8
0
 62
7
370
-1
  6
ByLayer
 10
-87.9586899563317388
 20
-1.0676855895197797
 30
0.0
 11
-92.1586899563317559
 21
-1.0676855895197797
 31
0.0
  0
LINE
  5
1F4
100
AcDbEntity
100
AcDbLine
  8
0
 62
7
370
-1
  6
ByLayer
 10
-87.9586899563317388
 20
70.9323144104802452
 30
0.0
 11
-92.1586899563317559
 21
70.9323144104802452
 31
0.0
  0
LWPOLYLINE
  5
1F5
  8
0
 62
7
370
-1
  6
ByLayer
100
AcDbEntity
100
AcDbPolyline
 90
4
 70
0
 10
-87.9586899563317388
 20
-1.0676855895197797
 10
-88.918689956331761
 20
-0.8543255895197781
 10
-88.918689956331761
 20
-1.2810455895197812
 10
-87.9586899563317388
 20
-1.0676855895197797
  0
LWPOLYLINE
  5
1F6
  8
0
 62
7
370
-1
  6
ByLayer
100
AcDbEntity
100
AcDbPolyline
 90
4
 70
0
 10
-87.9586899563317388
 20
70.9323144104802452
 10
-88.918689956331761
 20
71.1456744104802254
 10
-88.918689956331761
 20
70.7189544104802224
 10
-87.9586899563317388
 20
70.9323144104802452
  0
LINE
  5
1F7
100
AcDbEntity
100
AcDbLine
  8
0
 62
7
370
-1
  6
ByLayer
 10
-32.1586899563317417
 20
-1.0676855895197797
 30
0.0
 11
-28.5586899563317473
 21
-1.0676855895197797
 31
0.0
  0
LINE
  5
1F8
100
AcDbEntity
100
AcDbLine
  8
0
 62
7
370
-1
  6
ByLayer
 10
-32.1586899563317417
 20
70.9323144104802452
 30
0.0
 11
-28.5586899563317473
 21
70.9323144104802452
 31
0.0
  0
LWPOLYLINE
  5
1F9
  8
0
 62
7
370
-1
  6
ByLayer
100
AcDbEntity
100
AcDbPolyline
 90
4
 70
0
 10
-28.5586899563317473
 20
-1.0676855895197797
 10
-29.5186899563317127
 20
-0.8543255895197781
 10
-29.5186899563317127
 20
-1.2810455895197812
 10
-28.5586899563317473
 20
-1.0676855895197797
  0
LWPOLYLINE
  5
1FA
  8
0
 62
7
370
-1
  6
ByLayer
100
AcDbEntity
100
AcDbPolyline
 90
4
 70
0
 10
-28.5586899563317473
 20
70.9323144104802452
 10
-29.5186899563317127
 20
71.1456744104802254
 10
-29.5186899563317127
 20
70.7189544104802224
 10
-28.5586899563317473
 20
70.9323144104802452
  0
LWPOLYLINE
  5
1FB
  8
0
 62
7
370
-1
  6
ByLayer
100
AcDbEntity
100
AcDbPolyline
 90
4
 70
0
 10
-39.3586899563317303
 20
-73.0676855895197832
 10
-40.3186899563317525
 20
-72.8543255895197888
 10
-40.3186899563317525
 20
-73.2810455895197776
 10
-39.3586899563317303
 20
-73.0676855895197832
  0
LINE
  5
1FC
100
AcDbEntity
100
AcDbLine
  8
0
 62
7
370
-1
  6
ByLayer
 10
-20.1586899563317417
 20
-1.0676855895197797
 30
0.0
 11
-16.5586899563317473
 21
-1.0676855895197797
 31
0.0
  0
LINE
  5
1FD
100
AcDbEntity
100
AcDbLine
  8
0
 62
7
370
-1
  6
ByLayer
 10
-20.1586899563317417
 20
70.9323144104802452
 30
0.0
 11
-16.5586899563317473
 21
70.9323144104802452
 31
0.0
  0
LWPOLYLINE
  5
1FE
  8
0
 62
7
370
-1
  6
ByLayer
100
AcDbEntity
100
AcDbPolyline
 90
4
 70
0
 10
-16.5586899563317473
 20
-1.0676855895197797
 10
-17.5186899563317127
 20
-0.8543255895197781
 10
-17.5186899563317127
 20
-1.2810455895197812
 10
-16.5586899563317473
 20
-1.0676855895197797
  0
LWPOLYLINE
  5
1FF
  8
0
 62
7
370
-1
  6
ByLayer
100
AcDbEntity
100
AcDbPolyline
 90
4
 70
0
 10
-16.5586899563317473
 20
70.9323144104802452
 10
-17.5186899563317127
 20
71.1456744104802254
 10
-17.5186899563317127
 20
70.7189544104802224
 10
-16.5586899563317473
 20
70.9323144104802452
  0
LINE
  5
200
100
AcDbEntity
100
AcDbLine
  8
0
 62
7
370
-1
  6
ByLayer
 10
-16.5586899563317473
 20
-73.0676855895197832
 30
0.0
 11
-9.3586899563317161
 21
-73.0676855895197832
 31
0.0
  0
LWPOLYLINE
  5
201
  8
0
 62
7
370
-1
  6
ByLayer
100
AcDbEntity
100
AcDbPolyline
 90
4
 70
0
 10
-9.3586899563317161
 20
-73.0676855895197832
 10
-10.3186899563317525
 20
-72.8543255895197888
 10
-10.3186899563317525
 20
-73.2810455895197776
 10
-9.3586899563317161
 20
-73.0676855895197832
  0
LINE
  5
202
100
AcDbEntity
100
AcDbLine
  8
0
 62
7
370
-1
  6
ByLayer
 10
-9.3586899563317161
 20
-1.0676855895197797
 30
0.0
 11
-5.7586899563317502
 21
-1.0676855895197797
 31
0.0
  0
LINE
  5
203
100
AcDbEntity
100
AcDbLine
  8
0
 62
7
370
-1
  6
ByLayer
 10
-9.3586899563317161
 20
70.9323144104802452
 30
0.0
 11
-5.7586899563317502
 21
70.9323144104802452
 31
0.0
  0
LWPOLYLINE
  5
204
  8
0
 62
7
370
-1
  6
ByLayer
100
AcDbEntity
100
AcDbPolyline
 90
4
 70
0
 10
-5.7586899563317502
 20
-1.0676855895197797
 10
-6.7186899563317297
 20
-0.8543255895197781
 10
-6.7186899563317297
 20
-1.2810455895197812
 10
-5.7586899563317502
 20
-1.0676855895197797
  0
LWPOLYLINE
  5
205
  8
0
 62
7
370
-1
  6
ByLayer
100
AcDbEntity
100
AcDbPolyline
 90
4
 70
0
 10
-5.7586899563317502
 20
70.9323144104802452
 10
-6.7186899563317297
 20
71.1456744104802254
 10
-6.7186899563317297
 20
70.7189544104802224
 10
-5.7586899563317502
 20
70.9323144104802452
  0
LINE
  5
206
100
AcDbEntity
100
AcDbLine
  8
0
 62
7
370
-1
  6
ByLayer
 10
-32.1586899563317417
 20
-73.0676855895197832
 30
0.0
 11
-23.7586899563317502
 21
-73.0676855895197832
 31
0.0
  0
LWPOLYLINE
  5
207
  8
0
 62
7
370
-1
  6
ByLayer
100
AcDbEntity
100
AcDbPolyline
 90
4
 70
0
 10
-23.7586899563317502
 20
-73.0676855895197832
 10
-24.7186899563317297
 20
-72.8543255895197888
 10
-24.7186899563317297
 20
-73.2810455895197776
 10
-23.7586899563317502
 20
-73.0676855895197832
  0
LINE
  5
208
100
AcDbEntity
100
AcDbLine
  8
0
 62
7
370
-1
  6
ByLayer
 10
-9.3586899563317161
 20
-73.0676855895197832
 30
0.0
 11
-0.9586899563317246
 21
-73.0676855895197832
 31
0.0
  0
LINE
  5
209
100
AcDbEntity
100
AcDbLine
  8
0
 62
7
370
-1
  6
ByLayer
 10
-5.7586899563317502
 20
-1.0676855895197797
 30
0.0
 11
-0.9586899563317246
 21
-1.0676855895197797
 31
0.0
  0
LINE
  5
20A
100
AcDbEntity
100
AcDbLine
  8
0
 62
7
370
-1
  6
ByLayer
 10
-5.7586899563317502
 20
70.9323144104802452
 30
0.0
 11
-0.9586899563317246
 21
70.9323144104802452
 31
0.0
  0
LWPOLYLINE
  5
20B
  8
0
 62
7
370
-1
  6
ByLayer
100
AcDbEntity
100
AcDbPolyline
 90
4
 70
0
 10
-0.9586899563317246
 20
-73.0676855895197832
 10
-1.918689956331761
 20
-72.8543255895197888
 10
-1.918689956331761
 20
-73.2810455895197776
 10
-0.9586899563317246
 20
-73.0676855895197832
  0
LWPOLYLINE
  5
20C
  8
0
 62
7
370
-1
  6
ByLayer
100
AcDbEntity
100
AcDbPolyline
 90
4
 70
0
 10
-0.9586899563317246
 20
-1.0676855895197797
 10
-1.918689956331761
 20
-0.8543255895197781
 10
-1.918689956331761
 20
-1.2810455895197812
 10
-0.9586899563317246
 20
-1.0676855895197797
  0
LWPOLYLINE
  5
20D
  8
0
 62
7
370
-1
  6
ByLayer
100
AcDbEntity
100
AcDbPolyline
 90
4
 70
0
 10
-0.9586899563317246
 20
70.9323144104802452
 10
-1.918689956331761
 20
71.1456744104802254
 10
-1.918689956331761
 20
70.7189544104802224
 10
-0.9586899563317246
 20
70.9323144104802452
  0
LINE
  5
20E
100
AcDbEntity
100
AcDbLine
  8
0
 62
7
370
-1
  6
ByLayer
 10
-20.1586899563317417
 20
-86.2676855895197718
 30
0.0
 11
-20.1586899563317417
 21
-76.6676855895197917
 31
0.0
  0
LWPOLYLINE
  5
20F
  8
0
 62
7
370
-1
  6
ByLayer
100
AcDbEntity
100
AcDbPolyline
 90
4
 70
0
 10
-20.1586899563317417
 20
-76.6676855895197917
 10
-20.3720499563317361
 20
-77.6276855895197855
 10
-19.9453299563317188
 20
-77.6276855895197855
 10
-20.1586899563317417
 20
-76.6676855895197917
  0
LINE
  5
210
100
AcDbEntity
100
AcDbLine
  8
0
 62
7
370
-1
  6
ByLayer
 10
2.6413100436682555
 20
-86.2676855895197718
 30
0.0
 11
2.6413100436682555
 21
-76.6676855895197917
 31
0.0
  0
LINE
  5
211
100
AcDbEntity
100
AcDbLine
  8
0
 62
7
370
-1
  6
ByLayer
 10
2.6413100436682555
 20
-14.2676855895197754
 30
0.0
 11
2.6413100436682555
 21
-4.6676855895197669
 31
0.0
  0
LINE
  5
212
100
AcDbEntity
100
AcDbLine
  8
0
 62
7
370
-1
  6
ByLayer
 10
2.6413100436682555
 20
57.7323144104802282
 30
0.0
 11
2.6413100436682555
 21
67.3323144104802367
 31
0.0
  0
LWPOLYLINE
  5
213
  8
0
 62
7
370
-1
  6
ByLayer
100
AcDbEntity
100
AcDbPolyline
 90
4
 70
0
 10
2.6413100436682555
 20
-76.6676855895197917
 10
2.4279500436682611
 20
-77.6276855895197855
 10
2.8546700436682642
 20
-77.6276855895197855
 10
2.6413100436682555
 20
-76.6676855895197917
  0
LWPOLYLINE
  5
214
  8
0
 62
7
370
-1
  6
ByLayer
100
AcDbEntity
100
AcDbPolyline
 90
4
 70
0
 10
2.6413100436682555
 20
-4.6676855895197669
 10
2.4279500436682611
 20
-5.6276855895197642
 10
2.8546700436682642
 20
-5.6276855895197642
 10
2.6413100436682555
 20
-4.6676855895197669
  0
LWPOLYLINE
  5
215
  8
0
 62
7
370
-1
  6
ByLayer
100
AcDbEntity
100
AcDbPolyline
 90
4
 70
0
 10
2.6413100436682555
 20
67.3323144104802367
 10
2.4279500436682611
 20
66.3723144104802145
 10
2.8546700436682642
 20
66.3723144104802145
 10
2.6413100436682555
 20
67.3323144104802367
  0
LINE
  5
216
100
AcDbEntity
100
AcDbLine
  8
0
 62
7
370
-1
  6
CONTINUOUS
 10
-3.3586899563317161
 20
-51.4676855895197747
 30
0.0
 11
-106.5586899563317473
 21
-51.4676855895197747
 31
0.0
  0
LINE
  5
217
100
AcDbEntity
100
AcDbLine
  8
0
 62
7
370
-1
  6
CONTINUOUS
 10
-3.3586899563317161
 20
20.5323144104802289
 30
0.0
 11
-106.5586899563317473
 21
20.5323144104802289
 31
0.0
  0
LINE
  5
218
100
AcDbEntity
100
AcDbLine
  8
0
 62
7
370
-1
  6
CONTINUOUS
 10
-3.3586899563317161
 20
92.5323144104802111
 30
0.0
 11
-106.5586899563317473
 21
92.5323144104802111
 31
0.0
  0
LINE
  5
219
100
AcDbEntity
100
AcDbLine
  8
0
 62
7
370
-1
  6
ByLayer
 10
48.2413100436682782
 20
32.5323144104802111
 30
0.0
 11
48.2413100436682782
 21
34.9323144104802452
 31
0.0
  0
LINE
  5
21A
100
AcDbEntity
100
AcDbLine
  8
0
 62
7
370
-1
  6
ByLayer
 10
48.2413100436682782
 20
104.5323144104802111
 30
0.0
 11
48.2413100436682782
 21
106.9323144104802452
 31
0.0
  0
LINE
  5
21B
100
AcDbEntity
100
AcDbLine
  8
0
 62
7
370
-1
  6
ByLayer
 10
48.2413100436682782
 20
30.1323144104802196
 30
0.0
 11
48.2413100436682782
 21
27.7323144104802282
 31
0.0
  0
LINE
  5
21C
100
AcDbEntity
100
AcDbLine
  8
0
 62
7
370
-1
  6
ByLayer
 10
48.2413100436682782
 20
102.1323144104802196
 30
0.0
 11
48.2413100436682782
 21
99.7323144104802282
 31
0.0
  0
LINE
  5
21D
100
AcDbEntity
100
AcDbLine
  8
0
 62
7
370
-1
  6
ByLayer
 10
36.0247580436682711
 20
-73.0676855895197832
 30
0.0
 11
19.4413100436682527
 21
-73.0676855895197832
 31
0.0
  0
LINE
  5
21E
100
AcDbEntity
100
AcDbLine
  8
0
 62
7
370
-1
  6
ByLayer
 10
36.0247580436682711
 20
-1.0676855895197797
 30
0.0
 11
19.4413100436682527
 21
-1.0676855895197797
 31
0.0
  0
LINE
  5
21F
100
AcDbEntity
100
AcDbLine
  8
0
 62
7
370
-1
  6
ByLayer
 10
36.0247580436682711
 20
70.9323144104802452
 30
0.0
 11
19.4413100436682527
 21
70.9323144104802452
 31
0.0
  0
LINE
  5
220
100
AcDbEntity
100
AcDbLine
  8
0
 62
7
370
-1
  6
ByLayer
 10
6.2413100436682498
 20
-73.0676855895197832
 30
0.0
 11
9.8413100436682583
 21
-73.0676855895197832
 31
0.0
  0
LINE
  5
221
100
AcDbEntity
100
AcDbLine
  8
0
 62
7
370
-1
  6
ByLayer
 10
6.2413100436682498
 20
-1.0676855895197797
 30
0.0
 11
9.8413100436682583
 21
-1.0676855895197797
 31
0.0
  0
LINE
  5
222
100
AcDbEntity
100
AcDbLine
  8
0
 62
7
370
-1
  6
ByLayer
 10
6.2413100436682498
 20
70.9323144104802452
 30
0.0
 11
9.8413100436682583
 21
70.9323144104802452
 31
0.0
  0
LWPOLYLINE
  5
223
  8
0
 62
7
370
-1
  6
ByLayer
100
AcDbEntity
100
AcDbPolyline
 90
4
 70
0
 10
19.4413100436682527
 20
-73.0676855895197832
 10
20.4013100436682748
 20
-72.8543255895197888
 10
20.4013100436682748
 20
-73.2810455895197776
 10
19.4413100436682527
 20
-73.0676855895197832
  0
LWPOLYLINE
  5
224
  8
0
 62
7
370
-1
  6
ByLayer
100
AcDbEntity
100
AcDbPolyline
 90
4
 70
0
 10
19.4413100436682527
 20
-1.0676855895197797
 10
20.4013100436682748
 20
-0.8543255895197781
 10
20.4013100436682748
 20
-1.2810455895197812
 10
19.4413100436682527
 20
-1.0676855895197797
  0
LWPOLYLINE
  5
225
  8
0
 62
7
370
-1
  6
ByLayer
100
AcDbEntity
100
AcDbPolyline
 90
4
 70
0
 10
19.4413100436682527
 20
70.9323144104802452
 10
20.4013100436682748
 20
71.1456744104802254
 10
20.4013100436682748
 20
70.7189544104802224
 10
19.4413100436682527
 20
70.9323144104802452
  0
LWPOLYLINE
  5
226
  8
0
 62
7
370
-1
  6
ByLayer
100
AcDbEntity
100
AcDbPolyline
 90
4
 70
0
 10
9.8413100436682583
 20
-73.0676855895197832
 10
8.8813100436682362
 20
-72.8543255895197888
 10
8.8813100436682362
 20
-73.2810455895197776
 10
9.8413100436682583
 20
-73.0676855895197832
  0
LWPOLYLINE
  5
227
  8
0
 62
7
370
-1
  6
ByLayer
100
AcDbEntity
100
AcDbPolyline
 90
4
 70
0
 10
9.8413100436682583
 20
-1.0676855895197797
 10
8.8813100436682362
 20
-0.8543255895197781
 10
8.8813100436682362
 20
-1.2810455895197812
 10
9.8413100436682583
 20
-1.0676855895197797
  0
LWPOLYLINE
  5
228
  8
0
 62
7
370
-1
  6
ByLayer
100
AcDbEntity
100
AcDbPolyline
 90
4
 70
0
 10
9.8413100436682583
 20
70.9323144104802452
 10
8.8813100436682362
 20
71.1456744104802254
 10
8.8813100436682362
 20
70.7189544104802224
 10
9.8413100436682583
 20
70.9323144104802452
  0
LINE
  5
229
100
AcDbEntity
100
AcDbLine
  8
0
 62
7
370
-1
  6
ByLayer
 10
37.2247580436682597
 20
16.9323144104802239
 30
0.0
 11
37.2247580436682597
 21
30.1323144104802196
 31
0.0
  0
LINE
  5
22A
100
AcDbEntity
100
AcDbLine
  8
0
 62
7
370
-1
  6
ByLayer
 10
37.2247580436682597
 20
88.9323144104802452
 30
0.0
 11
37.2247580436682597
 21
102.1323144104802196
 31
0.0
  0
LINE
  5
22B
100
AcDbEntity
100
AcDbLine
  8
0
 62
7
370
-1
  6
ByLayer
 10
34.8247580436682824
 20
16.9323144104802239
 30
0.0
 11
34.8247580436682824
 21
32.5323144104802111
 31
0.0
  0
LINE
  5
22C
100
AcDbEntity
100
AcDbLine
  8
0
 62
7
370
-1
  6
ByLayer
 10
34.8247580436682824
 20
88.9323144104802452
 30
0.0
 11
34.8247580436682824
 21
104.5323144104802111
 31
0.0
  0
LINE
  5
22D
100
AcDbEntity
100
AcDbLine
  8
0
 62
7
370
-1
  6
ByLayer
 10
48.2413100436682782
 20
106.9323144104802452
 30
0.0
 11
53.0413100436682896
 21
106.9323144104802452
 31
0.0
  0
LWPOLYLINE
  5
22E
  8
0
 62
7
370
-1
  6
ByLayer
100
AcDbEntity
100
AcDbPolyline
 90
4
 70
0
 10
53.0413100436682896
 20
106.9323144104802452
 10
52.0813100436682817
 20
107.1456744104802397
 10
52.0813100436682817
 20
106.7189544104802224
 10
53.0413100436682896
 20
106.9323144104802452
  0
LINE
  5
22F
100
AcDbEntity
100
AcDbLine
  8
0
 62
7
370
-1
  6
ByLayer
 10
48.2413100436682782
 20
99.7323144104802282
 30
0.0
 11
53.0413100436682896
 21
99.7323144104802282
 31
0.0
  0
LWPOLYLINE
  5
230
  8
0
 62
7
370
-1
  6
ByLayer
100
AcDbEntity
100
AcDbPolyline
 90
4
 70
0
 10
53.0413100436682896
 20
99.7323144104802282
 10
52.0813100436682817
 20
99.9456744104802084
 10
52.0813100436682817
 20
99.5189544104802479
 10
53.0413100436682896
 20
99.7323144104802282
  0
LINE
  5
231
100
AcDbEntity
100
AcDbLine
  8
0
 62
7
370
-1
  6
ByLayer
 10
34.8247580436682824
 20
32.5323144104802111
 30
0.0
 11
48.2413100436682782
 21
32.5323144104802111
 31
0.0
  0
LINE
  5
232
100
AcDbEntity
100
AcDbLine
  8
0
 62
7
370
-1
  6
ByLayer
 10
34.8247580436682824
 20
104.5323144104802111
 30
0.0
 11
48.2413100436682782
 21
104.5323144104802111
 31
0.0
  0
LINE
  5
233
100
AcDbEntity
100
AcDbLine
  8
0
 62
7
370
-1
  6
ByLayer
 10
37.2247580436682597
 20
30.1323144104802196
 30
0.0
 11
48.2413100436682782
 21
30.1323144104802196
 31
0.0
  0
LINE
  5
234
100
AcDbEntity
100
AcDbLine
  8
0
 62
7
370
-1
  6
ByLayer
 10
37.2247580436682597
 20
102.1323144104802196
 30
0.0
 11
48.2413100436682782
 21
102.1323144104802196
 31
0.0
  0
LINE
  5
235
100
AcDbEntity
100
AcDbLine
  8
0
 62
7
370
-1
  6
ByLayer
 10
44.4247580436682483
 20
10.9323144104802221
 30
0.0
 11
44.4247580436682483
 21
7.3323144104802349
 31
0.0
  0
LINE
  5
236
100
AcDbEntity
100
AcDbLine
  8
0
 62
7
370
-1
  6
ByLayer
 10
44.4247580436682483
 20
82.9323144104802452
 30
0.0
 11
44.4247580436682483
 21
79.3323144104802367
 31
0.0
  0
LINE
  5
237
100
AcDbEntity
100
AcDbLine
  8
0
 62
7
370
-1
  6
ByLayer
 10
44.4247580436682483
 20
7.3323144104802349
 30
0.0
 11
48.0247580436682711
 21
7.3323144104802349
 31
0.0
  0
LINE
  5
238
100
AcDbEntity
100
AcDbLine
  8
0
 62
7
370
-1
  6
ByLayer
 10
44.4247580436682483
 20
79.3323144104802367
 30
0.0
 11
48.0247580436682711
 21
79.3323144104802367
 31
0.0
  0
LINE
  5
239
100
AcDbEntity
100
AcDbLine
  8
0
 62
7
370
-1
  6
ByLayer
 10
45.6247580436682654
 20
84.1323144104802196
 30
0.0
 11
45.6247580436682654
 21
82.9323144104802452
 31
0.0
  0
LINE
  5
23A
100
AcDbEntity
100
AcDbLine
  8
0
 62
7
370
-1
  6
ByLayer
 10
45.6247580436682654
 20
82.9323144104802452
 30
0.0
 11
48.0247580436682711
 21
82.9323144104802452
 31
0.0
  0
LINE
  5
23B
100
AcDbEntity
100
AcDbLine
  8
0
 62
7
370
-1
  6
ByLayer
 10
45.6247580436682654
 20
13.3323144104802349
 30
0.0
 11
45.6247580436682654
 21
14.5323144104802306
 31
0.0
  0
LINE
  5
23C
100
AcDbEntity
100
AcDbLine
  8
0
 62
7
370
-1
  6
ByLayer
 10
45.6247580436682654
 20
85.3323144104802367
 30
0.0
 11
45.6247580436682654
 21
86.5323144104802111
 31
0.0
  0
LINE
  5
23D
100
AcDbEntity
100
AcDbLine
  8
0
 62
7
370
-1
  6
ByLayer
 10
45.6247580436682654
 20
14.5323144104802306
 30
0.0
 11
48.0247580436682711
 21
14.5323144104802306
 31
0.0
  0
LINE
  5
23E
100
AcDbEntity
100
AcDbLine
  8
0
 62
7
370
-1
  6
ByLayer
 10
45.6247580436682654
 20
86.5323144104802111
 30
0.0
 11
48.0247580436682711
 21
86.5323144104802111
 31
0.0
  0
LINE
  5
23F
100
AcDbEntity
100
AcDbLine
  8
0
 62
7
370
-1
  6
ByLayer
 10
44.4247580436682483
 20
14.5323144104802306
 30
0.0
 11
44.4247580436682483
 21
18.1323144104802196
 31
0.0
  0
LINE
  5
240
100
AcDbEntity
100
AcDbLine
  8
0
 62
7
370
-1
  6
ByLayer
 10
44.4247580436682483
 20
86.5323144104802111
 30
0.0
 11
44.4247580436682483
 21
90.1323144104802196
 31
0.0
  0
LINE
  5
241
100
AcDbEntity
100
AcDbLine
  8
0
 62
7
370
-1
  6
ByLayer
 10
44.4247580436682483
 20
18.1323144104802196
 30
0.0
 11
48.0247580436682711
 21
18.1323144104802196
 31
0.0
  0
LINE
  5
242
100
AcDbEntity
100
AcDbLine
  8
0
 62
7
370
-1
  6
ByLayer
 10
44.4247580436682483
 20
90.1323144104802196
 30
0.0
 11
48.0247580436682711
 21
90.1323144104802196
 31
0.0
  0
LINE
  5
243
100
AcDbEntity
100
AcDbLine
  8
0
 62
7
370
-1
  6
ByLayer
 10
39.6247580436682654
 20
-57.4676855895197747
 30
0.0
 11
48.0247580436682711
 21
-57.4676855895197747
 31
0.0
  0
LINE
  5
244
100
AcDbEntity
100
AcDbLine
  8
0
 62
7
370
-1
  6
ByLayer
 10
39.6247580436682654
 20
14.5323144104802306
 30
0.0
 11
44.4247580436682483
 21
14.5323144104802306
 31
0.0
  0
LINE
  5
245
100
AcDbEntity
100
AcDbLine
  8
0
 62
7
370
-1
  6
ByLayer
 10
39.6247580436682654
 20
86.5323144104802111
 30
0.0
 11
44.4247580436682483
 21
86.5323144104802111
 31
0.0
  0
LWPOLYLINE
  5
246
  8
0
 62
7
370
-1
  6
ByLayer
100
AcDbEntity
100
AcDbPolyline
 90
4
 70
0
 10
39.6247580436682654
 20
-57.4676855895197747
 10
40.5847580436682449
 20
-57.2543255895197802
 10
40.5847580436682449
 20
-57.6810455895197691
 10
39.6247580436682654
 20
-57.4676855895197747
  0
LWPOLYLINE
  5
247
  8
0
 62
7
370
-1
  6
ByLayer
100
AcDbEntity
100
AcDbPolyline
 90
4
 70
0
 10
39.6247580436682654
 20
14.5323144104802306
 10
40.5847580436682449
 20
14.745674410480234
 10
40.5847580436682449
 20
14.3189544104802291
 10
39.6247580436682654
 20
14.5323144104802306
  0
LWPOLYLINE
  5
248
  8
0
 62
7
370
-1
  6
ByLayer
100
AcDbEntity
100
AcDbPolyline
 90
4
 70
0
 10
39.6247580436682654
 20
86.5323144104802111
 10
40.5847580436682449
 20
86.745674410480234
 10
40.5847580436682449
 20
86.3189544104802309
 10
39.6247580436682654
 20
86.5323144104802111
  0
LINE
  5
249
100
AcDbEntity
100
AcDbLine
  8
0
 62
7
370
-1
  6
ByLayer
 10
39.6247580436682654
 20
13.3323144104802349
 30
0.0
 11
45.6247580436682654
 21
13.3323144104802349
 31
0.0
  0
LINE
  5
24A
100
AcDbEntity
100
AcDbLine
  8
0
 62
7
370
-1
  6
ByLayer
 10
39.6247580436682654
 20
85.3323144104802367
 30
0.0
 11
45.6247580436682654
 21
85.3323144104802367
 31
0.0
  0
LWPOLYLINE
  5
24B
  8
0
 62
7
370
-1
  6
ByLayer
100
AcDbEntity
100
AcDbPolyline
 90
4
 70
0
 10
39.6247580436682654
 20
13.3323144104802349
 10
40.5847580436682449
 20
13.5456744104802365
 10
40.5847580436682449
 20
13.1189544104802334
 10
39.6247580436682654
 20
13.3323144104802349
  0
LWPOLYLINE
  5
24C
  8
0
 62
7
370
-1
  6
ByLayer
100
AcDbEntity
100
AcDbPolyline
 90
4
 70
0
 10
39.6247580436682654
 20
85.3323144104802367
 10
40.5847580436682449
 20
85.5456744104802027
 10
40.5847580436682449
 20
85.1189544104802138
 10
39.6247580436682654
 20
85.3323144104802367
  0
LINE
  5
24D
100
AcDbEntity
100
AcDbLine
  8
0
 62
7
370
-1
  6
ByLayer
 10
39.6247580436682654
 20
84.1323144104802196
 30
0.0
 11
45.6247580436682654
 21
84.1323144104802196
 31
0.0
  0
LWPOLYLINE
  5
24E
  8
0
 62
7
370
-1
  6
ByLayer
100
AcDbEntity
100
AcDbPolyline
 90
4
 70
0
 10
39.6247580436682654
 20
84.1323144104802196
 10
40.5847580436682449
 20
84.3456744104802425
 10
40.5847580436682449
 20
83.9189544104802252
 10
39.6247580436682654
 20
84.1323144104802196
  0
LINE
  5
24F
100
AcDbEntity
100
AcDbLine
  8
0
 62
7
370
-1
  6
ByLayer
 10
39.6247580436682654
 20
-61.0676855895197832
 30
0.0
 11
48.0247580436682711
 21
-61.0676855895197832
 31
0.0
  0
LINE
  5
250
100
AcDbEntity
100
AcDbLine
  8
0
 62
7
370
-1
  6
ByLayer
 10
39.6247580436682654
 20
10.9323144104802221
 30
0.0
 11
44.4247580436682483
 21
10.9323144104802221
 31
0.0
  0
LINE
  5
251
100
AcDbEntity
100
AcDbLine
  8
0
 62
7
370
-1
  6
ByLayer
 10
39.6247580436682654
 20
82.9323144104802452
 30
0.0
 11
44.4247580436682483
 21
82.9323144104802452
 31
0.0
  0
LWPOLYLINE
  5
252
  8
0
 62
7
370
-1
  6
ByLayer
100
AcDbEntity
100
AcDbPolyline
 90
4
 70
0
 10
39.6247580436682654
 20
-61.0676855895197832
 10
40.5847580436682449
 20
-60.8543255895197888
 10
40.5847580436682449
 20
-61.2810455895197919
 10
39.6247580436682654
 20
-61.0676855895197832
  0
LWPOLYLINE
  5
253
  8
0
 62
7
370
-1
  6
ByLayer
100
AcDbEntity
100
AcDbPolyline
 90
4
 70
0
 10
39.6247580436682654
 20
10.9323144104802221
 10
40.5847580436682449
 20
11.1456744104802237
 10
40.5847580436682449
 20
10.7189544104802206
 10
39.6247580436682654
 20
10.9323144104802221
  0
LWPOLYLINE
  5
254
  8
0
 62
7
370
-1
  6
ByLayer
100
AcDbEntity
100
AcDbPolyline
 90
4
 70
0
 10
39.6247580436682654
 20
82.9323144104802452
 10
40.5847580436682449
 20
83.1456744104802254
 10
40.5847580436682449
 20
82.7189544104802224
 10
39.6247580436682654
 20
82.9323144104802452
  0
LINE
  5
255
100
AcDbEntity
100
AcDbLine
  8
0
 62
7
370
-1
  6
ByLayer
 10
48.2413100436682782
 20
34.9323144104802452
 30
0.0
 11
53.0413100436682896
 21
34.9323144104802452
 31
0.0
  0
LWPOLYLINE
  5
256
  8
0
 62
7
370
-1
  6
ByLayer
100
AcDbEntity
100
AcDbPolyline
 90
4
 70
0
 10
53.0413100436682896
 20
34.9323144104802452
 10
52.0813100436682817
 20
35.1456744104802254
 10
52.0813100436682817
 20
34.7189544104802224
 10
53.0413100436682896
 20
34.9323144104802452
  0
LINE
  5
257
100
AcDbEntity
100
AcDbLine
  8
0
 62
7
370
-1
  6
ByLayer
 10
48.2413100436682782
 20
27.7323144104802282
 30
0.0
 11
53.0413100436682896
 21
27.7323144104802282
 31
0.0
  0
LWPOLYLINE
  5
258
  8
0
 62
7
370
-1
  6
ByLayer
100
AcDbEntity
100
AcDbPolyline
 90
4
 70
0
 10
53.0413100436682896
 20
27.7323144104802282
 10
52.0813100436682817
 20
27.9456744104802084
 10
52.0813100436682817
 20
27.5189544104802266
 10
53.0413100436682896
 20
27.7323144104802282
  0
LINE
  5
259
100
AcDbEntity
100
AcDbLine
  8
0
 62
7
370
-1
  6
ByLayer
 10
48.2413100436682782
 20
-37.067685589519769
 30
0.0
 11
48.2413100436682782
 21
-39.4676855895197605
 31
0.0
  0
LINE
  5
25A
100
AcDbEntity
100
AcDbLine
  8
0
 62
7
370
-1
  6
ByLayer
 10
48.2413100436682782
 20
-39.4676855895197605
 30
0.0
 11
39.6247580436682654
 21
-39.4676855895197605
 31
0.0
  0
LINE
  5
25B
100
AcDbEntity
100
AcDbLine
  8
0
 62
7
370
-1
  6
ByLayer
 10
47.0413100436682896
 20
-33.4676855895197605
 30
0.0
 11
47.0413100436682896
 21
-38.2676855895197718
 31
0.0
  0
LINE
  5
25C
100
AcDbEntity
100
AcDbLine
  8
0
 62
7
370
-1
  6
ByLayer
 10
47.0413100436682896
 20
-38.2676855895197718
 30
0.0
 11
39.6247580436682654
 21
-38.2676855895197718
 31
0.0
  0
LINE
  5
25D
100
AcDbEntity
100
AcDbLine
  8
0
 62
7
370
-1
  6
ByLayer
 10
48.2413100436682782
 20
-44.2676855895197718
 30
0.0
 11
48.2413100436682782
 21
-41.8676855895197662
 31
0.0
  0
LINE
  5
25E
100
AcDbEntity
100
AcDbLine
  8
0
 62
7
370
-1
  6
ByLayer
 10
48.2413100436682782
 20
-41.8676855895197662
 30
0.0
 11
39.6247580436682654
 21
-41.8676855895197662
 31
0.0
  0
LINE
  5
25F
100
AcDbEntity
100
AcDbLine
  8
0
 62
7
370
-1
  6
ByLayer
 10
47.0413100436682896
 20
-47.8676855895197804
 30
0.0
 11
47.0413100436682896
 21
-43.067685589519769
 31
0.0
  0
LINE
  5
260
100
AcDbEntity
100
AcDbLine
  8
0
 62
7
370
-1
  6
ByLayer
 10
47.0413100436682896
 20
-43.067685589519769
 30
0.0
 11
39.6247580436682654
 21
-43.067685589519769
 31
0.0
  0
LINE
  5
261
100
AcDbEntity
100
AcDbLine
  8
0
 62
7
370
-1
  6
ByLayer
 10
53.0413100436682896
 20
-47.8676855895197804
 30
0.0
 11
47.0413100436682896
 21
-47.8676855895197804
 31
0.0
  0
LWPOLYLINE
  5
262
  8
0
 62
7
370
-1
  6
ByLayer
100
AcDbEntity
100
AcDbPolyline
 90
4
 70
0
 10
53.0413100436682896
 20
-47.8676855895197804
 10
52.0813100436682817
 20
-47.6543255895197859
 10
52.0813100436682817
 20
-48.081045589519789
 10
53.0413100436682896
 20
-47.8676855895197804
  0
LINE
  5
263
100
AcDbEntity
100
AcDbLine
  8
0
 62
7
370
-1
  6
ByLayer
 10
53.0413100436682896
 20
-44.2676855895197718
 30
0.0
 11
48.2413100436682782
 21
-44.2676855895197718
 31
0.0
  0
LWPOLYLINE
  5
264
  8
0
 62
7
370
-1
  6
ByLayer
100
AcDbEntity
100
AcDbPolyline
 90
4
 70
0
 10
53.0413100436682896
 20
-44.2676855895197718
 10
52.0813100436682817
 20
-44.0543255895197632
 10
52.0813100436682817
 20
-44.4810455895197663
 10
53.0413100436682896
 20
-44.2676855895197718
  0
LINE
  5
265
100
AcDbEntity
100
AcDbLine
  8
0
 62
7
370
-1
  6
ByLayer
 10
53.0413100436682896
 20
-40.6676855895197633
 30
0.0
 11
39.6247580436682654
 21
-40.6676855895197633
 31
0.0
  0
LWPOLYLINE
  5
266
  8
0
 62
7
370
-1
  6
ByLayer
100
AcDbEntity
100
AcDbPolyline
 90
4
 70
0
 10
53.0413100436682896
 20
-40.6676855895197633
 10
52.0813100436682817
 20
-40.4543255895197689
 10
52.0813100436682817
 20
-40.8810455895197578
 10
53.0413100436682896
 20
-40.6676855895197633
  0
LINE
  5
267
100
AcDbEntity
100
AcDbLine
  8
0
 62
7
370
-1
  6
ByLayer
 10
53.0413100436682896
 20
-37.067685589519769
 30
0.0
 11
48.2413100436682782
 21
-37.067685589519769
 31
0.0
  0
LWPOLYLINE
  5
268
  8
0
 62
7
370
-1
  6
ByLayer
100
AcDbEntity
100
AcDbPolyline
 90
4
 70
0
 10
53.0413100436682896
 20
-37.067685589519769
 10
52.0813100436682817
 20
-36.8543255895197746
 10
52.0813100436682817
 20
-37.2810455895197776
 10
53.0413100436682896
 20
-37.067685589519769
  0
LINE
  5
269
100
AcDbEntity
100
AcDbLine
  8
0
 62
7
370
-1
  6
ByLayer
 10
53.0413100436682896
 20
-33.4676855895197605
 30
0.0
 11
47.0413100436682896
 21
-33.4676855895197605
 31
0.0
  0
LWPOLYLINE
  5
26A
  8
0
 62
7
370
-1
  6
ByLayer
100
AcDbEntity
100
AcDbPolyline
 90
4
 70
0
 10
53.0413100436682896
 20
-33.4676855895197605
 10
52.0813100436682817
 20
-33.254325589519766
 10
52.0813100436682817
 20
-33.6810455895197691
 10
53.0413100436682896
 20
-33.4676855895197605
  0
MTEXT
  5
26B
100
AcDbEntity
100
AcDbMText
  8
0
 62
7
370
-1
  6
ByLayer
 10
-84.9586899563317388
 20
-56.267685589519786
 30
0.0
 40
1.2000000000000002
 41
1200.0
 71
5
 72
2
  1
1/x
  7
STYLE3
 50
0.0
 73
0
 44
1.0
  0
MTEXT
  5
26C
100
AcDbEntity
100
AcDbMText
  8
0
 62
7
370
-1
  6
ByLayer
 10
-86.1586899563317559
 20
15.7323144104802282
 30
0.0
 40
1.2000000000000002
 41
1200.0
 71
5
 72
2
  1
1/x
  7
STYLE3
 50
0.0
 73
0
 44
1.0
  0
MTEXT
  5
26D
100
AcDbEntity
100
AcDbMText
  8
0
 62
7
370
-1
  6
ByLayer
 10
-86.1586899563317559
 20
87.7323144104802282
 30
0.0
 40
1.2000000000000002
 41
1200.0
 71
5
 72
2
  1
1/x
  7
STYLE3
 50
0.0
 73
0
 44
1.0
  0
LWPOLYLINE
  5
26E
  8
0
 62
7
370
-1
  6
ByLayer
100
AcDbEntity
100
AcDbPolyline
 90
6
 70
1
 10
-87.3586899563317303
 20
-58.6676855895197775
 10
-87.3586899563317303
 20
-53.8676855895197804
 10
-82.5586899563317473
 20
-53.8676855895197804
 10
-82.5586899563317473
 20
-58.6676855895197775
 10
-87.3586899563317303
 20
-58.6676855895197775
 10
-87.3586899563317303
 20
-58.6676855895197775
  0
LWPOLYLINE
  5
26F
  8
0
 62
7
370
-1
  6
ByLayer
100
AcDbEntity
100
AcDbPolyline
 90
6
 70
1
 10
-88.5586899563317473
 20
13.3323144104802349
 10
-88.5586899563317473
 20
18.1323144104802196
 10
-83.7586899563317644
 20
18.1323144104802196
 10
-83.7586899563317644
 20
13.3323144104802349
 10
-88.5586899563317473
 20
13.3323144104802349
 10
-88.5586899563317473
 20
13.3323144104802349
  0
LWPOLYLINE
  5
270
  8
0
 62
7
370
-1
  6
ByLayer
100
AcDbEntity
100
AcDbPolyline
 90
6
 70
1
 10
-88.5586899563317473
 20
85.3323144104802367
 10
-88.5586899563317473
 20
90.1323144104802196
 10
-83.7586899563317644
 20
90.1323144104802196
 10
-83.7586899563317644
 20
85.3323144104802367
 10
-88.5586899563317473
 20
85.3323144104802367
 10
-88.5586899563317473
 20
85.3323144104802367
  0
LWPOLYLINE
  5
271
  8
0
 62
7
370
-1
  6
ByLayer
100
AcDbEntity
100
AcDbPolyline
 90
2
 70
0
 10
-84.9586899563317388
 20
-58.6676855895197775
 10
-84.9586899563317388
 20
-64.6676855895197775
  0
LWPOLYLINE
  5
272
  8
0
 62
7
370
-1
  6
ByLayer
100
AcDbEntity
100
AcDbPolyline
 90
4
 70
0
 10
-84.9586899563317388
 20
-58.6676855895197775
 10
-85.1720499563317617
 20
-59.6276855895197713
 10
-84.7453299563317586
 20
-59.6276855895197713
 10
-84.9586899563317388
 20
-58.6676855895197775
  0
LWPOLYLINE
  5
273
  8
0
 62
7
370
-1
  6
ByLayer
100
AcDbEntity
100
AcDbPolyline
 90
2
 70
0
 10
-86.1586899563317559
 20
13.3323144104802349
 10
-86.1586899563317559
 20
7.3323144104802349
  0
LWPOLYLINE
  5
274
  8
0
 62
7
370
-1
  6
ByLayer
100
AcDbEntity
100
AcDbPolyline
 90
2
 70
0
 10
-86.1586899563317559
 20
85.3323144104802367
 10
-86.1586899563317559
 20
79.3323144104802367
  0
LWPOLYLINE
  5
275
  8
0
 62
7
370
-1
  6
ByLayer
100
AcDbEntity
100
AcDbPolyline
 90
4
 70
0
 10
-86.1586899563317559
 20
13.3323144104802349
 10
-86.3720499563317361
 20
12.3723144104802341
 10
-85.945329956331733
 20
12.3723144104802341
 10
-86.1586899563317559
 20
13.3323144104802349
  0
LWPOLYLINE
  5
276
  8
0
 62
7
370
-1
  6
ByLayer
100
AcDbEntity
100
AcDbPolyline
 90
4
 70
0
 10
-86.1586899563317559
 20
85.3323144104802367
 10
-86.3720499563317361
 20
84.3723144104802003
 10
-85.945329956331733
 20
84.3723144104802003
 10
-86.1586899563317559
 20
85.3323144104802367
  0
LINE
  5
277
100
AcDbEntity
100
AcDbLine
  8
0
 62
7
370
-1
  6
ByLayer
 10
-84.9586899563317388
 20
-43.6676855895197633
 30
0.0
 11
-84.9586899563317388
 21
-53.8676855895197804
 31
0.0
  0
LINE
  5
278
100
AcDbEntity
100
AcDbLine
  8
0
 62
7
370
-1
  6
ByLayer
 10
-86.1586899563317559
 20
28.3323144104802367
 30
0.0
 11
-86.1586899563317559
 21
18.1323144104802196
 31
0.0
  0
LINE
  5
279
100
AcDbEntity
100
AcDbLine
  8
0
 62
7
370
-1
  6
ByLayer
 10
-86.1586899563317559
 20
100.3323144104802367
 30
0.0
 11
-86.1586899563317559
 21
90.1323144104802196
 31
0.0
  0
LWPOLYLINE
  5
27A
  8
0
 62
7
370
-1
  6
ByLayer
100
AcDbEntity
100
AcDbPolyline
 90
4
 70
0
 10
-84.9586899563317388
 20
-43.6676855895197633
 10
-85.1720499563317617
 20
-44.6276855895197571
 10
-84.7453299563317586
 20
-44.6276855895197571
 10
-84.9586899563317388
 20
-43.6676855895197633
  0
LWPOLYLINE
  5
27B
  8
0
 62
7
370
-1
  6
ByLayer
100
AcDbEntity
100
AcDbPolyline
 90
4
 70
0
 10
-86.1586899563317559
 20
28.3323144104802367
 10
-86.3720499563317361
 20
27.3723144104802358
 10
-85.945329956331733
 20
27.3723144104802358
 10
-86.1586899563317559
 20
28.3323144104802367
  0
LWPOLYLINE
  5
27C
  8
0
 62
7
370
-1
  6
ByLayer
100
AcDbEntity
100
AcDbPolyline
 90
4
 70
0
 10
-86.1586899563317559
 20
100.3323144104802367
 10
-86.3720499563317361
 20
99.3723144104802145
 10
-85.945329956331733
 20
99.3723144104802145
 10
-86.1586899563317559
 20
100.3323144104802367
  0
LINE
  5
27D
100
AcDbEntity
100
AcDbLine
  8
0
 62
7
370
-1
  6
ByLayer
 10
-88.5586899563317473
 20
-64.6676855895197775
 30
0.0
 11
-84.9586899563317388
 21
-64.6676855895197775
 31
0.0
  0
LWPOLYLINE
  5
27E
  8
0
 62
7
370
-1
  6
ByLayer
100
AcDbEntity
100
AcDbPolyline
 90
4
 70
0
 10
-84.9586899563317388
 20
-64.6676855895197775
 10
-85.918689956331761
 20
-64.4543255895197689
 10
-85.918689956331761
 20
-64.881045589519772
 10
-84.9586899563317388
 20
-64.6676855895197775
  0
LINE
  5
27F
100
AcDbEntity
100
AcDbLine
  8
0
 62
7
370
-1
  6
ByLayer
 10
-89.7586899563317644
 20
7.3323144104802349
 30
0.0
 11
-86.1586899563317559
 21
7.3323144104802349
 31
0.0
  0
LINE
  5
280
100
AcDbEntity
100
AcDbLine
  8
0
 62
7
370
-1
  6
ByLayer
 10
-89.7586899563317644
 20
79.3323144104802367
 30
0.0
 11
-86.1586899563317559
 21
79.3323144104802367
 31
0.0
  0
LWPOLYLINE
  5
281
  8
0
 62
7
370
-1
  6
ByLayer
100
AcDbEntity
100
AcDbPolyline
 90
4
 70
0
 10
-86.1586899563317559
 20
7.3323144104802349
 10
-87.1186899563317354
 20
7.5456744104802382
 10
-87.1186899563317354
 20
7.1189544104802316
 10
-86.1586899563317559
 20
7.3323144104802349
  0
LWPOLYLINE
  5
282
  8
0
 62
7
370
-1
  6
ByLayer
100
AcDbEntity
100
AcDbPolyline
 90
4
 70
0
 10
-86.1586899563317559
 20
79.3323144104802367
 10
-87.1186899563317354
 20
79.5456744104802027
 10
-87.1186899563317354
 20
79.1189544104802138
 10
-86.1586899563317559
 20
79.3323144104802367
  0
LINE
  5
283
100
AcDbEntity
100
AcDbLine
  8
0
 62
7
370
-1
  6
ByLayer
 10
-81.3586899563317303
 20
3.7323144104802282
 30
0.0
 11
-81.3586899563317303
 21
-5.8676855895197839
 31
0.0
  0
LINE
  5
284
100
AcDbEntity
100
AcDbLine
  8
0
 62
7
370
-1
  6
ByLayer
 10
-81.3586899563317303
 20
75.732314410480214
 30
0.0
 11
-81.3586899563317303
 21
66.1323144104802196
 31
0.0
  0
LINE
  5
285
100
AcDbEntity
100
AcDbLine
  8
0
 62
7
370
-1
  6
ByLayer
 10
-65.7586899563317502
 20
3.7323144104802282
 30
0.0
 11
-81.3586899563317303
 21
3.7323144104802282
 31
0.0
  0
LINE
  5
286
100
AcDbEntity
100
AcDbLine
  8
0
 62
7
370
-1
  6
ByLayer
 10
-65.7586899563317502
 20
75.732314410480214
 30
0.0
 11
-81.3586899563317303
 21
75.732314410480214
 31
0.0
  0
LWPOLYLINE
  5
287
  8
0
 62
7
370
-1
  6
ByLayer
100
AcDbEntity
100
AcDbPolyline
 90
4
 70
0
 10
-65.7586899563317502
 20
3.7323144104802282
 10
-66.7186899563317297
 20
3.9456744104802262
 10
-66.7186899563317297
 20
3.5189544104802266
 10
-65.7586899563317502
 20
3.7323144104802282
  0
LWPOLYLINE
  5
288
  8
0
 62
7
370
-1
  6
ByLayer
100
AcDbEntity
100
AcDbPolyline
 90
4
 70
0
 10
-65.7586899563317502
 20
75.732314410480214
 10
-66.7186899563317297
 20
75.9456744104802084
 10
-66.7186899563317297
 20
75.5189544104802479
 10
-65.7586899563317502
 20
75.732314410480214
  0
LINE
  5
289
100
AcDbEntity
100
AcDbLine
  8
0
 62
7
370
-1
  6
ByLayer
 10
-77.7586899563317644
 20
-5.8676855895197839
 30
0.0
 11
-81.3586899563317303
 21
-5.8676855895197839
 31
0.0
  0
LINE
  5
28A
100
AcDbEntity
100
AcDbLine
  8
0
 62
7
370
-1
  6
ByLayer
 10
-77.7586899563317644
 20
66.1323144104802196
 30
0.0
 11
-81.3586899563317303
 21
66.1323144104802196
 31
0.0
  0
LWPOLYLINE
  5
28B
  8
0
 62
7
370
-1
  6
ByLayer
100
AcDbEntity
100
AcDbPolyline
 90
4
 70
0
 10
-77.7586899563317644
 20
-5.8676855895197839
 10
-78.7186899563317439
 20
-5.6543255895197788
 10
-78.7186899563317439
 20
-6.0810455895197855
 10
-77.7586899563317644
 20
-5.8676855895197839
  0
LWPOLYLINE
  5
28C
  8
0
 62
7
370
-1
  6
ByLayer
100
AcDbEntity
100
AcDbPolyline
 90
4
 70
0
 10
-77.7586899563317644
 20
66.1323144104802196
 10
-78.7186899563317439
 20
66.3456744104802425
 10
-78.7186899563317439
 20
65.9189544104802394
 10
-77.7586899563317644
 20
66.1323144104802196
  0
LINE
  5
28D
100
AcDbEntity
100
AcDbLine
  8
0
 62
7
370
-1
  6
ByLayer
 10
-69.3586899563317161
 20
-5.8676855895197839
 30
0.0
 11
-65.7586899563317502
 21
-5.8676855895197839
 31
0.0
  0
LINE
  5
28E
100
AcDbEntity
100
AcDbLine
  8
0
 62
7
370
-1
  6
ByLayer
 10
-69.3586899563317161
 20
66.1323144104802196
 30
0.0
 11
-65.7586899563317502
 21
66.1323144104802196
 31
0.0
  0
LWPOLYLINE
  5
28F
  8
0
 62
7
370
-1
  6
ByLayer
100
AcDbEntity
100
AcDbPolyline
 90
4
 70
0
 10
-65.7586899563317502
 20
-5.8676855895197839
 10
-66.7186899563317297
 20
-5.6543255895197788
 10
-66.7186899563317297
 20
-6.0810455895197855
 10
-65.7586899563317502
 20
-5.8676855895197839
  0
LWPOLYLINE
  5
290
  8
0
 62
7
370
-1
  6
ByLayer
100
AcDbEntity
100
AcDbPolyline
 90
4
 70
0
 10
-65.7586899563317502
 20
66.1323144104802196
 10
-66.7186899563317297
 20
66.3456744104802425
 10
-66.7186899563317297
 20
65.9189544104802394
 10
-65.7586899563317502
 20
66.1323144104802196
  0
LINE
  5
291
100
AcDbEntity
100
AcDbLine
  8
0
 62
7
370
-1
  6
ByLayer
 10
-63.3586899563317161
 20
6.1323144104802196
 30
0.0
 11
-63.3586899563317161
 21
30.1323144104802196
 31
0.0
  0
LINE
  5
292
100
AcDbEntity
100
AcDbLine
  8
0
 62
7
370
-1
  6
ByLayer
 10
-63.3586899563317161
 20
78.1323144104802196
 30
0.0
 11
-63.3586899563317161
 21
102.1323144104802196
 31
0.0
  0
LWPOLYLINE
  5
293
  8
0
 62
7
370
-1
  6
ByLayer
100
AcDbEntity
100
AcDbPolyline
 90
4
 70
0
 10
-63.3586899563317161
 20
6.1323144104802196
 10
-63.1453299563317501
 20
7.0923144104802169
 10
-63.5720499563317389
 20
7.0923144104802169
 10
-63.3586899563317161
 20
6.1323144104802196
  0
LWPOLYLINE
  5
294
  8
0
 62
7
370
-1
  6
ByLayer
100
AcDbEntity
100
AcDbPolyline
 90
4
 70
0
 10
-63.3586899563317161
 20
78.1323144104802196
 10
-63.1453299563317501
 20
79.0923144104802276
 10
-63.5720499563317389
 20
79.0923144104802276
 10
-63.3586899563317161
 20
78.1323144104802196
  0
LINE
  5
295
100
AcDbEntity
100
AcDbLine
  8
0
 62
7
370
-1
  6
ByLayer
 10
-63.3586899563317161
 20
-8.2676855895197754
 30
0.0
 11
-63.3586899563317161
 21
-19.0676855895197725
 31
0.0
  0
LINE
  5
296
100
AcDbEntity
100
AcDbLine
  8
0
 62
7
370
-1
  6
ByLayer
 10
-63.3586899563317161
 20
63.7323144104802282
 30
0.0
 11
-63.3586899563317161
 21
52.9323144104802523
 31
0.0
  0
LWPOLYLINE
  5
297
  8
0
 62
7
370
-1
  6
ByLayer
100
AcDbEntity
100
AcDbPolyline
 90
4
 70
0
 10
-63.3586899563317161
 20
-8.2676855895197754
 10
-63.5720499563317389
 20
-9.2276855895197762
 10
-63.1453299563317501
 20
-9.2276855895197762
 10
-63.3586899563317161
 20
-8.2676855895197754
  0
LWPOLYLINE
  5
298
  8
0
 62
7
370
-1
  6
ByLayer
100
AcDbEntity
100
AcDbPolyline
 90
4
 70
0
 10
-63.3586899563317161
 20
63.7323144104802282
 10
-63.5720499563317389
 20
62.7723144104802486
 10
-63.1453299563317501
 20
62.7723144104802486
 10
-63.3586899563317161
 20
63.7323144104802282
  0
LINE
  5
299
100
AcDbEntity
100
AcDbLine
  8
0
 62
7
370
-1
  6
ByLayer
 10
-60.9586899563317388
 20
3.7323144104802282
 30
0.0
 11
-52.5586899563317473
 21
3.7323144104802282
 31
0.0
  0
LINE
  5
29A
100
AcDbEntity
100
AcDbLine
  8
0
 62
7
370
-1
  6
ByLayer
 10
-60.9586899563317388
 20
75.732314410480214
 30
0.0
 11
-52.5586899563317473
 21
75.732314410480214
 31
0.0
  0
LWPOLYLINE
  5
29B
  8
0
 62
7
370
-1
  6
ByLayer
100
AcDbEntity
100
AcDbPolyline
 90
4
 70
0
 10
-52.5586899563317473
 20
3.7323144104802282
 10
-53.5186899563317269
 20
3.9456744104802262
 10
-53.5186899563317269
 20
3.5189544104802266
 10
-52.5586899563317473
 20
3.7323144104802282
  0
LWPOLYLINE
  5
29C
  8
0
 62
7
370
-1
  6
ByLayer
100
AcDbEntity
100
AcDbPolyline
 90
4
 70
0
 10
-52.5586899563317473
 20
75.732314410480214
 10
-53.5186899563317269
 20
75.9456744104802084
 10
-53.5186899563317269
 20
75.5189544104802479
 10
-52.5586899563317473
 20
75.732314410480214
  0
LINE
  5
29D
100
AcDbEntity
100
AcDbLine
  8
0
 62
7
370
-1
  6
ByLayer
 10
-54.9586899563317388
 20
-5.8676855895197839
 30
0.0
 11
-52.5586899563317473
 21
-5.8676855895197839
 31
0.0
  0
LINE
  5
29E
100
AcDbEntity
100
AcDbLine
  8
0
 62
7
370
-1
  6
ByLayer
 10
-54.9586899563317388
 20
66.1323144104802196
 30
0.0
 11
-52.5586899563317473
 21
66.1323144104802196
 31
0.0
  0
LWPOLYLINE
  5
29F
  8
0
 62
7
370
-1
  6
ByLayer
100
AcDbEntity
100
AcDbPolyline
 90
4
 70
0
 10
-52.5586899563317473
 20
-5.8676855895197839
 10
-53.5186899563317269
 20
-5.6543255895197788
 10
-53.5186899563317269
 20
-6.0810455895197855
 10
-52.5586899563317473
 20
-5.8676855895197839
  0
LWPOLYLINE
  5
2A0
  8
0
 62
7
370
-1
  6
ByLayer
100
AcDbEntity
100
AcDbPolyline
 90
4
 70
0
 10
-52.5586899563317473
 20
66.1323144104802196
 10
-53.5186899563317269
 20
66.3456744104802425
 10
-53.5186899563317269
 20
65.9189544104802394
 10
-52.5586899563317473
 20
66.1323144104802196
  0
LWPOLYLINE
  5
2A1
  8
0
 62
7
370
-1
  6
ByLayer
100
AcDbEntity
100
AcDbPolyline
 90
6
 70
1
 10
-52.5586899563317473
 20
-8.2676855895197754
 10
-52.5586899563317473
 20
6.1323144104802196
 10
-42.9586899563317388
 20
6.1323144104802196
 10
-42.9586899563317388
 20
-8.2676855895197754
 10
-52.5586899563317473
 20
-8.2676855895197754
 10
-52.5586899563317473
 20
-8.2676855895197754
  0
LWPOLYLINE
  5
2A2
  8
0
 62
7
370
-1
  6
ByLayer
100
AcDbEntity
100
AcDbPolyline
 90
6
 70
1
 10
-52.5586899563317473
 20
63.7323144104802282
 10
-52.5586899563317473
 20
78.1323144104802196
 10
-42.9586899563317388
 20
78.1323144104802196
 10
-42.9586899563317388
 20
63.7323144104802282
 10
-52.5586899563317473
 20
63.7323144104802282
 10
-52.5586899563317473
 20
63.7323144104802282
  0
MTEXT
  5
2A3
100
AcDbEntity
100
AcDbMText
  8
0
 62
7
370
-1
  6
ByLayer
 10
-47.7586899563317502
 20
-0.1676855895197669
 30
0.0
 40
1.2000000000000002
 41
1200.0
 71
5
 72
2
  1
control
  7
STYLE3
 50
0.0
 73
0
 44
1.0
  0
MTEXT
  5
2A4
100
AcDbEntity
100
AcDbMText
  8
0
 62
7
370
-1
  6
ByLayer
 10
-47.7586899563317502
 20
71.8323144104802367
 30
0.0
 40
1.2000000000000002
 41
1200.0
 71
5
 72
2
  1
control
  7
STYLE3
 50
0.0
 73
0
 44
1.0
  0
MTEXT
  5
2A5
100
AcDbEntity
100
AcDbMText
  8
0
 62
7
370
-1
  6
ByLayer
 10
-47.7586899563317502
 20
-1.9676855895197676
 30
0.0
 40
1.2000000000000002
 41
1200.0
 71
5
 72
2
  1
equation
  7
STYLE3
 50
0.0
 73
0
 44
1.0
  0
MTEXT
  5
2A6
100
AcDbEntity
100
AcDbMText
  8
0
 62
7
370
-1
  6
ByLayer
 10
-47.7586899563317502
 20
70.0323144104802111
 30
0.0
 40
1.2000000000000002
 41
1200.0
 71
5
 72
2
  1
equation
  7
STYLE3
 50
0.0
 73
0
 44
1.0
  0
LINE
  5
2A7
100
AcDbEntity
100
AcDbLine
  8
0
 62
7
370
-1
  6
ByLayer
 10
-39.3586899563317303
 20
-1.0676855895197797
 30
0.0
 11
-42.9586899563317388
 21
-1.0676855895197797
 31
0.0
  0
LINE
  5
2A8
100
AcDbEntity
100
AcDbLine
  8
0
 62
7
370
-1
  6
ByLayer
 10
-39.3586899563317303
 20
70.9323144104802452
 30
0.0
 11
-42.9586899563317388
 21
70.9323144104802452
 31
0.0
  0
LWPOLYLINE
  5
2A9
  8
0
 62
7
370
-1
  6
ByLayer
100
AcDbEntity
100
AcDbPolyline
 90
4
 70
0
 10
-39.3586899563317303
 20
-1.0676855895197797
 10
-40.3186899563317525
 20
-0.8543255895197781
 10
-40.3186899563317525
 20
-1.2810455895197812
 10
-39.3586899563317303
 20
-1.0676855895197797
  0
LWPOLYLINE
  5
2AA
  8
0
 62
7
370
-1
  6
ByLayer
100
AcDbEntity
100
AcDbPolyline
 90
4
 70
0
 10
-39.3586899563317303
 20
70.9323144104802452
 10
-40.3186899563317525
 20
71.1456744104802254
 10
-40.3186899563317525
 20
70.7189544104802224
 10
-39.3586899563317303
 20
70.9323144104802452
  0
LWPOLYLINE
  5
2AB
  8
0
 62
7
370
-1
  6
ByLayer
100
AcDbEntity
100
AcDbPolyline
 90
4
 70
0
 10
-47.7586899563317502
 20
-8.2676855895197754
 10
-47.9720499563317446
 20
-9.2276855895197762
 10
-47.5453299563317273
 20
-9.2276855895197762
 10
-47.7586899563317502
 20
-8.2676855895197754
  0
LWPOLYLINE
  5
2AC
  8
0
 62
7
370
-1
  6
ByLayer
100
AcDbEntity
100
AcDbPolyline
 90
4
 70
0
 10
-47.7586899563317502
 20
63.7323144104802282
 10
-47.9720499563317446
 20
62.7723144104802486
 10
-47.5453299563317273
 20
62.7723144104802486
 10
-47.7586899563317502
 20
63.7323144104802282
  0
LINE
  5
2AD
100
AcDbEntity
100
AcDbLine
  8
0
 62
7
370
-1
  6
ByLayer
 10
-35.7586899563317644
 20
-4.6676855895197669
 30
0.0
 11
-35.7586899563317644
 21
-14.2676855895197754
 31
0.0
  0
LINE
  5
2AE
100
AcDbEntity
100
AcDbLine
  8
0
 62
7
370
-1
  6
ByLayer
 10
-35.7586899563317644
 20
67.3323144104802367
 30
0.0
 11
-35.7586899563317644
 21
57.7323144104802282
 31
0.0
  0
LWPOLYLINE
  5
2AF
  8
0
 62
7
370
-1
  6
ByLayer
100
AcDbEntity
100
AcDbPolyline
 90
4
 70
0
 10
-35.7586899563317644
 20
-4.6676855895197669
 10
-35.9720499563317304
 20
-5.6276855895197642
 10
-35.5453299563317415
 20
-5.6276855895197642
 10
-35.7586899563317644
 20
-4.6676855895197669
  0
LWPOLYLINE
  5
2B0
  8
0
 62
7
370
-1
  6
ByLayer
100
AcDbEntity
100
AcDbPolyline
 90
4
 70
0
 10
-35.7586899563317644
 20
67.3323144104802367
 10
-35.9720499563317304
 20
66.3723144104802145
 10
-35.5453299563317415
 20
66.3723144104802145
 10
-35.7586899563317644
 20
67.3323144104802367
  0
LINE
  5
2B1
100
AcDbEntity
100
AcDbLine
  8
0
 62
7
370
-1
  6
ByLayer
 10
-46.5586899563317473
 20
-14.2676855895197754
 30
0.0
 11
-41.7586899563317644
 21
-14.2676855895197754
 31
0.0
  0
LINE
  5
2B2
100
AcDbEntity
100
AcDbLine
  8
0
 62
7
370
-1
  6
ByLayer
 10
-46.5586899563317473
 20
57.7323144104802282
 30
0.0
 11
-41.7586899563317644
 21
57.7323144104802282
 31
0.0
  0
LWPOLYLINE
  5
2B3
  8
0
 62
7
370
-1
  6
ByLayer
100
AcDbEntity
100
AcDbPolyline
 90
4
 70
0
 10
-41.7586899563317644
 20
-14.2676855895197754
 10
-42.7186899563317439
 20
-14.0543255895197738
 10
-42.7186899563317439
 20
-14.4810455895197769
 10
-41.7586899563317644
 20
-14.2676855895197754
  0
LWPOLYLINE
  5
2B4
  8
0
 62
7
370
-1
  6
ByLayer
100
AcDbEntity
100
AcDbPolyline
 90
4
 70
0
 10
-41.7586899563317644
 20
57.7323144104802282
 10
-42.7186899563317439
 20
57.9456744104802084
 10
-42.7186899563317439
 20
57.5189544104802337
 10
-41.7586899563317644
 20
57.7323144104802282
  0
LINE
  5
2B5
100
AcDbEntity
100
AcDbLine
  8
0
 62
7
370
-1
  6
ByLayer
 10
-39.3586899563317303
 20
-86.2676855895197718
 30
0.0
 11
-20.1586899563317417
 21
-86.2676855895197718
 31
0.0
  0
LINE
  5
2B6
100
AcDbEntity
100
AcDbLine
  8
0
 62
7
370
-1
  6
ByLayer
 10
-41.7586899563317644
 20
-14.2676855895197754
 30
0.0
 11
-35.7586899563317644
 21
-14.2676855895197754
 31
0.0
  0
LINE
  5
2B7
100
AcDbEntity
100
AcDbLine
  8
0
 62
7
370
-1
  6
ByLayer
 10
-41.7586899563317644
 20
57.7323144104802282
 30
0.0
 11
-35.7586899563317644
 21
57.7323144104802282
 31
0.0
  0
LWPOLYLINE
  5
2B8
  8
0
 62
7
370
-1
  6
ByLayer
100
AcDbEntity
100
AcDbPolyline
 90
4
 70
0
 10
-20.1586899563317417
 20
-86.2676855895197718
 10
-21.1186899563317212
 20
-86.0543255895197632
 10
-21.1186899563317212
 20
-86.4810455895197663
 10
-20.1586899563317417
 20
-86.2676855895197718
  0
LWPOLYLINE
  5
2B9
  8
0
 62
7
370
-1
  6
ByLayer
100
AcDbEntity
100
AcDbPolyline
 90
4
 70
0
 10
-35.7586899563317644
 20
-14.2676855895197754
 10
-36.7186899563317439
 20
-14.0543255895197738
 10
-36.7186899563317439
 20
-14.4810455895197769
 10
-35.7586899563317644
 20
-14.2676855895197754
  0
LWPOLYLINE
  5
2BA
  8
0
 62
7
370
-1
  6
ByLayer
100
AcDbEntity
100
AcDbPolyline
 90
4
 70
0
 10
-35.7586899563317644
 20
57.7323144104802282
 10
-36.7186899563317439
 20
57.9456744104802084
 10
-36.7186899563317439
 20
57.5189544104802337
 10
-35.7586899563317644
 20
57.7323144104802282
  0
LINE
  5
2BB
100
AcDbEntity
100
AcDbLine
  8
0
 62
7
370
-1
  6
ByLayer
 10
-5.7586899563317502
 20
-19.0676855895197725
 30
0.0
 11
-63.3586899563317161
 21
-19.0676855895197725
 31
0.0
  0
LINE
  5
2BC
100
AcDbEntity
100
AcDbLine
  8
0
 62
7
370
-1
  6
ByLayer
 10
-5.7586899563317502
 20
52.9323144104802523
 30
0.0
 11
-63.3586899563317161
 21
52.9323144104802523
 31
0.0
  0
LWPOLYLINE
  5
2BD
  8
0
 62
7
370
-1
  6
ByLayer
100
AcDbEntity
100
AcDbPolyline
 90
4
 70
0
 10
-63.3586899563317161
 20
-19.0676855895197725
 10
-62.3986899563317365
 20
-19.2810455895197741
 10
-62.3986899563317365
 20
-18.8543255895197781
 10
-63.3586899563317161
 20
-19.0676855895197725
  0
LWPOLYLINE
  5
2BE
  8
0
 62
7
370
-1
  6
ByLayer
100
AcDbEntity
100
AcDbPolyline
 90
4
 70
0
 10
-63.3586899563317161
 20
52.9323144104802523
 10
-62.3986899563317365
 20
52.7189544104802295
 10
-62.3986899563317365
 20
53.1456744104802254
 10
-63.3586899563317161
 20
52.9323144104802523
  0
LINE
  5
2BF
100
AcDbEntity
100
AcDbLine
  8
0
 62
7
370
-1
  6
ByLayer
 10
-5.7586899563317502
 20
-1.0676855895197797
 30
0.0
 11
-5.7586899563317502
 21
-19.0676855895197725
 31
0.0
  0
LINE
  5
2C0
100
AcDbEntity
100
AcDbLine
  8
0
 62
7
370
-1
  6
ByLayer
 10
-5.7586899563317502
 20
70.9323144104802452
 30
0.0
 11
-5.7586899563317502
 21
52.9323144104802523
 31
0.0
  0
LWPOLYLINE
  5
2C1
  8
0
 62
7
370
-1
  6
ByLayer
100
AcDbEntity
100
AcDbPolyline
 90
4
 70
0
 10
-5.7586899563317502
 20
-19.0676855895197725
 10
-5.5453299563317273
 20
-18.1076855895197717
 10
-5.9720499563317304
 20
-18.1076855895197717
 10
-5.7586899563317502
 20
-19.0676855895197725
  0
LWPOLYLINE
  5
2C2
  8
0
 62
7
370
-1
  6
ByLayer
100
AcDbEntity
100
AcDbPolyline
 90
4
 70
0
 10
-5.7586899563317502
 20
52.9323144104802523
 10
-5.5453299563317273
 20
53.8923144104802319
 10
-5.9720499563317304
 20
53.8923144104802319
 10
-5.7586899563317502
 20
52.9323144104802523
  0
LINE
  5
2C3
100
AcDbEntity
100
AcDbLine
  8
0
 62
7
370
-1
  6
ByLayer
 10
-60.9586899563317388
 20
-5.8676855895197839
 30
0.0
 11
-54.9586899563317388
 21
-5.8676855895197839
 31
0.0
  0
LINE
  5
2C4
100
AcDbEntity
100
AcDbLine
  8
0
 62
7
370
-1
  6
ByLayer
 10
-60.9586899563317388
 20
66.1323144104802196
 30
0.0
 11
-54.9586899563317388
 21
66.1323144104802196
 31
0.0
  0
LINE
  5
2C5
100
AcDbEntity
100
AcDbLine
  8
0
 62
7
370
-1
  6
ByLayer
 10
-20.1586899563317417
 20
-86.2676855895197718
 30
0.0
 11
2.6413100436682555
 21
-86.2676855895197718
 31
0.0
  0
LINE
  5
2C6
100
AcDbEntity
100
AcDbLine
  8
0
 62
7
370
-1
  6
ByLayer
 10
-35.7586899563317644
 20
-14.2676855895197754
 30
0.0
 11
2.6413100436682555
 21
-14.2676855895197754
 31
0.0
  0
LINE
  5
2C7
100
AcDbEntity
100
AcDbLine
  8
0
 62
7
370
-1
  6
ByLayer
 10
-35.7586899563317644
 20
57.7323144104802282
 30
0.0
 11
2.6413100436682555
 21
57.7323144104802282
 31
0.0
  0
LINE
  5
2C8
100
AcDbEntity
100
AcDbLine
  8
0
 62
7
370
-1
  6
ByLayer
 10
-9.3586899563317161
 20
-61.0676855895197832
 30
0.0
 11
-9.3586899563317161
 21
-73.0676855895197832
 31
0.0
  0
LWPOLYLINE
  5
2C9
  8
0
 62
7
370
-1
  6
ByLayer
100
AcDbEntity
100
AcDbPolyline
 90
4
 70
0
 10
-9.3586899563317161
 20
-61.0676855895197832
 10
-9.5720499563317389
 20
-62.0276855895197912
 10
-9.1453299563317501
 20
-62.0276855895197912
 10
-9.3586899563317161
 20
-61.0676855895197832
  0
LINE
  5
2CA
100
AcDbEntity
100
AcDbLine
  8
0
 62
7
370
-1
  6
ByLayer
 10
14.6413100436682555
 20
-59.8676855895197804
 30
0.0
 11
14.6413100436682555
 21
-69.4676855895197747
 31
0.0
  0
LINE
  5
2CB
100
AcDbEntity
100
AcDbLine
  8
0
 62
7
370
-1
  6
ByLayer
 10
14.6413100436682555
 20
12.1323144104802179
 30
0.0
 11
14.6413100436682555
 21
2.5323144104802324
 31
0.0
  0
LINE
  5
2CC
100
AcDbEntity
100
AcDbLine
  8
0
 62
7
370
-1
  6
ByLayer
 10
14.6413100436682555
 20
84.1323144104802196
 30
0.0
 11
14.6413100436682555
 21
74.5323144104802111
 31
0.0
  0
LINE
  5
2CD
100
AcDbEntity
100
AcDbLine
  8
0
 62
7
370
-1
  6
ByLayer
 10
-5.7586899563317502
 20
10.9323144104802221
 30
0.0
 11
-5.7586899563317502
 21
-1.0676855895197797
 31
0.0
  0
LINE
  5
2CE
100
AcDbEntity
100
AcDbLine
  8
0
 62
7
370
-1
  6
ByLayer
 10
-5.7586899563317502
 20
82.9323144104802452
 30
0.0
 11
-5.7586899563317502
 21
70.9323144104802452
 31
0.0
  0
LWPOLYLINE
  5
2CF
  8
0
 62
7
370
-1
  6
ByLayer
100
AcDbEntity
100
AcDbPolyline
 90
4
 70
0
 10
14.6413100436682555
 20
-59.8676855895197804
 10
14.4279500436682611
 20
-60.8276855895197883
 10
14.8546700436682642
 20
-60.8276855895197883
 10
14.6413100436682555
 20
-59.8676855895197804
  0
LWPOLYLINE
  5
2D0
  8
0
 62
7
370
-1
  6
ByLayer
100
AcDbEntity
100
AcDbPolyline
 90
4
 70
0
 10
14.6413100436682555
 20
12.1323144104802179
 10
14.4279500436682611
 20
11.172314410480217
 10
14.8546700436682642
 20
11.172314410480217
 10
14.6413100436682555
 20
12.1323144104802179
  0
LWPOLYLINE
  5
2D1
  8
0
 62
7
370
-1
  6
ByLayer
100
AcDbEntity
100
AcDbPolyline
 90
4
 70
0
 10
14.6413100436682555
 20
84.1323144104802196
 10
14.4279500436682611
 20
83.1723144104802401
 10
14.8546700436682642
 20
83.1723144104802401
 10
14.6413100436682555
 20
84.1323144104802196
  0
LWPOLYLINE
  5
2D2
  8
0
 62
7
370
-1
  6
ByLayer
100
AcDbEntity
100
AcDbPolyline
 90
4
 70
0
 10
36.0247580436682711
 20
-44.2676855895197718
 10
35.8113980436682766
 20
-45.2276855895197656
 10
36.2381180436682655
 20
-45.2276855895197656
 10
36.0247580436682711
 20
-44.2676855895197718
  0
LWPOLYLINE
  5
2D3
  8
0
 62
7
370
-1
  6
ByLayer
100
AcDbEntity
100
AcDbPolyline
 90
4
 70
0
 10
29.0413100436682896
 20
-37.067685589519769
 10
28.8279500436682667
 20
-38.027685589519777
 10
29.2546700436682556
 20
-38.027685589519777
 10
29.0413100436682896
 20
-37.067685589519769
  0
LWPOLYLINE
  5
2D4
  8
0
 62
7
370
-1
  6
ByLayer
100
AcDbEntity
100
AcDbPolyline
 90
4
 70
0
 10
29.0413100436682896
 20
34.9323144104802452
 10
28.8279500436682667
 20
33.972314410480223
 10
29.2546700436682556
 20
33.972314410480223
 10
29.0413100436682896
 20
34.9323144104802452
  0
LWPOLYLINE
  5
2D5
  8
0
 62
7
370
-1
  6
ByLayer
100
AcDbEntity
100
AcDbPolyline
 90
4
 70
0
 10
29.0413100436682896
 20
106.9323144104802452
 10
28.8279500436682667
 20
105.972314410480223
 10
29.2546700436682556
 20
105.972314410480223
 10
29.0413100436682896
 20
106.9323144104802452
  0
LWPOLYLINE
  5
2D6
  8
0
 62
7
370
-1
  6
ByLayer
100
AcDbEntity
100
AcDbPolyline
 90
4
 70
0
 10
14.6413100436682555
 20
-41.8676855895197662
 10
14.4279500436682611
 20
-42.8276855895197741
 10
14.8546700436682642
 20
-42.8276855895197741
 10
14.6413100436682555
 20
-41.8676855895197662
  0
LWPOLYLINE
  5
2D7
  8
0
 62
7
370
-1
  6
ByLayer
100
AcDbEntity
100
AcDbPolyline
 90
4
 70
0
 10
14.6413100436682555
 20
30.1323144104802196
 10
14.4279500436682611
 20
29.1723144104802401
 10
14.8546700436682642
 20
29.1723144104802401
 10
14.6413100436682555
 20
30.1323144104802196
  0
LWPOLYLINE
  5
2D8
  8
0
 62
7
370
-1
  6
ByLayer
100
AcDbEntity
100
AcDbPolyline
 90
4
 70
0
 10
14.6413100436682555
 20
102.1323144104802196
 10
14.4279500436682611
 20
101.1723144104802401
 10
14.8546700436682642
 20
101.1723144104802401
 10
14.6413100436682555
 20
102.1323144104802196
  0
LWPOLYLINE
  5
2D9
  8
0
 62
7
370
-1
  6
ByLayer
100
AcDbEntity
100
AcDbPolyline
 90
4
 70
0
 10
-5.7586899563317502
 20
10.9323144104802221
 10
-5.9720499563317304
 20
9.9723144104802213
 10
-5.5453299563317273
 20
9.9723144104802213
 10
-5.7586899563317502
 20
10.9323144104802221
  0
LWPOLYLINE
  5
2DA
  8
0
 62
7
370
-1
  6
ByLayer
100
AcDbEntity
100
AcDbPolyline
 90
4
 70
0
 10
-5.7586899563317502
 20
82.9323144104802452
 10
-5.9720499563317304
 20
81.972314410480223
 10
-5.5453299563317273
 20
81.972314410480223
 10
-5.7586899563317502
 20
82.9323144104802452
  0
LINE
  5
2DB
100
AcDbEntity
100
AcDbLine
  8
0
 62
7
370
-1
  6
ByLayer
 10
-39.3586899563317303
 20
-73.0676855895197832
 30
0.0
 11
-83.1586899563317559
 21
-73.0676855895197832
 31
0.0
  0
LINE
  5
2DC
100
AcDbEntity
100
AcDbLine
  8
0
 62
7
370
-1
  6
ByLayer
 10
-81.3586899563317303
 20
-1.0676855895197797
 30
0.0
 11
-84.3586899563317303
 21
-1.0676855895197797
 31
0.0
  0
LINE
  5
2DD
100
AcDbEntity
100
AcDbLine
  8
0
 62
7
370
-1
  6
ByLayer
 10
-81.3586899563317303
 20
70.9323144104802452
 30
0.0
 11
-84.3586899563317303
 21
70.9323144104802452
 31
0.0
  0
LWPOLYLINE
  5
2DE
  8
0
 62
7
370
-1
  6
ByLayer
100
AcDbEntity
100
AcDbPolyline
 90
4
 70
0
 10
-81.3586899563317303
 20
-1.0676855895197797
 10
-82.3186899563317525
 20
-0.8543255895197781
 10
-82.3186899563317525
 20
-1.2810455895197812
 10
-81.3586899563317303
 20
-1.0676855895197797
  0
LWPOLYLINE
  5
2DF
  8
0
 62
7
370
-1
  6
ByLayer
100
AcDbEntity
100
AcDbPolyline
 90
4
 70
0
 10
-81.3586899563317303
 20
70.9323144104802452
 10
-82.3186899563317525
 20
71.1456744104802254
 10
-82.3186899563317525
 20
70.7189544104802224
 10
-81.3586899563317303
 20
70.9323144104802452
  0
LINE
  5
2E0
100
AcDbEntity
100
AcDbLine
  8
0
 62
7
370
-1
  6
ByLayer
 10
-14.1586899563317417
 20
-61.0676855895197832
 30
0.0
 11
-9.3586899563317161
 21
-61.0676855895197832
 31
0.0
  0
LWPOLYLINE
  5
2E1
  8
0
 62
7
370
-1
  6
ByLayer
100
AcDbEntity
100
AcDbPolyline
 90
4
 70
0
 10
-14.1586899563317417
 20
-61.0676855895197832
 10
-13.1986899563317337
 20
-61.2810455895197919
 10
-13.1986899563317337
 20
-60.8543255895197888
 10
-14.1586899563317417
 20
-61.0676855895197832
  0
LINE
  5
2E2
100
AcDbEntity
100
AcDbLine
  8
0
 62
7
370
-1
  6
ByLayer
 10
18.2413100436682498
 20
-59.8676855895197804
 30
0.0
 11
14.6413100436682555
 21
-59.8676855895197804
 31
0.0
  0
LINE
  5
2E3
100
AcDbEntity
100
AcDbLine
  8
0
 62
7
370
-1
  6
ByLayer
 10
18.2413100436682498
 20
12.1323144104802179
 30
0.0
 11
14.6413100436682555
 21
12.1323144104802179
 31
0.0
  0
LINE
  5
2E4
100
AcDbEntity
100
AcDbLine
  8
0
 62
7
370
-1
  6
ByLayer
 10
18.2413100436682498
 20
84.1323144104802196
 30
0.0
 11
14.6413100436682555
 21
84.1323144104802196
 31
0.0
  0
LINE
  5
2E5
100
AcDbEntity
100
AcDbLine
  8
0
 62
7
370
-1
  6
ByLayer
 10
32.4247580436682483
 20
-59.8676855895197804
 30
0.0
 11
25.4413100436682669
 21
-59.8676855895197804
 31
0.0
  0
LINE
  5
2E6
100
AcDbEntity
100
AcDbLine
  8
0
 62
7
370
-1
  6
ByLayer
 10
32.4247580436682483
 20
12.1323144104802179
 30
0.0
 11
25.4413100436682669
 21
12.1323144104802179
 31
0.0
  0
LINE
  5
2E7
100
AcDbEntity
100
AcDbLine
  8
0
 62
7
370
-1
  6
ByLayer
 10
32.4247580436682483
 20
84.1323144104802196
 30
0.0
 11
25.4413100436682669
 21
84.1323144104802196
 31
0.0
  0
LINE
  5
2E8
100
AcDbEntity
100
AcDbLine
  8
0
 62
7
370
-1
  6
ByLayer
 10
-11.7586899563317502
 20
10.9323144104802221
 30
0.0
 11
-5.7586899563317502
 21
10.9323144104802221
 31
0.0
  0
LINE
  5
2E9
100
AcDbEntity
100
AcDbLine
  8
0
 62
7
370
-1
  6
ByLayer
 10
-11.7586899563317502
 20
82.9323144104802452
 30
0.0
 11
-5.7586899563317502
 21
82.9323144104802452
 31
0.0
  0
LWPOLYLINE
  5
2EA
  8
0
 62
7
370
-1
  6
ByLayer
100
AcDbEntity
100
AcDbPolyline
 90
4
 70
0
 10
29.0413100436682896
 20
-59.8676855895197804
 10
28.0813100436682532
 20
-60.0810455895198032
 10
28.0813100436682532
 20
-59.6543255895197859
 10
29.0413100436682896
 20
-59.8676855895197804
  0
LWPOLYLINE
  5
2EB
  8
0
 62
7
370
-1
  6
ByLayer
100
AcDbEntity
100
AcDbPolyline
 90
4
 70
0
 10
29.0413100436682896
 20
12.1323144104802179
 10
28.0813100436682532
 20
11.9189544104802163
 10
28.0813100436682532
 20
12.3456744104802194
 10
29.0413100436682896
 20
12.1323144104802179
  0
LWPOLYLINE
  5
2EC
  8
0
 62
7
370
-1
  6
ByLayer
100
AcDbEntity
100
AcDbPolyline
 90
4
 70
0
 10
29.0413100436682896
 20
84.1323144104802196
 10
28.0813100436682532
 20
83.9189544104802252
 10
28.0813100436682532
 20
84.3456744104802425
 10
29.0413100436682896
 20
84.1323144104802196
  0
LWPOLYLINE
  5
2ED
  8
0
 62
7
370
-1
  6
ByLayer
100
AcDbEntity
100
AcDbPolyline
 90
4
 70
0
 10
18.2413100436682498
 20
-59.8676855895197804
 10
17.2813100436682703
 20
-60.0810455895198032
 10
17.2813100436682703
 20
-59.6543255895197859
 10
18.2413100436682498
 20
-59.8676855895197804
  0
LWPOLYLINE
  5
2EE
  8
0
 62
7
370
-1
  6
ByLayer
100
AcDbEntity
100
AcDbPolyline
 90
4
 70
0
 10
18.2413100436682498
 20
12.1323144104802179
 10
17.2813100436682703
 20
11.9189544104802163
 10
17.2813100436682703
 20
12.3456744104802194
 10
18.2413100436682498
 20
12.1323144104802179
  0
LWPOLYLINE
  5
2EF
  8
0
 62
7
370
-1
  6
ByLayer
100
AcDbEntity
100
AcDbPolyline
 90
4
 70
0
 10
18.2413100436682498
 20
84.1323144104802196
 10
17.2813100436682703
 20
83.9189544104802252
 10
17.2813100436682703
 20
84.3456744104802425
 10
18.2413100436682498
 20
84.1323144104802196
  0
LWPOLYLINE
  5
2F0
  8
0
 62
7
370
-1
  6
ByLayer
100
AcDbEntity
100
AcDbPolyline
 90
4
 70
0
 10
32.4247580436682483
 20
-59.8676855895197804
 10
31.4647580436682404
 20
-60.0810455895198032
 10
31.4647580436682404
 20
-59.6543255895197859
 10
32.4247580436682483
 20
-59.8676855895197804
  0
LWPOLYLINE
  5
2F1
  8
0
 62
7
370
-1
  6
ByLayer
100
AcDbEntity
100
AcDbPolyline
 90
4
 70
0
 10
32.4247580436682483
 20
12.1323144104802179
 10
31.4647580436682404
 20
11.9189544104802163
 10
31.4647580436682404
 20
12.3456744104802194
 10
32.4247580436682483
 20
12.1323144104802179
  0
LWPOLYLINE
  5
2F2
  8
0
 62
7
370
-1
  6
ByLayer
100
AcDbEntity
100
AcDbPolyline
 90
4
 70
0
 10
32.4247580436682483
 20
84.1323144104802196
 10
31.4647580436682404
 20
83.9189544104802252
 10
31.4647580436682404
 20
84.3456744104802425
 10
32.4247580436682483
 20
84.1323144104802196
  0
LWPOLYLINE
  5
2F3
  8
0
 62
7
370
-1
  6
ByLayer
100
AcDbEntity
100
AcDbPolyline
 90
4
 70
0
 10
-11.7586899563317502
 20
10.9323144104802221
 10
-10.798689956331728
 20
10.7189544104802206
 10
-10.798689956331728
 20
11.1456744104802237
 10
-11.7586899563317502
 20
10.9323144104802221
  0
LWPOLYLINE
  5
2F4
  8
0
 62
7
370
-1
  6
ByLayer
100
AcDbEntity
100
AcDbPolyline
 90
4
 70
0
 10
-11.7586899563317502
 20
82.9323144104802452
 10
-10.798689956331728
 20
82.7189544104802224
 10
-10.798689956331728
 20
83.1456744104802254
 10
-11.7586899563317502
 20
82.9323144104802452
  0
LINE
  5
2F5
100
AcDbEntity
100
AcDbLine
  8
STANDARD
 62
7
370
-1
  6
ByLayer
 10
36.0247580436682711
 20
-64.6676855895197775
 30
0.0
 11
36.0247580436682711
 21
-73.0676855895197832
 31
0.0
  0
LINE
  5
2F6
100
AcDbEntity
100
AcDbLine
  8
STANDARD
 62
7
370
-1
  6
ByLayer
 10
36.0247580436682711
 20
7.3323144104802349
 30
0.0
 11
36.0247580436682711
 21
-1.0676855895197797
 31
0.0
  0
LINE
  5
2F7
100
AcDbEntity
100
AcDbLine
  8
STANDARD
 62
7
370
-1
  6
ByLayer
 10
36.0247580436682711
 20
79.3323144104802367
 30
0.0
 11
36.0247580436682711
 21
70.9323144104802452
 31
0.0
  0
LINE
  5
2F8
100
AcDbEntity
100
AcDbLine
  8
STANDARD
 62
7
370
-1
  6
ByLayer
 10
36.0247580436682711
 20
-44.2676855895197718
 30
0.0
 11
36.0247580436682711
 21
-55.0676855895197832
 31
0.0
  0
LINE
  5
2F9
100
AcDbEntity
100
AcDbLine
  8
STANDARD
 62
7
370
-1
  6
ByLayer
 10
14.6413100436682555
 20
-41.8676855895197662
 30
0.0
 11
14.6413100436682555
 21
-59.8676855895197804
 31
0.0
  0
LINE
  5
2FA
100
AcDbEntity
100
AcDbLine
  8
STANDARD
 62
7
370
-1
  6
ByLayer
 10
14.6413100436682555
 20
30.1323144104802196
 30
0.0
 11
14.6413100436682555
 21
12.1323144104802179
 31
0.0
  0
LINE
  5
2FB
100
AcDbEntity
100
AcDbLine
  8
STANDARD
 62
7
370
-1
  6
ByLayer
 10
14.6413100436682555
 20
102.1323144104802196
 30
0.0
 11
14.6413100436682555
 21
84.1323144104802196
 31
0.0
  0
LINE
  5
2FC
100
AcDbEntity
100
AcDbLine
  8
STANDARD
 62
7
370
-1
  6
ByLayer
 10
22.1413100436682555
 20
-59.8676855895197804
 30
0.0
 11
22.1413100436682555
 21
-59.267685589519786
 31
0.0
  0
LINE
  5
2FD
100
AcDbEntity
100
AcDbLine
  8
STANDARD
 62
7
370
-1
  6
ByLayer
 10
22.1413100436682555
 20
12.1323144104802179
 30
0.0
 11
22.1413100436682555
 21
12.7323144104802264
 31
0.0
  0
LINE
  5
2FE
100
AcDbEntity
100
AcDbLine
  8
STANDARD
 62
7
370
-1
  6
ByLayer
 10
22.1413100436682555
 20
84.1323144104802196
 30
0.0
 11
22.1413100436682555
 21
84.732314410480214
 31
0.0
  0
LINE
  5
2FF
100
AcDbEntity
100
AcDbLine
  8
STANDARD
 62
7
370
-1
  6
ByLayer
 10
21.5413100436682896
 20
-59.8676855895197804
 30
0.0
 11
21.5413100436682896
 21
-60.4676855895197747
 31
0.0
  0
LINE
  5
300
100
AcDbEntity
100
AcDbLine
  8
STANDARD
 62
7
370
-1
  6
ByLayer
 10
21.5413100436682896
 20
12.1323144104802179
 30
0.0
 11
21.5413100436682896
 21
11.5323144104802306
 31
0.0
  0
LINE
  5
301
100
AcDbEntity
100
AcDbLine
  8
STANDARD
 62
7
370
-1
  6
ByLayer
 10
21.5413100436682896
 20
84.1323144104802196
 30
0.0
 11
21.5413100436682896
 21
83.5323144104802111
 31
0.0
  0
LINE
  5
302
100
AcDbEntity
100
AcDbLine
  8
STANDARD
 62
7
370
-1
  6
ByLayer
 10
22.1413100436682555
 20
-59.267685589519786
 30
0.0
 11
22.7413100436682782
 21
-59.267685589519786
 31
0.0
  0
LINE
  5
303
100
AcDbEntity
100
AcDbLine
  8
STANDARD
 62
7
370
-1
  6
ByLayer
 10
22.1413100436682555
 20
12.7323144104802264
 30
0.0
 11
22.7413100436682782
 21
12.7323144104802264
 31
0.0
  0
LINE
  5
304
100
AcDbEntity
100
AcDbLine
  8
STANDARD
 62
7
370
-1
  6
ByLayer
 10
22.1413100436682555
 20
84.732314410480214
 30
0.0
 11
22.7413100436682782
 21
84.732314410480214
 31
0.0
  0
LINE
  5
305
100
AcDbEntity
100
AcDbLine
  8
STANDARD
 62
7
370
-1
  6
ByLayer
 10
21.5413100436682896
 20
-60.4676855895197747
 30
0.0
 11
20.9413100436682527
 21
-60.4676855895197747
 31
0.0
  0
LINE
  5
306
100
AcDbEntity
100
AcDbLine
  8
STANDARD
 62
7
370
-1
  6
ByLayer
 10
21.5413100436682896
 20
11.5323144104802306
 30
0.0
 11
20.9413100436682527
 21
11.5323144104802306
 31
0.0
  0
LINE
  5
307
100
AcDbEntity
100
AcDbLine
  8
STANDARD
 62
7
370
-1
  6
ByLayer
 10
21.5413100436682896
 20
83.5323144104802111
 30
0.0
 11
20.9413100436682527
 21
83.5323144104802111
 31
0.0
  0
LINE
  5
308
100
AcDbEntity
100
AcDbLine
  8
STANDARD
 62
7
370
-1
  6
ByLayer
 10
22.7413100436682782
 20
-59.267685589519786
 30
0.0
 11
22.7413100436682782
 21
-58.6676855895197775
 31
0.0
  0
LINE
  5
309
100
AcDbEntity
100
AcDbLine
  8
STANDARD
 62
7
370
-1
  6
ByLayer
 10
22.7413100436682782
 20
12.7323144104802264
 30
0.0
 11
22.7413100436682782
 21
13.3323144104802349
 31
0.0
  0
LINE
  5
30A
100
AcDbEntity
100
AcDbLine
  8
STANDARD
 62
7
370
-1
  6
ByLayer
 10
22.7413100436682782
 20
84.732314410480214
 30
0.0
 11
22.7413100436682782
 21
85.3323144104802367
 31
0.0
  0
LINE
  5
30B
100
AcDbEntity
100
AcDbLine
  8
STANDARD
 62
7
370
-1
  6
ByLayer
 10
20.9413100436682527
 20
-60.4676855895197747
 30
0.0
 11
20.9413100436682527
 21
-61.0676855895197832
 31
0.0
  0
LINE
  5
30C
100
AcDbEntity
100
AcDbLine
  8
STANDARD
 62
7
370
-1
  6
ByLayer
 10
20.9413100436682527
 20
11.5323144104802306
 30
0.0
 11
20.9413100436682527
 21
10.9323144104802221
 31
0.0
  0
LINE
  5
30D
100
AcDbEntity
100
AcDbLine
  8
STANDARD
 62
7
370
-1
  6
ByLayer
 10
20.9413100436682527
 20
83.5323144104802111
 30
0.0
 11
20.9413100436682527
 21
82.9323144104802452
 31
0.0
  0
LINE
  5
30E
100
AcDbEntity
100
AcDbLine
  8
STANDARD
 62
7
370
-1
  6
ByLayer
 10
22.7413100436682782
 20
-58.6676855895197775
 30
0.0
 11
23.3413100436682441
 21
-58.6676855895197775
 31
0.0
  0
LINE
  5
30F
100
AcDbEntity
100
AcDbLine
  8
STANDARD
 62
7
370
-1
  6
ByLayer
 10
22.7413100436682782
 20
13.3323144104802349
 30
0.0
 11
23.3413100436682441
 21
13.3323144104802349
 31
0.0
  0
LINE
  5
310
100
AcDbEntity
100
AcDbLine
  8
STANDARD
 62
7
370
-1
  6
ByLayer
 10
22.7413100436682782
 20
85.3323144104802367
 30
0.0
 11
23.3413100436682441
 21
85.3323144104802367
 31
0.0
  0
LINE
  5
311
100
AcDbEntity
100
AcDbLine
  8
STANDARD
 62
7
370
-1
  6
ByLayer
 10
20.9413100436682527
 20
-61.0676855895197832
 30
0.0
 11
20.3413100436682583
 21
-61.0676855895197832
 31
0.0
  0
LINE
  5
312
100
AcDbEntity
100
AcDbLine
  8
STANDARD
 62
7
370
-1
  6
ByLayer
 10
20.9413100436682527
 20
10.9323144104802221
 30
0.0
 11
20.3413100436682583
 21
10.9323144104802221
 31
0.0
  0
LINE
  5
313
100
AcDbEntity
100
AcDbLine
  8
STANDARD
 62
7
370
-1
  6
ByLayer
 10
20.9413100436682527
 20
82.9323144104802452
 30
0.0
 11
20.3413100436682583
 21
82.9323144104802452
 31
0.0
  0
LINE
  5
314
100
AcDbEntity
100
AcDbLine
  8
STANDARD
 62
7
370
-1
  6
ByLayer
 10
23.3413100436682441
 20
-58.6676855895197775
 30
0.0
 11
23.3413100436682441
 21
-58.0676855895197832
 31
0.0
  0
LINE
  5
315
100
AcDbEntity
100
AcDbLine
  8
STANDARD
 62
7
370
-1
  6
ByLayer
 10
23.3413100436682441
 20
13.3323144104802349
 30
0.0
 11
23.3413100436682441
 21
13.9323144104802221
 31
0.0
  0
LINE
  5
316
100
AcDbEntity
100
AcDbLine
  8
STANDARD
 62
7
370
-1
  6
ByLayer
 10
23.3413100436682441
 20
85.3323144104802367
 30
0.0
 11
23.3413100436682441
 21
85.9323144104802452
 31
0.0
  0
LINE
  5
317
100
AcDbEntity
100
AcDbLine
  8
STANDARD
 62
7
370
-1
  6
ByLayer
 10
20.3413100436682583
 20
-61.0676855895197832
 30
0.0
 11
20.3413100436682583
 21
-61.6676855895197775
 31
0.0
  0
LINE
  5
318
100
AcDbEntity
100
AcDbLine
  8
STANDARD
 62
7
370
-1
  6
ByLayer
 10
20.3413100436682583
 20
10.9323144104802221
 30
0.0
 11
20.3413100436682583
 21
10.3323144104802349
 31
0.0
  0
LINE
  5
319
100
AcDbEntity
100
AcDbLine
  8
STANDARD
 62
7
370
-1
  6
ByLayer
 10
20.3413100436682583
 20
82.9323144104802452
 30
0.0
 11
20.3413100436682583
 21
82.3323144104802367
 31
0.0
  0
LINE
  5
31A
100
AcDbEntity
100
AcDbLine
  8
STANDARD
 62
7
370
-1
  6
ByLayer
 10
23.3413100436682441
 20
-58.0676855895197832
 30
0.0
 11
23.9413100436682669
 21
-58.0676855895197832
 31
0.0
  0
LINE
  5
31B
100
AcDbEntity
100
AcDbLine
  8
STANDARD
 62
7
370
-1
  6
ByLayer
 10
23.3413100436682441
 20
13.9323144104802221
 30
0.0
 11
23.9413100436682669
 21
13.9323144104802221
 31
0.0
  0
LINE
  5
31C
100
AcDbEntity
100
AcDbLine
  8
STANDARD
 62
7
370
-1
  6
ByLayer
 10
23.3413100436682441
 20
85.9323144104802452
 30
0.0
 11
23.9413100436682669
 21
85.9323144104802452
 31
0.0
  0
LINE
  5
31D
100
AcDbEntity
100
AcDbLine
  8
STANDARD
 62
7
370
-1
  6
ByLayer
 10
20.3413100436682583
 20
-61.6676855895197775
 30
0.0
 11
19.7413100436682498
 21
-61.6676855895197775
 31
0.0
  0
LINE
  5
31E
100
AcDbEntity
100
AcDbLine
  8
STANDARD
 62
7
370
-1
  6
ByLayer
 10
20.3413100436682583
 20
10.3323144104802349
 30
0.0
 11
19.7413100436682498
 21
10.3323144104802349
 31
0.0
  0
LINE
  5
31F
100
AcDbEntity
100
AcDbLine
  8
STANDARD
 62
7
370
-1
  6
ByLayer
 10
20.3413100436682583
 20
82.3323144104802367
 30
0.0
 11
19.7413100436682498
 21
82.3323144104802367
 31
0.0
  0
LINE
  5
320
100
AcDbEntity
100
AcDbLine
  8
STANDARD
 62
7
370
-1
  6
ByLayer
 10
23.9413100436682669
 20
-58.0676855895197832
 30
0.0
 11
23.9413100436682669
 21
-57.4676855895197747
 31
0.0
  0
LINE
  5
321
100
AcDbEntity
100
AcDbLine
  8
STANDARD
 62
7
370
-1
  6
ByLayer
 10
23.9413100436682669
 20
13.9323144104802221
 30
0.0
 11
23.9413100436682669
 21
14.5323144104802306
 31
0.0
  0
LINE
  5
322
100
AcDbEntity
100
AcDbLine
  8
STANDARD
 62
7
370
-1
  6
ByLayer
 10
23.9413100436682669
 20
85.9323144104802452
 30
0.0
 11
23.9413100436682669
 21
86.5323144104802111
 31
0.0
  0
LINE
  5
323
100
AcDbEntity
100
AcDbLine
  8
STANDARD
 62
7
370
-1
  6
ByLayer
 10
19.7413100436682498
 20
-61.6676855895197775
 30
0.0
 11
19.7413100436682498
 21
-62.267685589519786
 31
0.0
  0
LINE
  5
324
100
AcDbEntity
100
AcDbLine
  8
STANDARD
 62
7
370
-1
  6
ByLayer
 10
19.7413100436682498
 20
10.3323144104802349
 30
0.0
 11
19.7413100436682498
 21
9.7323144104802264
 31
0.0
  0
LINE
  5
325
100
AcDbEntity
100
AcDbLine
  8
STANDARD
 62
7
370
-1
  6
ByLayer
 10
19.7413100436682498
 20
82.3323144104802367
 30
0.0
 11
19.7413100436682498
 21
81.732314410480214
 31
0.0
  0
LINE
  5
326
100
AcDbEntity
100
AcDbLine
  8
STANDARD
 62
7
370
-1
  6
ByLayer
 10
21.5413100436682896
 20
-59.8676855895197804
 30
0.0
 11
22.1413100436682555
 21
-59.8676855895197804
 31
0.0
  0
LINE
  5
327
100
AcDbEntity
100
AcDbLine
  8
STANDARD
 62
7
370
-1
  6
ByLayer
 10
21.5413100436682896
 20
12.1323144104802179
 30
0.0
 11
22.1413100436682555
 21
12.1323144104802179
 31
0.0
  0
LINE
  5
328
100
AcDbEntity
100
AcDbLine
  8
STANDARD
 62
7
370
-1
  6
ByLayer
 10
21.5413100436682896
 20
84.1323144104802196
 30
0.0
 11
22.1413100436682555
 21
84.1323144104802196
 31
0.0
  0
LINE
  5
329
100
AcDbEntity
100
AcDbLine
  8
STANDARD
 62
7
370
-1
  6
ByLayer
 10
23.9413100436682669
 20
-57.4676855895197747
 30
0.0
 11
24.5413100436682896
 21
-57.4676855895197747
 31
0.0
  0
LINE
  5
32A
100
AcDbEntity
100
AcDbLine
  8
STANDARD
 62
7
370
-1
  6
ByLayer
 10
23.9413100436682669
 20
14.5323144104802306
 30
0.0
 11
24.5413100436682896
 21
14.5323144104802306
 31
0.0
  0
LINE
  5
32B
100
AcDbEntity
100
AcDbLine
  8
STANDARD
 62
7
370
-1
  6
ByLayer
 10
23.9413100436682669
 20
86.5323144104802111
 30
0.0
 11
24.5413100436682896
 21
86.5323144104802111
 31
0.0
  0
LINE
  5
32C
100
AcDbEntity
100
AcDbLine
  8
STANDARD
 62
7
370
-1
  6
ByLayer
 10
24.5413100436682896
 20
-57.4676855895197747
 30
0.0
 11
24.5413100436682896
 21
-56.8676855895197804
 31
0.0
  0
LINE
  5
32D
100
AcDbEntity
100
AcDbLine
  8
STANDARD
 62
7
370
-1
  6
ByLayer
 10
24.5413100436682896
 20
14.5323144104802306
 30
0.0
 11
24.5413100436682896
 21
15.1323144104802196
 31
0.0
  0
LINE
  5
32E
100
AcDbEntity
100
AcDbLine
  8
STANDARD
 62
7
370
-1
  6
ByLayer
 10
24.5413100436682896
 20
86.5323144104802111
 30
0.0
 11
24.5413100436682896
 21
87.1323144104802196
 31
0.0
  0
LINE
  5
32F
100
AcDbEntity
100
AcDbLine
  8
STANDARD
 62
7
370
-1
  6
ByLayer
 10
24.5413100436682896
 20
-56.8676855895197804
 30
0.0
 11
25.1413100436682555
 21
-56.8676855895197804
 31
0.0
  0
LINE
  5
330
100
AcDbEntity
100
AcDbLine
  8
STANDARD
 62
7
370
-1
  6
ByLayer
 10
24.5413100436682896
 20
15.1323144104802196
 30
0.0
 11
25.1413100436682555
 21
15.1323144104802196
 31
0.0
  0
LINE
  5
331
100
AcDbEntity
100
AcDbLine
  8
STANDARD
 62
7
370
-1
  6
ByLayer
 10
24.5413100436682896
 20
87.1323144104802196
 30
0.0
 11
25.1413100436682555
 21
87.1323144104802196
 31
0.0
  0
LINE
  5
332
100
AcDbEntity
100
AcDbLine
  8
STANDARD
 62
7
370
-1
  6
ByLayer
 10
25.1413100436682555
 20
-56.8676855895197804
 30
0.0
 11
25.1413100436682555
 21
-56.267685589519786
 31
0.0
  0
LINE
  5
333
100
AcDbEntity
100
AcDbLine
  8
STANDARD
 62
7
370
-1
  6
ByLayer
 10
25.1413100436682555
 20
15.1323144104802196
 30
0.0
 11
25.1413100436682555
 21
15.7323144104802282
 31
0.0
  0
LINE
  5
334
100
AcDbEntity
100
AcDbLine
  8
STANDARD
 62
7
370
-1
  6
ByLayer
 10
25.1413100436682555
 20
87.1323144104802196
 30
0.0
 11
25.1413100436682555
 21
87.7323144104802282
 31
0.0
  0
LINE
  5
335
100
AcDbEntity
100
AcDbLine
  8
STANDARD
 62
7
370
-1
  6
ByLayer
 10
19.7413100436682498
 20
-62.267685589519786
 30
0.0
 11
19.1413100436682555
 21
-62.267685589519786
 31
0.0
  0
LINE
  5
336
100
AcDbEntity
100
AcDbLine
  8
STANDARD
 62
7
370
-1
  6
ByLayer
 10
19.7413100436682498
 20
9.7323144104802264
 30
0.0
 11
19.1413100436682555
 21
9.7323144104802264
 31
0.0
  0
LINE
  5
337
100
AcDbEntity
100
AcDbLine
  8
STANDARD
 62
7
370
-1
  6
ByLayer
 10
19.7413100436682498
 20
81.732314410480214
 30
0.0
 11
19.1413100436682555
 21
81.732314410480214
 31
0.0
  0
LINE
  5
338
100
AcDbEntity
100
AcDbLine
  8
STANDARD
 62
7
370
-1
  6
ByLayer
 10
19.1413100436682555
 20
-62.267685589519786
 30
0.0
 11
19.1413100436682555
 21
-62.8676855895197804
 31
0.0
  0
LINE
  5
339
100
AcDbEntity
100
AcDbLine
  8
STANDARD
 62
7
370
-1
  6
ByLayer
 10
19.1413100436682555
 20
9.7323144104802264
 30
0.0
 11
19.1413100436682555
 21
9.1323144104802179
 31
0.0
  0
LINE
  5
33A
100
AcDbEntity
100
AcDbLine
  8
STANDARD
 62
7
370
-1
  6
ByLayer
 10
19.1413100436682555
 20
81.732314410480214
 30
0.0
 11
19.1413100436682555
 21
81.1323144104802196
 31
0.0
  0
LINE
  5
33B
100
AcDbEntity
100
AcDbLine
  8
STANDARD
 62
7
370
-1
  6
ByLayer
 10
19.1413100436682555
 20
-62.8676855895197804
 30
0.0
 11
18.5413100436682754
 21
-62.8676855895197804
 31
0.0
  0
LINE
  5
33C
100
AcDbEntity
100
AcDbLine
  8
STANDARD
 62
7
370
-1
  6
ByLayer
 10
19.1413100436682555
 20
9.1323144104802179
 30
0.0
 11
18.5413100436682754
 21
9.1323144104802179
 31
0.0
  0
LINE
  5
33D
100
AcDbEntity
100
AcDbLine
  8
STANDARD
 62
7
370
-1
  6
ByLayer
 10
19.1413100436682555
 20
81.1323144104802196
 30
0.0
 11
18.5413100436682754
 21
81.1323144104802196
 31
0.0
  0
LINE
  5
33E
100
AcDbEntity
100
AcDbLine
  8
STANDARD
 62
7
370
-1
  6
ByLayer
 10
18.5413100436682754
 20
-62.8676855895197804
 30
0.0
 11
18.5413100436682754
 21
-63.4676855895197747
 31
0.0
  0
LINE
  5
33F
100
AcDbEntity
100
AcDbLine
  8
STANDARD
 62
7
370
-1
  6
ByLayer
 10
18.5413100436682754
 20
9.1323144104802179
 30
0.0
 11
18.5413100436682754
 21
8.5323144104802324
 31
0.0
  0
LINE
  5
340
100
AcDbEntity
100
AcDbLine
  8
STANDARD
 62
7
370
-1
  6
ByLayer
 10
18.5413100436682754
 20
81.1323144104802196
 30
0.0
 11
18.5413100436682754
 21
80.5323144104802111
 31
0.0
  0
LINE
  5
341
100
AcDbEntity
100
AcDbLine
  8
STANDARD
 62
7
370
-1
  6
ByLayer
 10
-47.7586899563317502
 20
-8.2676855895197754
 30
0.0
 11
-47.7586899563317502
 21
-10.6676855895197598
 31
0.0
  0
LINE
  5
342
100
AcDbEntity
100
AcDbLine
  8
STANDARD
 62
7
370
-1
  6
ByLayer
 10
-47.7586899563317502
 20
63.7323144104802282
 30
0.0
 11
-47.7586899563317502
 21
61.3323144104802367
 31
0.0
  0
LINE
  5
343
100
AcDbEntity
100
AcDbLine
  8
STANDARD
 62
7
370
-1
  6
ByLayer
 10
-47.7586899563317502
 20
-10.6676855895197598
 30
0.0
 11
-41.7586899563317644
 21
-10.6676855895197598
 31
0.0
  0
LINE
  5
344
100
AcDbEntity
100
AcDbLine
  8
STANDARD
 62
7
370
-1
  6
ByLayer
 10
-47.7586899563317502
 20
61.3323144104802367
 30
0.0
 11
-41.7586899563317644
 21
61.3323144104802367
 31
0.0
  0
LINE
  5
345
100
AcDbEntity
100
AcDbLine
  8
STANDARD
 62
7
370
-1
  6
ByLayer
 10
-41.7586899563317644
 20
-10.6676855895197598
 30
0.0
 11
-41.7586899563317644
 21
-14.2676855895197754
 31
0.0
  0
LINE
  5
346
100
AcDbEntity
100
AcDbLine
  8
STANDARD
 62
7
370
-1
  6
ByLayer
 10
-41.7586899563317644
 20
61.3323144104802367
 30
0.0
 11
-41.7586899563317644
 21
57.7323144104802282
 31
0.0
  0
LINE
  5
347
100
AcDbEntity
100
AcDbLine
  8
STANDARD
 62
7
370
-1
  6
ByLayer
 10
29.0413100436682896
 20
-37.067685589519769
 30
0.0
 11
-41.7586899563317644
 21
-37.067685589519769
 31
0.0
  0
LINE
  5
348
100
AcDbEntity
100
AcDbLine
  8
STANDARD
 62
7
370
-1
  6
ByLayer
 10
29.0413100436682896
 20
34.9323144104802452
 30
0.0
 11
-41.7586899563317644
 21
34.9323144104802452
 31
0.0
  0
LINE
  5
349
100
AcDbEntity
100
AcDbLine
  8
STANDARD
 62
7
370
-1
  6
ByLayer
 10
29.0413100436682896
 20
106.9323144104802452
 30
0.0
 11
-41.7586899563317644
 21
106.9323144104802452
 31
0.0
  0
LINE
  5
34A
100
AcDbEntity
100
AcDbLine
  8
STANDARD
 62
7
370
-1
  6
ByLayer
 10
-41.7586899563317644
 20
-41.8676855895197662
 30
0.0
 11
14.6413100436682555
 21
-41.8676855895197662
 31
0.0
  0
LINE
  5
34B
100
AcDbEntity
100
AcDbLine
  8
STANDARD
 62
7
370
-1
  6
ByLayer
 10
-41.7586899563317644
 20
30.1323144104802196
 30
0.0
 11
14.6413100436682555
 21
30.1323144104802196
 31
0.0
  0
LINE
  5
34C
100
AcDbEntity
100
AcDbLine
  8
STANDARD
 62
7
370
-1
  6
ByLayer
 10
-41.7586899563317644
 20
102.1323144104802196
 30
0.0
 11
14.6413100436682555
 21
102.1323144104802196
 31
0.0
  0
ENDSEC
  0
SECTION
  2
OBJECTS
  0
DICTIONARY
  5
C
100
AcDbDictionary
280
0
281
1
  3
ACAD_GROUP
350
D
  3
ACAD_LAYOUT
350
1A
  3
ACAD_MLINESTYLE
350
17
  3
ACAD_PLOTSETTINGS
350
19
  3
ACAD_PLOTSTYLENAME
350
E
  3
AcDbVariableDictionary
350
34D
  0
DICTIONARY
  5
D
100
AcDbDictionary
280
0
281
1
  0
ACDBDICTIONARYWDFLT
  5
E
100
AcDbDictionary
281
1
  3
Normal
350
F
100
AcDbDictionaryWithDefault
340
F
  0
ACDBPLACEHOLDER
  5
F
  0
DICTIONARY
  5
17
100
AcDbDictionary
280
0
281
1
  3
Standard
350
18
  0
MLINESTYLE
  5
18
100
AcDbMlineStyle
  2
STANDARD
 70
0
  3

 62
256
 51
90.0
 52
90.0
 71
2
 49
0.5
 62
256
  6
BYLAYER
 49
-0.5
 62
256
  6
BYLAYER
  0
DICTIONARY
  5
19
100
AcDbDictionary
280
0
281
1
  0
DICTIONARY
  5
1A
100
AcDbDictionary
281
1
  3
Layout1
350
1E
  3
Layout2
350
26
  3
Model
350
22
  0
LAYOUT
  5
1E
100
AcDbPlotSettings
  1

  2
C:\Program Files\AutoCAD 2002\plotters\DWF ePlot (optimized for plotting).pc3
  4

  6

 40
0.0
 41
0.0
 42
0.0
 43
0.0
 44
0.0
 45
0.0
 46
0.0
 47
0.0
 48
0.0
 49
0.0
140
0.0
141
0.0
142
1.0
143
1.0
 70
688
 72
0
 73
0
 74
5
  7

 75
16
147
1.0
148
0.0
149
0.0
100
AcDbLayout
  1
Layout1
 70
1
 71
1
 10
0.0
 20
0.0
 11
420.0
 21
297.0
 12
0.0
 22
0.0
 32
0.0
 14
100000000000000000000.0
 24
100000000000000000000.0
 34
100000000000000000000.0
 15
-100000000000000000000.0
 25
-100000000000000000000.0
 35
-100000000000000000000.0
146
0.0
 13
0.0
 23
0.0
 33
0.0
 16
1.0
 26
0.0
 36
0.0
 17
0.0
 27
1.0
 37
0.0
 76
0
330
1B
  0
LAYOUT
  5
22
100
AcDbPlotSettings
  1

  2
C:\Program Files\AutoCAD 2002\plotters\DWF ePlot (optimized for plotting).pc3
  4

  6

 40
0.0
 41
0.0
 42
0.0
 43
0.0
 44
0.0
 45
0.0
 46
0.0
 47
0.0
 48
0.0
 49
0.0
140
0.0
141
0.0
142
1.0
143
1.0
 70
1712
 72
0
 73
0
 74
0
  7

 75
0
147
1.0
148
0.0
149
0.0
100
AcDbLayout
  1
Model
 70
1
 71
0
 10
0.0
 20
0.0
 11
12.0
 21
9.0
 12
0.0
 22
0.0
 32
0.0
 14
0.0
 24
0.0
 34
0.0
 15
0.0
 25
0.0
 35
0.0
146
0.0
 13
0.0
 23
0.0
 33
0.0
 16
1.0
 26
0.0
 36
0.0
 17
0.0
 27
1.0
 37
0.0
 76
0
330
1F
  0
LAYOUT
  5
26
100
AcDbPlotSettings
  1

  2
C:\Program Files\AutoCAD 2002\plotters\DWF ePlot (optimized for plotting).pc3
  4

  6

 40
0.0
 41
0.0
 42
0.0
 43
0.0
 44
0.0
 45
0.0
 46
0.0
 47
0.0
 48
0.0
 49
0.0
140
0.0
141
0.0
142
1.0
143
1.0
 70
688
 72
0
 73
0
 74
5
  7

 75
16
147
1.0
148
0.0
149
0.0
100
AcDbLayout
  1
Layout2
 70
1
 71
2
 10
0.0
 20
0.0
 11
12.0
 21
9.0
 12
0.0
 22
0.0
 32
0.0
 14
0.0
 24
0.0
 34
0.0
 15
0.0
 25
0.0
 35
0.0
146
0.0
 13
0.0
 23
0.0
 33
0.0
 16
1.0
 26
0.0
 36
0.0
 17
0.0
 27
1.0
 37
0.0
 76
0
330
23
  0
DICTIONARY
  5
34D
100
AcDbDictionary
281
1
  3
DIMASSOC
350
34F
  3
HIDETEXT
350
34E
  0
DICTIONARYVAR
  5
34E
100
DictionaryVariables
280
0
  1
2
  0
DICTIONARYVAR
  5
34F
100
DictionaryVariables
280
0
  1
1
  0
ENDSEC
  0
EOF
