999
dxflib 2.0.4.8
  0
SECTION
  2
HEADER
  9
$ACADVER
  1
AC1015
  9
$HANDSEED
  5
FFFF
  9
$DIMTAD
 70
0
  9
$AXISUNIT
 10
0.0
 20
0.0
 30
0.0
  9
$USERR4
 40
0.0
  9
$CLAYER
  8
0
  9
$MENU
  1
acad
  9
$CHAMFERA
 40
0.0
  9
$ATTREQ
 70
1
  9
$UCSYDIR
 10
0.0
 20
1.0
 30
0.0
  9
$USERR5
 40
0.0
  9
$SHADEDIF
 70
70
  9
$TILEMODE
 70
1
  9
$VISRETAIN
 70
0
  9
$DIMASZ
 40
0.18
  9
$GRIDUNIT
 10
0.0
 20
0.0
  9
$DIMADEC
 70
0
  9
$EXTMIN
 10
4.4405000000000001
 20
9.4580000000000002
 30
0.0
  9
$ORTHOMODE
 70
0
  9
$REGENMODE
 70
1
  9
$TRACEWID
 40
0.05
  9
$CHAMFERB
 40
0.0
  9
$UCSXDIR
 10
1.0
 20
0.0
 30
0.0
  9
$DIMGAP
 40
0.09
  9
$DIMSHO
 70
1
  9
$DIMALT
 70
0
  9
$DIMSAH
 70
0
  9
$DIMTFAC
 40
1.0
  9
$SKETCHINC
 40
0.1
  9
$USRTIMER
 70
1
  9
$ANGBASE
 50
0.0
  9
$PUCSYDIR
 10
0.0
 20
1.0
 30
0.0
  9
$LIMMIN
 10
0.0
 20
0.0
  9
$DIMTSZ
 40
0.0
  9
$AXISMODE
 70
0
  9
$SPLFRAME
 70
0
  9
$SURFTYPE
 70
6
  9
$PUCSXDIR
 10
1.0
 20
0.0
 30
0.0
  9
$SPLINESEGS
 70
8
  9
$AUPREC
 70
0
  9
$LUNITS
 70
2
  9
$BLIPMODE
 70
1
  9
$SURFTAB1
 70
6
  9
$DWGCODEPAGE
  3
dos850
  9
$INSBASE
 10
0.0
 20
0.0
 30
0.0
  9
$DIMRND
 40
0.0
  9
$DIMCEN
 40
0.09
  9
$ELEVATION
 40
0.0
  9
$SKPOLY
 70
0
  9
$SURFTAB2
 70
6
  9
$USERI1
 70
0
  9
$UNITMODE
 70
0
  9
$DIMEXO
 40
0.0625
  9
$INSUNITS
 70
4
  9
$EXTMAX
 10
16.4594999999999985
 20
17.9420000000000002
 30
0.0
  9
$FILLMODE
 70
1
  9
$DRAGMODE
 70
2
  9
$TEXTSIZE
 40
0.2
  9
$PELEVATION
 40
0.0
  9
$UCSORG
 10
0.0
 20
0.0
 30
0.0
  9
$USERI2
 70
0
  9
$DIMSCALE
 40
1.0
  9
$DIMDLE
 40
0.0
  9
$DIMZIN
 70
0
  9
$TDUSRTIMER
 40
0.0
  9
$ANGDIR
 70
0
  9
$SURFU
 70
6
  9
$USERI3
 70
0
  9
$DIMLUNIT
 70
2
  9
$LIMMAX
 10
0.0
 20
0.0
  9
$QTEXTMODE
 70
0
  9
$OSMODE
 70
0
  9
$SURFV
 70
6
  9
$USERI4
 70
0
  9
$WORLDVIEW
 70
1
  9
$DIMTXT
 40
0.18
  9
$GRIDMODE
 70
1
  9
$ATTMODE
 70
1
  9
$DIMLIM
 70
0
  9
$DIMSE1
 70
0
  9
$THICKNESS
 40
0.0
  9
$LIMCHECK
 70
0
  9
$PDMODE
 70
0
  9
$HANDLING
 70
1
  9
$USERI5
 70
0
  9
$LUPREC
 70
4
  9
$CELTYPE
  6
CONTINUOUS
  9
$DIMTOH
 70
1
  9
$DIMSE2
 70
0
  9
$DIMLFAC
 40
1.0
  9
$DIMSOXD
 70
0
  9
$TDINDWG
 40
0.0
  9
$SPLINETYPE
 70
6
  9
$PUCSORG
 10
0.0
 20
0.0
 30
0.0
  9
$PEXTMIN
 10
100000000000000000000.0
 20
100000000000000000000.0
 30
100000000000000000000.0
  9
$PEXTMAX
 10
-100000000000000000000.0
 20
-100000000000000000000.0
 30
-100000000000000000000.0
  9
$CECOLOR
 62
256
  9
$DIMDLI
 40
0.38
  9
$DIMTM
 40
0.0
  9
$DIMASO
 70
1
  9
$DIMTVP
 40
0.0
  9
$DIMSTYLE
  2
STANDARD
  9
$PLINEWID
 40
0.0
  9
$PLIMCHECK
 70
0
  9
$PLIMMAX
 10
210.0
 20
297.0
  9
$PLIMMIN
 10
0.0
 20
0.0
  9
$LTSCALE
 40
1.0
  9
$DIMTIH
 70
1
  9
$DIMALTD
 70
2
  9
$DIMCLRT
 70
0
  9
$FILLETRAD
 40
0.0
  9
$TDUPDATE
 40
0.0
  9
$MAXACTVP
 70
16
  9
$TREEDEPTH
 70
3020
  9
$PINSBASE
 10
-48.9514843308081851
 20
34.2887365418052497
 30
0.0
  9
$DIMEXE
 40
0.18
  9
$DIMCLRD
 70
0
  9
$PDSIZE
 40
0.0
  9
$ATTDIA
 70
0
  9
$USERR1
 40
0.0
  9
$DIMAUNIT
 70
0
  9
$TEXTSTYLE
  7
STANDARD
  9
$DIMTP
 40
0.0
  9
$DIMTOL
 70
0
  9
$DIMALTF
 40
25.3999999999999986
  9
$DIMTOFL
 70
0
  9
$DIMCLRE
 70
0
  9
$TDCREATE
 40
0.0
  9
$COORDS
 70
0
  9
$USERR2
 40
0.0
  9
$SHADEDGE
 70
3
  9
$PLINEGEN
 70
1
  9
$PSLTSCALE
 70
0
  9
$AUNITS
 70
0
  9
$MIRRTEXT
 70
1
  9
$DIMTIX
 70
0
  9
$USERR3
 40
0.0
  0
ENDSEC
  0
SECTION
  2
TABLES
  0
TABLE
  2
VPORT
  5
8
100
AcDbSymbolTable
 70
1
  0
VPORT
  5
30
100
AcDbSymbolTableRecord
100
AcDbViewportTableRecord
  2
*Active
 70
0
 10
0.0
 20
0.0
 11
1.0
 21
1.0
 12
286.3055555555554861
 22
148.5
 13
0.0
 23
0.0
 14
10.0
 24
10.0
 15
10.0
 25
10.0
 16
0.0
 26
0.0
 36
1.0
 17
0.0
 27
0.0
 37
0.0
 40
297.0
 41
1.92798353909465
 42
50.0
 43
0.0
 44
0.0
 50
0.0
 51
0.0
 71
0
 72
100
 73
1
 74
3
 75
1
 76
1
 77
0
 78
0
281
0
 65
1
110
0.0
120
0.0
130
0.0
111
1.0
121
0.0
131
0.0
112
0.0
122
1.0
132
0.0
 79
0
146
0.0
  0
ENDTAB
  0
TABLE
  2
LTYPE
  5
5
100
AcDbSymbolTable
 70
21
  0
LTYPE
  5
14
100
AcDbSymbolTableRecord
100
AcDbLinetypeTableRecord
  2
ByBlock
 70
0
  3

 72
65
 73
0
 40
0.0
  0
LTYPE
  5
15
100
AcDbSymbolTableRecord
100
AcDbLinetypeTableRecord
  2
ByLayer
 70
0
  3

 72
65
 73
0
 40
0.0
  0
LTYPE
  5
16
100
AcDbSymbolTableRecord
100
AcDbLinetypeTableRecord
  2
CONTINUOUS
 70
0
  3
Solid line
 72
65
 73
0
 40
0.0
  0
LTYPE
  5
31
100
AcDbSymbolTableRecord
100
AcDbLinetypeTableRecord
  2
DOT
 70
0
  3
Dot . . . . . . . . . . . . . . . . . . . . . .
 72
65
 73
2
 40
6.3499999999999996
 49
0.0
 74
0
 49
-6.3499999999999996
 74
0
  0
LTYPE
  5
32
100
AcDbSymbolTableRecord
100
AcDbLinetypeTableRecord
  2
DOT2
 70
0
  3
Dot (.5x) .....................................
 72
65
 73
2
 40
3.1749999999999998
 49
0.0
 74
0
 49
-3.1749999999999998
 74
0
  0
LTYPE
  5
33
100
AcDbSymbolTableRecord
100
AcDbLinetypeTableRecord
  2
DOTX2
 70
0
  3
Dot (2x) .  .  .  .  .  .  .  .  .  .  .  .  .
 72
65
 73
2
 40
12.6999999999999993
 49
0.0
 74
0
 49
-12.6999999999999993
 74
0
  0
LTYPE
  5
34
100
AcDbSymbolTableRecord
100
AcDbLinetypeTableRecord
  2
DASHED
 70
0
  3
Dashed __ __ __ __ __ __ __ __ __ __ __ __ __ _
 72
65
 73
2
 40
19.0500000000000007
 49
12.6999999999999993
 74
0
 49
-6.3499999999999996
 74
0
  0
LTYPE
  5
35
100
AcDbSymbolTableRecord
100
AcDbLinetypeTableRecord
  2
DASHED2
 70
0
  3
Dashed (.5x) _ _ _ _ _ _ _ _ _ _ _ _ _ _ _ _ _
 72
65
 73
2
 40
9.5250000000000004
 49
6.3499999999999996
 74
0
 49
-3.1749999999999998
 74
0
  0
LTYPE
  5
36
100
AcDbSymbolTableRecord
100
AcDbLinetypeTableRecord
  2
DASHEDX2
 70
0
  3
Dashed (2x) ____  ____  ____  ____  ____  ___
 72
65
 73
2
 40
38.1000000000000014
 49
25.3999999999999986
 74
0
 49
-12.6999999999999993
 74
0
  0
LTYPE
  5
37
100
AcDbSymbolTableRecord
100
AcDbLinetypeTableRecord
  2
DASHDOT
 70
0
  3
Dash dot __ . __ . __ . __ . __ . __ . __ . __
 72
65
 73
4
 40
25.3999999999999986
 49
12.6999999999999993
 74
0
 49
-6.3499999999999996
 74
0
 49
0.0
 74
0
 49
-6.3499999999999996
 74
0
  0
LTYPE
  5
38
100
AcDbSymbolTableRecord
100
AcDbLinetypeTableRecord
  2
DASHDOT2
 70
0
  3
Dash dot (.5x) _._._._._._._._._._._._._._._.
 72
65
 73
4
 40
12.6999999999999993
 49
6.3499999999999996
 74
0
 49
-3.1749999999999998
 74
0
 49
0.0
 74
0
 49
-3.1749999999999998
 74
0
  0
LTYPE
  5
39
100
AcDbSymbolTableRecord
100
AcDbLinetypeTableRecord
  2
DASHDOTX2
 70
0
  3
Dash dot (2x) ____  .  ____  .  ____  .  ___
 72
65
 73
4
 40
50.7999999999999972
 49
25.3999999999999986
 74
0
 49
-12.6999999999999993
 74
0
 49
0.0
 74
0
 49
-12.6999999999999993
 74
0
  0
LTYPE
  5
3A
100
AcDbSymbolTableRecord
100
AcDbLinetypeTableRecord
  2
DIVIDE
 70
0
  3
Divide ____ . . ____ . . ____ . . ____ . . ____
 72
65
 73
6
 40
31.75
 49
12.6999999999999993
 74
0
 49
-6.3499999999999996
 74
0
 49
0.0
 74
0
 49
-6.3499999999999996
 74
0
 49
0.0
 74
0
 49
-6.3499999999999996
 74
0
  0
LTYPE
  5
3B
100
AcDbSymbolTableRecord
100
AcDbLinetypeTableRecord
  2
DIVIDE2
 70
0
  3
Divide (.5x) __..__..__..__..__..__..__..__.._
 72
65
 73
6
 40
15.875
 49
6.3499999999999996
 74
0
 49
-3.1749999999999998
 74
0
 49
0.0
 74
0
 49
-3.1749999999999998
 74
0
 49
0.0
 74
0
 49
-3.1749999999999998
 74
0
  0
LTYPE
  5
3C
100
AcDbSymbolTableRecord
100
AcDbLinetypeTableRecord
  2
DIVIDEX2
 70
0
  3
Divide (2x) ________  .  .  ________  .  .  _
 72
65
 73
6
 40
63.5
 49
25.3999999999999986
 74
0
 49
-12.6999999999999993
 74
0
 49
0.0
 74
0
 49
-12.6999999999999993
 74
0
 49
0.0
 74
0
 49
-12.6999999999999993
 74
0
  0
LTYPE
  5
3D
100
AcDbSymbolTableRecord
100
AcDbLinetypeTableRecord
  2
CENTER
 70
0
  3
Center ____ _ ____ _ ____ _ ____ _ ____ _ ____
 72
65
 73
4
 40
50.7999999999999972
 49
31.75
 74
0
 49
-6.3499999999999996
 74
0
 49
6.3499999999999996
 74
0
 49
-6.3499999999999996
 74
0
  0
LTYPE
  5
3E
100
AcDbSymbolTableRecord
100
AcDbLinetypeTableRecord
  2
CENTER2
 70
0
  3
Center (.5x) ___ _ ___ _ ___ _ ___ _ ___ _ ___
 72
65
 73
4
 40
28.5749999999999993
 49
19.0500000000000007
 74
0
 49
-3.1749999999999998
 74
0
 49
3.1749999999999998
 74
0
 49
-3.1749999999999998
 74
0
  0
LTYPE
  5
3F
100
AcDbSymbolTableRecord
100
AcDbLinetypeTableRecord
  2
CENTERX2
 70
0
  3
Center (2x) ________  __  ________  __  _____
 72
65
 73
4
 40
101.5999999999999943
 49
63.5
 74
0
 49
-12.6999999999999993
 74
0
 49
12.6999999999999993
 74
0
 49
-12.6999999999999993
 74
0
  0
LTYPE
  5
40
100
AcDbSymbolTableRecord
100
AcDbLinetypeTableRecord
  2
BORDER
 70
0
  3
Border __ __ . __ __ . __ __ . __ __ . __ __ .
 72
65
 73
6
 40
44.4500000000000028
 49
12.6999999999999993
 74
0
 49
-6.3499999999999996
 74
0
 49
12.6999999999999993
 74
0
 49
-6.3499999999999996
 74
0
 49
0.0
 74
0
 49
-6.3499999999999996
 74
0
  0
LTYPE
  5
41
100
AcDbSymbolTableRecord
100
AcDbLinetypeTableRecord
  2
BORDER2
 70
0
  3
Border (.5x) __.__.__.__.__.__.__.__.__.__.__.
 72
65
 73
6
 40
22.2250000000000014
 49
6.3499999999999996
 74
0
 49
-3.1749999999999998
 74
0
 49
6.3499999999999996
 74
0
 49
-3.1749999999999998
 74
0
 49
0.0
 74
0
 49
-3.1749999999999998
 74
0
  0
LTYPE
  5
42
100
AcDbSymbolTableRecord
100
AcDbLinetypeTableRecord
  2
BORDERX2
 70
0
  3
Border (2x) ____  ____  .  ____  ____  .  ___
 72
65
 73
6
 40
88.9000000000000057
 49
25.3999999999999986
 74
0
 49
-12.6999999999999993
 74
0
 49
25.3999999999999986
 74
0
 49
-12.6999999999999993
 74
0
 49
0.0
 74
0
 49
-12.6999999999999993
 74
0
  0
ENDTAB
  0
TABLE
  2
LAYER
  5
2
100
AcDbSymbolTable
 70
7
  0
LAYER
  5
10
100
AcDbSymbolTableRecord
100
AcDbLayerTableRecord
  2
0
 70
0
 62
7
  6
CONTINUOUS
390
F
  0
LAYER
  5
43
100
AcDbSymbolTableRecord
100
AcDbLayerTableRecord
  2
MERGE
 70
0
 62
7
  6
CONTINUOUS
390
F
  0
LAYER
  5
44
100
AcDbSymbolTableRecord
100
AcDbLayerTableRecord
  2
STANDARD
 70
0
 62
7
  6
CONTINUOUS
370
25
390
F
  0
LAYER
  5
45
100
AcDbSymbolTableRecord
100
AcDbLayerTableRecord
  2
PINS
 70
0
 62
7
  6
CONTINUOUS
390
F
  0
LAYER
  5
46
100
AcDbSymbolTableRecord
100
AcDbLayerTableRecord
  2
PARAMS
 70
0
 62
7
  6
CONTINUOUS
370
25
390
F
  0
LAYER
  5
47
100
AcDbSymbolTableRecord
100
AcDbLayerTableRecord
  2
OUTLINE
 70
0
 62
7
  6
CONTINUOUS
390
F
  0
LAYER
  5
48
100
AcDbSymbolTableRecord
100
AcDbLayerTableRecord
  2
INTERNALS
 70
0
 62
7
  6
CONTINUOUS
390
F
  0
ENDTAB
  0
TABLE
  2
STYLE
  5
3
100
AcDbSymbolTable
 70
1
  0
STYLE
  5
11
100
AcDbSymbolTableRecord
100
AcDbTextStyleTableRecord
  2
Standard
 70
0
 40
0.0
 41
0.75
 50
0.0
 71
0
 42
2.5
  3
txt
  4

  0
ENDTAB
  0
TABLE
  2
VIEW
  5
6
100
AcDbSymbolTable
 70
0
  0
ENDTAB
  0
TABLE
  2
UCS
  5
7
100
AcDbSymbolTable
 70
0
  0
ENDTAB
  0
TABLE
  2
APPID
  5
9
100
AcDbSymbolTable
 70
1
  0
APPID
  5
12
100
AcDbSymbolTableRecord
100
AcDbRegAppTableRecord
  2
ACAD
 70
0
  0
ENDTAB
  0
TABLE
  2
DIMSTYLE
  5
A
100
AcDbSymbolTable
 70
1
100
AcDbDimStyleTable
 71
0
  0
DIMSTYLE
105
27
100
AcDbSymbolTableRecord
100
AcDbDimStyleTableRecord
  2
Standard
 41
0.18
 42
0.0625
 43
3.75
 44
0.18
 70
0
 73
0
 74
0
 77
1
 78
8
140
0.18
141
2.5
143
0.03937007874016
147
0.09
171
3
172
1
271
2
272
2
274
3
278
44
283
0
284
8
340
11
  0
ENDTAB
  0
TABLE
  2
BLOCK_RECORD
  5
1
100
AcDbSymbolTable
 70
1
  0
BLOCK_RECORD
  5
1F
100
AcDbSymbolTableRecord
100
AcDbBlockTableRecord
  2
*Model_Space
340
22
  0
BLOCK_RECORD
  5
1B
100
AcDbSymbolTableRecord
100
AcDbBlockTableRecord
  2
*Paper_Space
340
1E
  0
BLOCK_RECORD
  5
23
100
AcDbSymbolTableRecord
100
AcDbBlockTableRecord
  2
*Paper_Space0
340
26
  0
ENDTAB
  0
ENDSEC
  0
SECTION
  2
BLOCKS
  0
BLOCK
  5
20
100
AcDbEntity
  8
0
100
AcDbBlockBegin
  2
*Model_Space
 70
0
 10
0.0
 20
0.0
 30
0.0
  3
*Model_Space
  1

  0
ENDBLK
  5
21
100
AcDbEntity
  8
0
100
AcDbBlockEnd
  0
BLOCK
  5
1C
100
AcDbEntity
 67
1
  8
0
100
AcDbBlockBegin
  2
*Paper_Space
 70
0
 10
0.0
 20
0.0
 30
0.0
  3
*Paper_Space
  1

  0
ENDBLK
  5
1D
100
AcDbEntity
 67
1
  8
0
100
AcDbBlockEnd
  0
BLOCK
  5
24
100
AcDbEntity
  8
0
100
AcDbBlockBegin
  2
*Paper_Space0
 70
0
 10
0.0
 20
0.0
 30
0.0
  3
*Paper_Space0
  1

  0
ENDBLK
  5
25
100
AcDbEntity
  8
0
100
AcDbBlockEnd
  0
ENDSEC
  0
SECTION
  2
ENTITIES
  0
LWPOLYLINE
  5
49
  8
STANDARD
 62
7
370
-1
  6
ByLayer
100
AcDbEntity
100
AcDbPolyline
 90
7
 70
1
 10
219.4089253878422596
 20
106.6764203447364139
 10
219.4089253878422596
 20
109.6764203447364565
 10
238.9089253878424302
 20
109.6764203447364565
 10
240.4089253878423449
 20
108.1764203447365418
 10
238.9089253878424302
 20
106.6764203447364139
 10
219.4089253878422596
 20
106.6764203447364139
 10
219.4089253878422596
 20
106.6764203447364139
  0
LWPOLYLINE
  5
4A
  8
STANDARD
 62
7
370
-1
  6
ByLayer
100
AcDbEntity
100
AcDbPolyline
 90
7
 70
1
 10
61.9089253878422596
 20
67.6764203447364991
 10
61.9089253878422596
 20
70.6764203447365418
 10
81.4089253878424302
 20
70.6764203447365418
 10
82.9089253878423449
 20
69.1764203447364139
 10
81.4089253878424302
 20
67.6764203447364991
 10
61.9089253878422596
 20
67.6764203447364991
 10
61.9089253878422596
 20
67.6764203447364991
  0
LWPOLYLINE
  5
4B
  8
STANDARD
 62
7
370
-1
  6
ByLayer
100
AcDbEntity
100
AcDbPolyline
 90
7
 70
1
 10
61.9089253878422596
 20
112.6764203447364991
 10
61.9089253878422596
 20
115.6764203447365418
 10
81.4089253878424302
 20
115.6764203447365418
 10
82.9089253878423449
 20
114.1764203447364139
 10
81.4089253878424302
 20
112.6764203447364991
 10
61.9089253878422596
 20
112.6764203447364991
 10
61.9089253878422596
 20
112.6764203447364991
  0
MTEXT
  5
4C
100
AcDbEntity
100
AcDbMText
  8
STANDARD
 62
7
370
-1
  6
ByLayer
 10
228.4089253878421744
 20
108.1764203447365418
 30
0.0
 40
1.875
 41
1500.0
 71
5
 72
2
  1
output
  7
romand
 50
0.0
 73
1
 44
1.0
  0
MTEXT
  5
4D
100
AcDbEntity
100
AcDbMText
  8
STANDARD
 62
7
370
-1
  6
ByLayer
 10
70.9089253878421744
 20
69.1764203447364139
 30
0.0
 40
1.875
 41
1500.0
 71
5
 72
2
  1
enable
  7
romand
 50
0.0
 73
1
 44
1.0
  0
MTEXT
  5
4E
100
AcDbEntity
100
AcDbMText
  8
STANDARD
 62
7
370
-1
  6
ByLayer
 10
70.9089253878421744
 20
114.1764203447364139
 30
0.0
 40
1.875
 41
1500.0
 71
5
 72
2
  1
command
  7
romand
 50
0.0
 73
1
 44
1.0
  0
LWPOLYLINE
  5
4F
  8
STANDARD
 62
7
370
-1
  6
ByLayer
100
AcDbEntity
100
AcDbPolyline
 90
7
 70
1
 10
220.9089253878421744
 20
168.1764203447365276
 10
219.4089253878422596
 20
169.6764203447364707
 10
220.9089253878421744
 20
171.1764203447365844
 10
240.4089253878423449
 20
171.1764203447365844
 10
240.4089253878423449
 20
168.1764203447365276
 10
220.9089253878421744
 20
168.1764203447365276
 10
220.9089253878421744
 20
168.1764203447365276
  0
LWPOLYLINE
  5
50
  8
STANDARD
 62
7
370
-1
  6
ByLayer
100
AcDbEntity
100
AcDbPolyline
 90
7
 70
1
 10
63.4089253878421744
 20
154.6764203447364707
 10
61.9089253878422596
 20
156.1764203447365844
 10
63.4089253878421744
 20
157.6764203447364991
 10
82.9089253878423449
 20
157.6764203447364991
 10
82.9089253878423449
 20
154.6764203447364707
 10
63.4089253878421744
 20
154.6764203447364707
 10
63.4089253878421744
 20
154.6764203447364707
  0
MTEXT
  5
51
100
AcDbEntity
100
AcDbMText
  8
STANDARD
 62
7
370
-1
  6
ByLayer
 10
229.9089253878420891
 20
169.6764203447364707
 30
0.0
 40
1.875
 41
1500.0
 71
5
 72
2
  1
feedback
  7
romand
 50
0.0
 73
1
 44
1.0
  0
MTEXT
  5
52
100
AcDbEntity
100
AcDbMText
  8
STANDARD
 62
7
370
-1
  6
ByLayer
 10
72.4089253878420891
 20
156.1764203447365844
 30
0.0
 40
1.875
 41
1500.0
 71
5
 72
2
  1
error
  7
romand
 50
0.0
 73
1
 44
1.0
  0
MTEXT
  5
53
100
AcDbEntity
100
AcDbMText
  8
PARAMS
 62
7
370
-1
  6
ByLayer
 10
151.9089253878422596
 20
55.6764203447365418
 30
0.0
 40
1.875
 41
1500.0
 71
5
 72
2
  1
max-cmdDD
  7
romand
 50
359.9999829999999861
 73
1
 44
1.0
  0
MTEXT
  5
54
100
AcDbEntity
100
AcDbMText
  8
PARAMS
 62
7
370
-1
  6
ByLayer
 10
120.4089253878423449
 20
88.6764203447365844
 30
0.0
 40
1.875
 41
1500.0
 71
5
 72
2
  1
max-cmdD
  7
romand
 50
0.0
 73
1
 44
1.0
  0
MTEXT
  5
55
100
AcDbEntity
100
AcDbMText
  8
PARAMS
 62
7
370
-1
  6
ByLayer
 10
148.9089253878424302
 20
108.1764203447365418
 30
0.0
 40
1.875
 41
1500.0
 71
5
 72
2
  1
max-errorD
  7
romand
 50
359.9999829999999861
 73
1
 44
1.0
  0
MTEXT
  5
56
100
AcDbEntity
100
AcDbMText
  8
PARAMS
 62
7
370
-1
  6
ByLayer
 10
162.4089253878420891
 20
141.1764203447365844
 30
0.0
 40
1.875
 41
1500.0
 71
5
 72
2
  1
Pgain
  7
romand
 50
0.0
 73
1
 44
1.0
  0
MTEXT
  5
57
100
AcDbEntity
100
AcDbMText
  8
PARAMS
 62
7
370
-1
  6
ByLayer
 10
162.4089253878420891
 20
73.6764203447365844
 30
0.0
 40
1.875
 41
1500.0
 71
5
 72
2
  1
FF2
  7
romand
 50
0.0
 73
1
 44
1.0
  0
MTEXT
  5
58
100
AcDbEntity
100
AcDbMText
  8
PARAMS
 62
7
370
-1
  6
ByLayer
 10
175.9089253878421744
 20
108.1764203447365418
 30
0.0
 40
1.875
 41
1500.0
 71
5
 72
2
  1
bias
  7
romand
 50
0.0
 73
1
 44
1.0
  0
MTEXT
  5
59
100
AcDbEntity
100
AcDbMText
  8
PARAMS
 62
7
370
-1
  6
ByLayer
 10
162.4089253878420891
 20
99.1764203447364139
 30
0.0
 40
1.875
 41
1500.0
 71
5
 72
2
  1
FF0
  7
romand
 50
0.0
 73
1
 44
1.0
  0
MTEXT
  5
5A
100
AcDbEntity
100
AcDbMText
  8
PARAMS
 62
7
370
-1
  6
ByLayer
 10
162.4089253878420891
 20
85.6764203447365418
 30
0.0
 40
1.875
 41
1500.0
 71
5
 72
2
  1
FF1
  7
romand
 50
0.0
 73
1
 44
1.0
  0
MTEXT
  5
5B
100
AcDbEntity
100
AcDbMText
  8
PARAMS
 62
7
370
-1
  6
ByLayer
 10
162.4089253878420891
 20
126.1764203447365844
 30
0.0
 40
1.875
 41
1500.0
 71
5
 72
2
  1
Dgain
  7
romand
 50
0.0
 73
1
 44
1.0
  0
MTEXT
  5
5C
100
AcDbEntity
100
AcDbMText
  8
PARAMS
 62
7
370
-1
  6
ByLayer
 10
162.4089253878420891
 20
165.1764203447364991
 30
0.0
 40
1.875
 41
1500.0
 71
5
 72
2
  1
Igain
  7
romand
 50
0.0
 73
1
 44
1.0
  0
MTEXT
  5
5D
100
AcDbEntity
100
AcDbMText
  8
PARAMS
 62
7
370
-1
  6
ByLayer
 10
148.9089253878424302
 20
147.1764203447364707
 30
0.0
 40
1.875
 41
1500.0
 71
5
 72
2
  1
max-errorI
  7
romand
 50
359.9999829999999861
 73
1
 44
1.0
  0
MTEXT
  5
5E
100
AcDbEntity
100
AcDbMText
  8
PARAMS
 62
7
370
-1
  6
ByLayer
 10
196.9089253878422596
 20
73.6764203447365844
 30
0.0
 40
1.875
 41
1500.0
 71
5
 72
2
  1
max-output
  7
romand
 50
359.9999829999999861
 73
1
 44
1.0
  0
MTEXT
  5
5F
100
AcDbEntity
100
AcDbMText
  8
PARAMS
 62
7
370
-1
  6
ByLayer
 10
115.9089253878421744
 20
144.1764203447364139
 30
0.0
 40
1.875
 41
1500.0
 71
5
 72
2
  1
max-error
  7
romand
 50
0.0
 73
1
 44
1.0
  0
MTEXT
  5
60
100
AcDbEntity
100
AcDbMText
  8
PARAMS
 62
7
370
-1
  6
ByLayer
 10
102.4089253878420891
 20
126.1764203447365844
 30
0.0
 40
1.875
 41
1500.0
 71
5
 72
2
  1
deadband
  7
romand
 50
0.0
 73
1
 44
1.0
  0
LINE
  5
61
100
AcDbEntity
100
AcDbLine
  8
PARAMS
 62
7
370
-1
  6
ByLayer
 10
142.9089253878423449
 20
57.1764203447364565
 30
0.0
 11
142.9089253878423449
 21
54.1764203447364139
 31
0.0
  0
LINE
  5
62
100
AcDbEntity
100
AcDbLine
  8
PARAMS
 62
7
370
-1
  6
ByLayer
 10
111.4089253878424302
 20
87.1764203447364565
 30
0.0
 11
111.4089253878424302
 21
90.1764203447364991
 31
0.0
  0
LINE
  5
63
100
AcDbEntity
100
AcDbLine
  8
PARAMS
 62
7
370
-1
  6
ByLayer
 10
139.9089253878420891
 20
109.6764203447364565
 30
0.0
 11
139.9089253878420891
 21
106.6764203447364139
 31
0.0
  0
LINE
  5
64
100
AcDbEntity
100
AcDbLine
  8
PARAMS
 62
7
370
-1
  6
ByLayer
 10
153.4089253878421744
 20
139.6764203447364707
 30
0.0
 11
153.4089253878421744
 21
142.6764203447364991
 31
0.0
  0
LINE
  5
65
100
AcDbEntity
100
AcDbLine
  8
PARAMS
 62
7
370
-1
  6
ByLayer
 10
153.4089253878421744
 20
72.1764203447364565
 30
0.0
 11
153.4089253878421744
 21
75.1764203447364991
 31
0.0
  0
LINE
  5
66
100
AcDbEntity
100
AcDbLine
  8
PARAMS
 62
7
370
-1
  6
ByLayer
 10
166.9089253878422596
 20
106.6764203447364139
 30
0.0
 11
166.9089253878422596
 21
109.6764203447364565
 31
0.0
  0
LINE
  5
67
100
AcDbEntity
100
AcDbLine
  8
PARAMS
 62
7
370
-1
  6
ByLayer
 10
153.4089253878421744
 20
97.6764203447364991
 30
0.0
 11
153.4089253878421744
 21
100.6764203447365418
 31
0.0
  0
LINE
  5
68
100
AcDbEntity
100
AcDbLine
  8
PARAMS
 62
7
370
-1
  6
ByLayer
 10
153.4089253878421744
 20
84.1764203447364139
 30
0.0
 11
153.4089253878421744
 21
87.1764203447364565
 31
0.0
  0
LINE
  5
69
100
AcDbEntity
100
AcDbLine
  8
PARAMS
 62
7
370
-1
  6
ByLayer
 10
153.4089253878421744
 20
124.6764203447364565
 30
0.0
 11
153.4089253878421744
 21
127.6764203447364991
 31
0.0
  0
LINE
  5
6A
100
AcDbEntity
100
AcDbLine
  8
PARAMS
 62
7
370
-1
  6
ByLayer
 10
153.4089253878421744
 20
163.6764203447365844
 30
0.0
 11
153.4089253878421744
 21
166.6764203447364139
 31
0.0
  0
LINE
  5
6B
100
AcDbEntity
100
AcDbLine
  8
PARAMS
 62
7
370
-1
  6
ByLayer
 10
139.9089253878420891
 20
148.6764203447365844
 30
0.0
 11
139.9089253878420891
 21
145.6764203447365276
 31
0.0
  0
LINE
  5
6C
100
AcDbEntity
100
AcDbLine
  8
PARAMS
 62
7
370
-1
  6
ByLayer
 10
187.9089253878423449
 20
75.1764203447364991
 30
0.0
 11
187.9089253878423449
 21
72.1764203447364565
 31
0.0
  0
LINE
  5
6D
100
AcDbEntity
100
AcDbLine
  8
PARAMS
 62
7
370
-1
  6
ByLayer
 10
106.9089253878422596
 20
142.6764203447364991
 30
0.0
 11
106.9089253878422596
 21
145.6764203447365276
 31
0.0
  0
LINE
  5
6E
100
AcDbEntity
100
AcDbLine
  8
PARAMS
 62
7
370
-1
  6
ByLayer
 10
93.4089253878421744
 20
124.6764203447364565
 30
0.0
 11
93.4089253878421744
 21
127.6764203447364991
 31
0.0
  0
LINE
  5
6F
100
AcDbEntity
100
AcDbLine
  8
PARAMS
 62
7
370
-1
  6
ByLayer
 10
142.9089253878423449
 20
54.1764203447364139
 30
0.0
 11
160.9089253878421744
 21
54.1764203447364139
 31
0.0
  0
LINE
  5
70
100
AcDbEntity
100
AcDbLine
  8
PARAMS
 62
7
370
-1
  6
ByLayer
 10
111.4089253878424302
 20
90.1764203447364991
 30
0.0
 11
129.4089253878422596
 21
90.1764203447364991
 31
0.0
  0
LINE
  5
71
100
AcDbEntity
100
AcDbLine
  8
PARAMS
 62
7
370
-1
  6
ByLayer
 10
139.9089253878420891
 20
106.6764203447364139
 30
0.0
 11
157.9089253878423449
 21
106.6764203447364139
 31
0.0
  0
LINE
  5
72
100
AcDbEntity
100
AcDbLine
  8
PARAMS
 62
7
370
-1
  6
ByLayer
 10
153.4089253878421744
 20
142.6764203447364991
 30
0.0
 11
171.4089253878424302
 21
142.6764203447364991
 31
0.0
  0
LINE
  5
73
100
AcDbEntity
100
AcDbLine
  8
PARAMS
 62
7
370
-1
  6
ByLayer
 10
153.4089253878421744
 20
75.1764203447364991
 30
0.0
 11
171.4089253878424302
 21
75.1764203447364991
 31
0.0
  0
LINE
  5
74
100
AcDbEntity
100
AcDbLine
  8
PARAMS
 62
7
370
-1
  6
ByLayer
 10
166.9089253878422596
 20
109.6764203447364565
 30
0.0
 11
184.9089253878420891
 21
109.6764203447364565
 31
0.0
  0
LINE
  5
75
100
AcDbEntity
100
AcDbLine
  8
PARAMS
 62
7
370
-1
  6
ByLayer
 10
153.4089253878421744
 20
100.6764203447365418
 30
0.0
 11
171.4089253878424302
 21
100.6764203447365418
 31
0.0
  0
LINE
  5
76
100
AcDbEntity
100
AcDbLine
  8
PARAMS
 62
7
370
-1
  6
ByLayer
 10
153.4089253878421744
 20
87.1764203447364565
 30
0.0
 11
171.4089253878424302
 21
87.1764203447364565
 31
0.0
  0
LINE
  5
77
100
AcDbEntity
100
AcDbLine
  8
PARAMS
 62
7
370
-1
  6
ByLayer
 10
153.4089253878421744
 20
127.6764203447364991
 30
0.0
 11
171.4089253878424302
 21
127.6764203447364991
 31
0.0
  0
LINE
  5
78
100
AcDbEntity
100
AcDbLine
  8
PARAMS
 62
7
370
-1
  6
ByLayer
 10
153.4089253878421744
 20
166.6764203447364139
 30
0.0
 11
171.4089253878424302
 21
166.6764203447364139
 31
0.0
  0
LINE
  5
79
100
AcDbEntity
100
AcDbLine
  8
PARAMS
 62
7
370
-1
  6
ByLayer
 10
139.9089253878420891
 20
145.6764203447365276
 30
0.0
 11
157.9089253878423449
 21
145.6764203447365276
 31
0.0
  0
LINE
  5
7A
100
AcDbEntity
100
AcDbLine
  8
PARAMS
 62
7
370
-1
  6
ByLayer
 10
187.9089253878423449
 20
72.1764203447364565
 30
0.0
 11
205.9089253878421744
 21
72.1764203447364565
 31
0.0
  0
LINE
  5
7B
100
AcDbEntity
100
AcDbLine
  8
PARAMS
 62
7
370
-1
  6
ByLayer
 10
106.9089253878422596
 20
145.6764203447365276
 30
0.0
 11
124.9089253878420891
 21
145.6764203447365276
 31
0.0
  0
LINE
  5
7C
100
AcDbEntity
100
AcDbLine
  8
PARAMS
 62
7
370
-1
  6
ByLayer
 10
93.4089253878421744
 20
127.6764203447364991
 30
0.0
 11
111.4089253878424302
 21
127.6764203447364991
 31
0.0
  0
LINE
  5
7D
100
AcDbEntity
100
AcDbLine
  8
PARAMS
 62
7
370
-1
  6
ByLayer
 10
160.9089253878421744
 20
54.1764203447364139
 30
0.0
 11
160.9089253878421744
 21
57.1764203447364565
 31
0.0
  0
LINE
  5
7E
100
AcDbEntity
100
AcDbLine
  8
PARAMS
 62
7
370
-1
  6
ByLayer
 10
129.4089253878422596
 20
90.1764203447364991
 30
0.0
 11
129.4089253878422596
 21
87.1764203447364565
 31
0.0
  0
LINE
  5
7F
100
AcDbEntity
100
AcDbLine
  8
PARAMS
 62
7
370
-1
  6
ByLayer
 10
157.9089253878423449
 20
106.6764203447364139
 30
0.0
 11
157.9089253878423449
 21
109.6764203447364565
 31
0.0
  0
LINE
  5
80
100
AcDbEntity
100
AcDbLine
  8
PARAMS
 62
7
370
-1
  6
ByLayer
 10
171.4089253878424302
 20
142.6764203447364991
 30
0.0
 11
171.4089253878424302
 21
139.6764203447364707
 31
0.0
  0
LINE
  5
81
100
AcDbEntity
100
AcDbLine
  8
PARAMS
 62
7
370
-1
  6
ByLayer
 10
171.4089253878424302
 20
75.1764203447364991
 30
0.0
 11
171.4089253878424302
 21
72.1764203447364565
 31
0.0
  0
LINE
  5
82
100
AcDbEntity
100
AcDbLine
  8
PARAMS
 62
7
370
-1
  6
ByLayer
 10
184.9089253878420891
 20
109.6764203447364565
 30
0.0
 11
184.9089253878420891
 21
106.6764203447364139
 31
0.0
  0
LINE
  5
83
100
AcDbEntity
100
AcDbLine
  8
PARAMS
 62
7
370
-1
  6
ByLayer
 10
171.4089253878424302
 20
100.6764203447365418
 30
0.0
 11
171.4089253878424302
 21
97.6764203447364991
 31
0.0
  0
LINE
  5
84
100
AcDbEntity
100
AcDbLine
  8
PARAMS
 62
7
370
-1
  6
ByLayer
 10
171.4089253878424302
 20
87.1764203447364565
 30
0.0
 11
171.4089253878424302
 21
84.1764203447364139
 31
0.0
  0
LINE
  5
85
100
AcDbEntity
100
AcDbLine
  8
PARAMS
 62
7
370
-1
  6
ByLayer
 10
171.4089253878424302
 20
127.6764203447364991
 30
0.0
 11
171.4089253878424302
 21
124.6764203447364565
 31
0.0
  0
LINE
  5
86
100
AcDbEntity
100
AcDbLine
  8
PARAMS
 62
7
370
-1
  6
ByLayer
 10
171.4089253878424302
 20
166.6764203447364139
 30
0.0
 11
171.4089253878424302
 21
163.6764203447365844
 31
0.0
  0
LINE
  5
87
100
AcDbEntity
100
AcDbLine
  8
PARAMS
 62
7
370
-1
  6
ByLayer
 10
157.9089253878423449
 20
145.6764203447365276
 30
0.0
 11
157.9089253878423449
 21
148.6764203447365844
 31
0.0
  0
LINE
  5
88
100
AcDbEntity
100
AcDbLine
  8
PARAMS
 62
7
370
-1
  6
ByLayer
 10
205.9089253878421744
 20
72.1764203447364565
 30
0.0
 11
205.9089253878421744
 21
75.1764203447364991
 31
0.0
  0
LINE
  5
89
100
AcDbEntity
100
AcDbLine
  8
PARAMS
 62
7
370
-1
  6
ByLayer
 10
124.9089253878420891
 20
145.6764203447365276
 30
0.0
 11
124.9089253878420891
 21
142.6764203447364991
 31
0.0
  0
LINE
  5
8A
100
AcDbEntity
100
AcDbLine
  8
PARAMS
 62
7
370
-1
  6
ByLayer
 10
111.4089253878424302
 20
127.6764203447364991
 30
0.0
 11
111.4089253878424302
 21
124.6764203447364565
 31
0.0
  0
LINE
  5
8B
100
AcDbEntity
100
AcDbLine
  8
PARAMS
 62
7
370
-1
  6
ByLayer
 10
160.9089253878421744
 20
57.1764203447364565
 30
0.0
 11
142.9089253878423449
 21
57.1764203447364565
 31
0.0
  0
LINE
  5
8C
100
AcDbEntity
100
AcDbLine
  8
PARAMS
 62
7
370
-1
  6
ByLayer
 10
129.4089253878422596
 20
87.1764203447364565
 30
0.0
 11
111.4089253878424302
 21
87.1764203447364565
 31
0.0
  0
LINE
  5
8D
100
AcDbEntity
100
AcDbLine
  8
PARAMS
 62
7
370
-1
  6
ByLayer
 10
157.9089253878423449
 20
109.6764203447364565
 30
0.0
 11
139.9089253878420891
 21
109.6764203447364565
 31
0.0
  0
LINE
  5
8E
100
AcDbEntity
100
AcDbLine
  8
PARAMS
 62
7
370
-1
  6
ByLayer
 10
171.4089253878424302
 20
139.6764203447364707
 30
0.0
 11
153.4089253878421744
 21
139.6764203447364707
 31
0.0
  0
LINE
  5
8F
100
AcDbEntity
100
AcDbLine
  8
PARAMS
 62
7
370
-1
  6
ByLayer
 10
171.4089253878424302
 20
72.1764203447364565
 30
0.0
 11
153.4089253878421744
 21
72.1764203447364565
 31
0.0
  0
LINE
  5
90
100
AcDbEntity
100
AcDbLine
  8
PARAMS
 62
7
370
-1
  6
ByLayer
 10
184.9089253878420891
 20
106.6764203447364139
 30
0.0
 11
166.9089253878422596
 21
106.6764203447364139
 31
0.0
  0
LINE
  5
91
100
AcDbEntity
100
AcDbLine
  8
PARAMS
 62
7
370
-1
  6
ByLayer
 10
171.4089253878424302
 20
97.6764203447364991
 30
0.0
 11
153.4089253878421744
 21
97.6764203447364991
 31
0.0
  0
LINE
  5
92
100
AcDbEntity
100
AcDbLine
  8
PARAMS
 62
7
370
-1
  6
ByLayer
 10
171.4089253878424302
 20
84.1764203447364139
 30
0.0
 11
153.4089253878421744
 21
84.1764203447364139
 31
0.0
  0
LINE
  5
93
100
AcDbEntity
100
AcDbLine
  8
PARAMS
 62
7
370
-1
  6
ByLayer
 10
171.4089253878424302
 20
124.6764203447364565
 30
0.0
 11
153.4089253878421744
 21
124.6764203447364565
 31
0.0
  0
LINE
  5
94
100
AcDbEntity
100
AcDbLine
  8
PARAMS
 62
7
370
-1
  6
ByLayer
 10
171.4089253878424302
 20
163.6764203447365844
 30
0.0
 11
153.4089253878421744
 21
163.6764203447365844
 31
0.0
  0
LINE
  5
95
100
AcDbEntity
100
AcDbLine
  8
PARAMS
 62
7
370
-1
  6
ByLayer
 10
157.9089253878423449
 20
148.6764203447365844
 30
0.0
 11
139.9089253878420891
 21
148.6764203447365844
 31
0.0
  0
LINE
  5
96
100
AcDbEntity
100
AcDbLine
  8
PARAMS
 62
7
370
-1
  6
ByLayer
 10
205.9089253878421744
 20
75.1764203447364991
 30
0.0
 11
187.9089253878423449
 21
75.1764203447364991
 31
0.0
  0
LINE
  5
97
100
AcDbEntity
100
AcDbLine
  8
PARAMS
 62
7
370
-1
  6
ByLayer
 10
124.9089253878420891
 20
142.6764203447364991
 30
0.0
 11
106.9089253878422596
 21
142.6764203447364991
 31
0.0
  0
LINE
  5
98
100
AcDbEntity
100
AcDbLine
  8
PARAMS
 62
7
370
-1
  6
ByLayer
 10
111.4089253878424302
 20
124.6764203447364565
 30
0.0
 11
93.4089253878421744
 21
124.6764203447364565
 31
0.0
  0
MTEXT
  5
99
100
AcDbEntity
100
AcDbMText
  8
STANDARD
 62
7
370
-1
  6
ByLayer
 10
94.9089253878420891
 20
60.1764203447364991
 30
0.0
 40
3.0
 41
1500.0
 71
5
 72
2
  1
pid.0
  7
romand
 50
0.0
 73
1
 44
1.0
  0
LWPOLYLINE
  5
9A
  8
STANDARD
 62
7
370
-1
  6
ByLayer
100
AcDbEntity
100
AcDbPolyline
 90
5
 70
1
 10
159.4089253878422596
 20
60.1764203447364991
 10
159.4089253878422596
 20
69.1764203447364139
 10
168.4089253878421744
 20
69.1764203447364139
 10
168.4089253878421744
 20
60.1764203447364991
 10
159.4089253878422596
 20
60.1764203447364991
  0
LWPOLYLINE
  5
9B
  8
STANDARD
 62
7
370
-1
  6
ByLayer
100
AcDbEntity
100
AcDbPolyline
 90
5
 70
1
 10
127.9089253878423449
 20
75.1764203447364991
 10
127.9089253878423449
 20
84.1764203447364139
 10
136.9089253878422596
 20
84.1764203447364139
 10
136.9089253878422596
 20
75.1764203447364991
 10
127.9089253878423449
 20
75.1764203447364991
  0
LWPOLYLINE
  5
9C
  8
STANDARD
 62
7
370
-1
  6
ByLayer
100
AcDbEntity
100
AcDbPolyline
 90
5
 70
1
 10
156.4089253878424302
 20
112.6764203447364991
 10
156.4089253878424302
 20
121.6764203447364139
 10
165.4089253878423449
 20
121.6764203447364139
 10
165.4089253878423449
 20
112.6764203447364991
 10
156.4089253878424302
 20
112.6764203447364991
  0
LWPOLYLINE
  5
9D
  8
STANDARD
 62
7
370
-1
  6
ByLayer
100
AcDbEntity
100
AcDbPolyline
 90
5
 70
1
 10
156.4089253878424302
 20
151.6764203447364139
 10
156.4089253878424302
 20
160.6764203447365276
 10
165.4089253878423449
 20
160.6764203447365276
 10
165.4089253878423449
 20
151.6764203447364139
 10
156.4089253878424302
 20
151.6764203447364139
  0
LWPOLYLINE
  5
9E
  8
STANDARD
 62
7
370
-1
  6
ByLayer
100
AcDbEntity
100
AcDbPolyline
 90
5
 70
1
 10
204.4089253878422596
 20
103.6764203447363712
 10
204.4089253878422596
 20
112.6764203447364991
 10
213.4089253878421744
 20
112.6764203447364991
 10
213.4089253878421744
 20
103.6764203447363712
 10
204.4089253878422596
 20
103.6764203447363712
  0
LWPOLYLINE
  5
9F
  8
STANDARD
 62
7
370
-1
  6
ByLayer
100
AcDbEntity
100
AcDbPolyline
 90
5
 70
1
 10
123.4089253878421744
 20
130.6764203447365276
 10
123.4089253878421744
 20
139.6764203447364707
 10
132.4089253878420891
 20
139.6764203447364707
 10
132.4089253878420891
 20
130.6764203447365276
 10
123.4089253878421744
 20
130.6764203447365276
  0
LWPOLYLINE
  5
A0
  8
STANDARD
 62
7
370
-1
  6
ByLayer
100
AcDbEntity
100
AcDbPolyline
 90
5
 70
1
 10
109.9089253878420891
 20
130.6764203447365276
 10
109.9089253878420891
 20
139.6764203447364707
 10
118.9089253878424302
 20
139.6764203447364707
 10
118.9089253878424302
 20
130.6764203447365276
 10
109.9089253878420891
 20
130.6764203447365276
  0
LINE
  5
A1
100
AcDbEntity
100
AcDbLine
  8
STANDARD
 62
7
370
-1
  6
CONTINUOUS
 10
159.4089253878422596
 20
64.6764203447364565
 30
0.0
 11
168.4089253878421744
 21
64.6764203447364565
 31
0.0
  0
LINE
  5
A2
100
AcDbEntity
100
AcDbLine
  8
STANDARD
 62
7
370
-1
  6
CONTINUOUS
 10
127.9089253878423449
 20
79.6764203447364565
 30
0.0
 11
136.9089253878422596
 21
79.6764203447364565
 31
0.0
  0
LINE
  5
A3
100
AcDbEntity
100
AcDbLine
  8
STANDARD
 62
7
370
-1
  6
CONTINUOUS
 10
156.4089253878424302
 20
117.1764203447364565
 30
0.0
 11
165.4089253878423449
 21
117.1764203447364565
 31
0.0
  0
LINE
  5
A4
100
AcDbEntity
100
AcDbLine
  8
STANDARD
 62
7
370
-1
  6
CONTINUOUS
 10
156.4089253878424302
 20
156.1764203447365844
 30
0.0
 11
165.4089253878423449
 21
156.1764203447365844
 31
0.0
  0
LINE
  5
A5
100
AcDbEntity
100
AcDbLine
  8
STANDARD
 62
7
370
-1
  6
CONTINUOUS
 10
204.4089253878422596
 20
108.1764203447365418
 30
0.0
 11
213.4089253878421744
 21
108.1764203447365418
 31
0.0
  0
LINE
  5
A6
100
AcDbEntity
100
AcDbLine
  8
STANDARD
 62
7
370
-1
  6
CONTINUOUS
 10
123.4089253878421744
 20
135.1764203447364991
 30
0.0
 11
132.4089253878420891
 21
135.1764203447364991
 31
0.0
  0
LINE
  5
A7
100
AcDbEntity
100
AcDbLine
  8
STANDARD
 62
7
370
-1
  6
CONTINUOUS
 10
109.9089253878420891
 20
135.1764203447364991
 30
0.0
 11
118.9089253878424302
 21
135.1764203447364991
 31
0.0
  0
LINE
  5
A8
100
AcDbEntity
100
AcDbLine
  8
STANDARD
 62
7
370
-1
  6
CONTINUOUS
 10
163.9089253878424302
 20
69.1764203447364139
 30
0.0
 11
163.9089253878424302
 21
60.1764203447364991
 31
0.0
  0
LINE
  5
A9
100
AcDbEntity
100
AcDbLine
  8
STANDARD
 62
7
370
-1
  6
CONTINUOUS
 10
132.4089253878420891
 20
84.1764203447364139
 30
0.0
 11
132.4089253878420891
 21
75.1764203447364991
 31
0.0
  0
LINE
  5
AA
100
AcDbEntity
100
AcDbLine
  8
STANDARD
 62
7
370
-1
  6
CONTINUOUS
 10
160.9089253878421744
 20
121.6764203447364139
 30
0.0
 11
160.9089253878421744
 21
112.6764203447364991
 31
0.0
  0
LINE
  5
AB
100
AcDbEntity
100
AcDbLine
  8
STANDARD
 62
7
370
-1
  6
CONTINUOUS
 10
160.9089253878421744
 20
160.6764203447365276
 30
0.0
 11
160.9089253878421744
 21
151.6764203447364139
 31
0.0
  0
LINE
  5
AC
100
AcDbEntity
100
AcDbLine
  8
STANDARD
 62
7
370
-1
  6
CONTINUOUS
 10
208.9089253878424302
 20
112.6764203447364991
 30
0.0
 11
208.9089253878424302
 21
103.6764203447363712
 31
0.0
  0
LINE
  5
AD
100
AcDbEntity
100
AcDbLine
  8
STANDARD
 62
7
370
-1
  6
CONTINUOUS
 10
127.9089253878423449
 20
139.6764203447364707
 30
0.0
 11
127.9089253878423449
 21
130.6764203447365276
 31
0.0
  0
LINE
  5
AE
100
AcDbEntity
100
AcDbLine
  8
STANDARD
 62
7
370
-1
  6
CONTINUOUS
 10
114.4089253878422596
 20
139.6764203447364707
 30
0.0
 11
114.4089253878422596
 21
130.6764203447365276
 31
0.0
  0
LINE
  5
AF
100
AcDbEntity
100
AcDbLine
  8
STANDARD
 62
7
370
-1
  6
ByLayer
 10
109.9089253878420891
 20
130.6764203447365276
 30
0.0
 11
112.9089253878423449
 21
133.6764203447365844
 31
0.0
  0
LINE
  5
B0
100
AcDbEntity
100
AcDbLine
  8
STANDARD
 62
7
370
-1
  6
ByLayer
 10
112.9089253878423449
 20
133.6764203447365844
 30
0.0
 11
112.9089253878423449
 21
135.1764203447364991
 31
0.0
  0
LINE
  5
B1
100
AcDbEntity
100
AcDbLine
  8
STANDARD
 62
7
370
-1
  6
ByLayer
 10
112.9089253878423449
 20
135.1764203447364991
 30
0.0
 11
115.9089253878421744
 21
135.1764203447364991
 31
0.0
  0
LINE
  5
B2
100
AcDbEntity
100
AcDbLine
  8
STANDARD
 62
7
370
-1
  6
ByLayer
 10
115.9089253878421744
 20
135.1764203447364991
 30
0.0
 11
115.9089253878421744
 21
136.6764203447364139
 31
0.0
  0
LINE
  5
B3
100
AcDbEntity
100
AcDbLine
  8
STANDARD
 62
7
370
-1
  6
ByLayer
 10
115.9089253878421744
 20
136.6764203447364139
 30
0.0
 11
118.9089253878424302
 21
139.6764203447364707
 31
0.0
  0
LINE
  5
B4
100
AcDbEntity
100
AcDbLine
  8
STANDARD
 62
7
370
-1
  6
ByLayer
 10
159.4089253878422596
 20
61.6764203447364139
 30
0.0
 11
160.9089253878421744
 21
61.6764203447364139
 31
0.0
  0
LINE
  5
B5
100
AcDbEntity
100
AcDbLine
  8
STANDARD
 62
7
370
-1
  6
ByLayer
 10
127.9089253878423449
 20
76.6764203447364139
 30
0.0
 11
129.4089253878422596
 21
76.6764203447364139
 31
0.0
  0
LINE
  5
B6
100
AcDbEntity
100
AcDbLine
  8
STANDARD
 62
7
370
-1
  6
ByLayer
 10
156.4089253878424302
 20
114.1764203447364139
 30
0.0
 11
157.9089253878423449
 21
114.1764203447364139
 31
0.0
  0
LINE
  5
B7
100
AcDbEntity
100
AcDbLine
  8
STANDARD
 62
7
370
-1
  6
ByLayer
 10
156.4089253878424302
 20
153.1764203447365276
 30
0.0
 11
157.9089253878423449
 21
153.1764203447365276
 31
0.0
  0
LINE
  5
B8
100
AcDbEntity
100
AcDbLine
  8
STANDARD
 62
7
370
-1
  6
ByLayer
 10
204.4089253878422596
 20
105.1764203447364991
 30
0.0
 11
205.9089253878421744
 21
105.1764203447364991
 31
0.0
  0
LINE
  5
B9
100
AcDbEntity
100
AcDbLine
  8
STANDARD
 62
7
370
-1
  6
ByLayer
 10
123.4089253878421744
 20
132.1764203447364707
 30
0.0
 11
124.9089253878420891
 21
132.1764203447364707
 31
0.0
  0
LINE
  5
BA
100
AcDbEntity
100
AcDbLine
  8
STANDARD
 62
7
370
-1
  6
ByLayer
 10
160.9089253878421744
 20
61.6764203447364139
 30
0.0
 11
166.9089253878422596
 21
67.6764203447364991
 31
0.0
  0
LINE
  5
BB
100
AcDbEntity
100
AcDbLine
  8
STANDARD
 62
7
370
-1
  6
ByLayer
 10
129.4089253878422596
 20
76.6764203447364139
 30
0.0
 11
135.4089253878423449
 21
82.6764203447364991
 31
0.0
  0
LINE
  5
BC
100
AcDbEntity
100
AcDbLine
  8
STANDARD
 62
7
370
-1
  6
ByLayer
 10
157.9089253878423449
 20
114.1764203447364139
 30
0.0
 11
163.9089253878424302
 21
120.1764203447364991
 31
0.0
  0
LINE
  5
BD
100
AcDbEntity
100
AcDbLine
  8
STANDARD
 62
7
370
-1
  6
ByLayer
 10
157.9089253878423449
 20
153.1764203447365276
 30
0.0
 11
163.9089253878424302
 21
159.1764203447364139
 31
0.0
  0
LINE
  5
BE
100
AcDbEntity
100
AcDbLine
  8
STANDARD
 62
7
370
-1
  6
ByLayer
 10
205.9089253878421744
 20
105.1764203447364991
 30
0.0
 11
211.9089253878422596
 21
111.1764203447363712
 31
0.0
  0
LINE
  5
BF
100
AcDbEntity
100
AcDbLine
  8
STANDARD
 62
7
370
-1
  6
ByLayer
 10
124.9089253878420891
 20
132.1764203447364707
 30
0.0
 11
130.9089253878421744
 21
138.1764203447365276
 31
0.0
  0
LINE
  5
C0
100
AcDbEntity
100
AcDbLine
  8
STANDARD
 62
7
370
-1
  6
ByLayer
 10
166.9089253878422596
 20
67.6764203447364991
 30
0.0
 11
168.4089253878421744
 21
67.6764203447364991
 31
0.0
  0
LINE
  5
C1
100
AcDbEntity
100
AcDbLine
  8
STANDARD
 62
7
370
-1
  6
ByLayer
 10
135.4089253878423449
 20
82.6764203447364991
 30
0.0
 11
136.9089253878422596
 21
82.6764203447364991
 31
0.0
  0
LINE
  5
C2
100
AcDbEntity
100
AcDbLine
  8
STANDARD
 62
7
370
-1
  6
ByLayer
 10
163.9089253878424302
 20
120.1764203447364991
 30
0.0
 11
165.4089253878423449
 21
120.1764203447364991
 31
0.0
  0
LINE
  5
C3
100
AcDbEntity
100
AcDbLine
  8
STANDARD
 62
7
370
-1
  6
ByLayer
 10
163.9089253878424302
 20
159.1764203447364139
 30
0.0
 11
165.4089253878423449
 21
159.1764203447364139
 31
0.0
  0
LINE
  5
C4
100
AcDbEntity
100
AcDbLine
  8
STANDARD
 62
7
370
-1
  6
ByLayer
 10
211.9089253878422596
 20
111.1764203447363712
 30
0.0
 11
213.4089253878421744
 21
111.1764203447363712
 31
0.0
  0
LINE
  5
C5
100
AcDbEntity
100
AcDbLine
  8
STANDARD
 62
7
370
-1
  6
ByLayer
 10
130.9089253878421744
 20
138.1764203447365276
 30
0.0
 11
132.4089253878420891
 21
138.1764203447365276
 31
0.0
  0
CIRCLE
  5
C6
100
AcDbEntity
100
AcDbCircle
  8
STANDARD
 62
7
370
-1
  6
ByLayer
 10
88.9089253878424302
 20
135.1764203447364991
 30
0.0
 40
3.0
  0
CIRCLE
  5
C7
100
AcDbEntity
100
AcDbCircle
  8
STANDARD
 62
7
370
-1
  6
ByLayer
 10
183.4089253878421744
 20
79.6764203447364565
 30
0.0
 40
3.0
  0
CIRCLE
  5
C8
100
AcDbEntity
100
AcDbCircle
  8
STANDARD
 62
7
370
-1
  6
ByLayer
 10
193.9089253878424302
 20
108.1764203447365418
 30
0.0
 40
3.0
  0
CIRCLE
  5
C9
100
AcDbEntity
100
AcDbCircle
  8
STANDARD
 62
7
370
-1
  6
ByLayer
 10
183.4089253878421744
 20
135.1764203447364991
 30
0.0
 40
3.0
  0
LINE
  5
CA
100
AcDbEntity
100
AcDbLine
  8
STANDARD
 62
7
370
-1
  6
ByLayer
 10
88.9089253878424302
 20
135.1764203447364991
 30
0.0
 11
91.0302403878421273
 21
137.2977353447363953
 31
0.0
  0
LINE
  5
CB
100
AcDbEntity
100
AcDbLine
  8
STANDARD
 62
7
370
-1
  6
ByLayer
 10
183.4089253878421744
 20
79.6764203447364565
 30
0.0
 11
185.5302403878422979
 21
81.7977353447363669
 31
0.0
  0
LINE
  5
CC
100
AcDbEntity
100
AcDbLine
  8
STANDARD
 62
7
370
-1
  6
ByLayer
 10
193.9089253878424302
 20
108.1764203447365418
 30
0.0
 11
196.0302403878421273
 21
110.2977353447364521
 31
0.0
  0
LINE
  5
CD
100
AcDbEntity
100
AcDbLine
  8
STANDARD
 62
7
370
-1
  6
ByLayer
 10
183.4089253878421744
 20
135.1764203447364991
 30
0.0
 11
185.5302403878422979
 21
137.2977353447363953
 31
0.0
  0
LINE
  5
CE
100
AcDbEntity
100
AcDbLine
  8
STANDARD
 62
7
370
-1
  6
ByLayer
 10
88.9089253878424302
 20
135.1764203447364991
 30
0.0
 11
86.7876103878423066
 21
137.2977353447363953
 31
0.0
  0
LINE
  5
CF
100
AcDbEntity
100
AcDbLine
  8
STANDARD
 62
7
370
-1
  6
ByLayer
 10
183.4089253878421744
 20
79.6764203447364565
 30
0.0
 11
181.2876103878420508
 21
81.7977353447363669
 31
0.0
  0
LINE
  5
D0
100
AcDbEntity
100
AcDbLine
  8
STANDARD
 62
7
370
-1
  6
ByLayer
 10
193.9089253878424302
 20
108.1764203447365418
 30
0.0
 11
191.7876103878423066
 21
110.2977353447364521
 31
0.0
  0
LINE
  5
D1
100
AcDbEntity
100
AcDbLine
  8
STANDARD
 62
7
370
-1
  6
ByLayer
 10
183.4089253878421744
 20
135.1764203447364991
 30
0.0
 11
181.2876103878420508
 21
137.2977353447363953
 31
0.0
  0
LINE
  5
D2
100
AcDbEntity
100
AcDbLine
  8
STANDARD
 62
7
370
-1
  6
ByLayer
 10
88.9089253878424302
 20
135.1764203447364991
 30
0.0
 11
86.7876103878423066
 21
133.0551053447363756
 31
0.0
  0
LINE
  5
D3
100
AcDbEntity
100
AcDbLine
  8
STANDARD
 62
7
370
-1
  6
ByLayer
 10
183.4089253878421744
 20
79.6764203447364565
 30
0.0
 11
181.2876103878420508
 21
77.5551053447365462
 31
0.0
  0
LINE
  5
D4
100
AcDbEntity
100
AcDbLine
  8
STANDARD
 62
7
370
-1
  6
ByLayer
 10
193.9089253878424302
 20
108.1764203447365418
 30
0.0
 11
191.7876103878423066
 21
106.0551053447364183
 31
0.0
  0
LINE
  5
D5
100
AcDbEntity
100
AcDbLine
  8
STANDARD
 62
7
370
-1
  6
ByLayer
 10
183.4089253878421744
 20
135.1764203447364991
 30
0.0
 11
181.2876103878420508
 21
133.0551053447363756
 31
0.0
  0
LINE
  5
D6
100
AcDbEntity
100
AcDbLine
  8
STANDARD
 62
7
370
-1
  6
ByLayer
 10
88.9089253878424302
 20
135.1764203447364991
 30
0.0
 11
91.0302403878421273
 21
133.0551053447363756
 31
0.0
  0
LINE
  5
D7
100
AcDbEntity
100
AcDbLine
  8
STANDARD
 62
7
370
-1
  6
ByLayer
 10
183.4089253878421744
 20
79.6764203447364565
 30
0.0
 11
185.5302403878422979
 21
77.5551053447365462
 31
0.0
  0
LINE
  5
D8
100
AcDbEntity
100
AcDbLine
  8
STANDARD
 62
7
370
-1
  6
ByLayer
 10
193.9089253878424302
 20
108.1764203447365418
 30
0.0
 11
196.0302403878421273
 21
106.0551053447364183
 31
0.0
  0
LINE
  5
D9
100
AcDbEntity
100
AcDbLine
  8
STANDARD
 62
7
370
-1
  6
ByLayer
 10
183.4089253878421744
 20
135.1764203447364991
 30
0.0
 11
185.5302403878422979
 21
133.0551053447363756
 31
0.0
  0
LINE
  5
DA
100
AcDbEntity
100
AcDbLine
  8
STANDARD
 62
7
370
-1
  6
ByLayer
 10
88.1589253878422596
 20
136.9764203447365674
 30
0.0
 11
89.6589253878421744
 21
136.9764203447365674
 31
0.0
  0
LINE
  5
DB
100
AcDbEntity
100
AcDbLine
  8
STANDARD
 62
7
370
-1
  6
ByLayer
 10
182.6589253878424302
 20
81.4764203447365247
 30
0.0
 11
184.1589253878423449
 21
81.4764203447365247
 31
0.0
  0
LINE
  5
DC
100
AcDbEntity
100
AcDbLine
  8
STANDARD
 62
7
370
-1
  6
ByLayer
 10
193.1589253878422596
 20
109.9764203447363968
 30
0.0
 11
194.6589253878421744
 21
109.9764203447363968
 31
0.0
  0
LINE
  5
DD
100
AcDbEntity
100
AcDbLine
  8
STANDARD
 62
7
370
-1
  6
ByLayer
 10
182.6589253878424302
 20
136.9764203447365674
 30
0.0
 11
184.1589253878423449
 21
136.9764203447365674
 31
0.0
  0
LINE
  5
DE
100
AcDbEntity
100
AcDbLine
  8
STANDARD
 62
7
370
-1
  6
ByLayer
 10
183.4089253878421744
 20
82.2264203447364821
 30
0.0
 11
183.4089253878421744
 21
80.7264203447365674
 31
0.0
  0
LINE
  5
DF
100
AcDbEntity
100
AcDbLine
  8
STANDARD
 62
7
370
-1
  6
ByLayer
 10
193.9089253878424302
 20
110.7264203447365674
 30
0.0
 11
193.9089253878424302
 21
109.2264203447364395
 31
0.0
  0
LINE
  5
E0
100
AcDbEntity
100
AcDbLine
  8
STANDARD
 62
7
370
-1
  6
ByLayer
 10
183.4089253878421744
 20
137.7264203447365389
 30
0.0
 11
183.4089253878421744
 21
136.2264203447363968
 31
0.0
  0
LINE
  5
E1
100
AcDbEntity
100
AcDbLine
  8
STANDARD
 62
7
370
-1
  6
ByLayer
 10
180.8589253878423619
 20
79.6764203447364565
 30
0.0
 11
182.3589253878422767
 21
79.6764203447364565
 31
0.0
  0
LINE
  5
E2
100
AcDbEntity
100
AcDbLine
  8
STANDARD
 62
7
370
-1
  6
ByLayer
 10
191.3589253878421914
 20
108.1764203447365418
 30
0.0
 11
192.8589253878421061
 21
108.1764203447365418
 31
0.0
  0
LINE
  5
E3
100
AcDbEntity
100
AcDbLine
  8
STANDARD
 62
7
370
-1
  6
ByLayer
 10
180.8589253878423619
 20
135.1764203447364991
 30
0.0
 11
182.3589253878422767
 21
135.1764203447364991
 31
0.0
  0
LINE
  5
E4
100
AcDbEntity
100
AcDbLine
  8
STANDARD
 62
7
370
-1
  6
ByLayer
 10
181.6089253878421061
 20
80.4264203447364139
 30
0.0
 11
181.6089253878421061
 21
78.9264203447364991
 31
0.0
  0
LINE
  5
E5
100
AcDbEntity
100
AcDbLine
  8
STANDARD
 62
7
370
-1
  6
ByLayer
 10
192.1089253878423619
 20
108.9264203447364991
 30
0.0
 11
192.1089253878423619
 21
107.4264203447363712
 31
0.0
  0
LINE
  5
E6
100
AcDbEntity
100
AcDbLine
  8
STANDARD
 62
7
370
-1
  6
ByLayer
 10
181.6089253878421061
 20
135.9264203447364707
 30
0.0
 11
181.6089253878421061
 21
134.4264203447365276
 31
0.0
  0
LINE
  5
E7
100
AcDbEntity
100
AcDbLine
  8
STANDARD
 62
7
370
-1
  6
ByLayer
 10
88.9089253878424302
 20
134.1264203447366015
 30
0.0
 11
88.9089253878424302
 21
132.6264203447364594
 31
0.0
  0
LINE
  5
E8
100
AcDbEntity
100
AcDbLine
  8
STANDARD
 62
7
370
-1
  6
ByLayer
 10
183.4089253878421744
 20
78.6264203447365588
 30
0.0
 11
183.4089253878421744
 21
77.1264203447364309
 31
0.0
  0
LINE
  5
E9
100
AcDbEntity
100
AcDbLine
  8
STANDARD
 62
7
370
-1
  6
ByLayer
 10
193.9089253878424302
 20
107.1264203447364309
 30
0.0
 11
193.9089253878424302
 21
105.6264203447365162
 31
0.0
  0
LINE
  5
EA
100
AcDbEntity
100
AcDbLine
  8
STANDARD
 62
7
370
-1
  6
ByLayer
 10
183.4089253878421744
 20
134.1264203447366015
 30
0.0
 11
183.4089253878421744
 21
132.6264203447364594
 31
0.0
  0
LINE
  5
EB
100
AcDbEntity
100
AcDbLine
  8
STANDARD
 62
7
370
-1
  6
ByLayer
 10
88.1589253878422596
 20
133.3764203447364309
 30
0.0
 11
89.6589253878421744
 21
133.3764203447364309
 31
0.0
  0
LINE
  5
EC
100
AcDbEntity
100
AcDbLine
  8
STANDARD
 62
7
370
-1
  6
ByLayer
 10
182.6589253878424302
 20
77.8764203447366015
 30
0.0
 11
184.1589253878423449
 21
77.8764203447366015
 31
0.0
  0
LINE
  5
ED
100
AcDbEntity
100
AcDbLine
  8
STANDARD
 62
7
370
-1
  6
ByLayer
 10
193.1589253878422596
 20
106.3764203447364736
 30
0.0
 11
194.6589253878421744
 21
106.3764203447364736
 31
0.0
  0
LINE
  5
EE
100
AcDbEntity
100
AcDbLine
  8
STANDARD
 62
7
370
-1
  6
ByLayer
 10
182.6589253878424302
 20
133.3764203447364309
 30
0.0
 11
184.1589253878423449
 21
133.3764203447364309
 31
0.0
  0
LWPOLYLINE
  5
EF
  8
STANDARD
 62
7
370
-1
  6
ByLayer
100
AcDbEntity
100
AcDbPolyline
 90
7
 70
1
 10
144.4089253878422596
 20
60.1764203447364991
 10
144.4089253878422596
 20
69.1764203447364139
 10
153.4089253878421744
 20
69.1764203447364139
 10
154.9089253878420891
 20
64.6764203447364565
 10
153.4089253878421744
 20
60.1764203447364991
 10
144.4089253878422596
 20
60.1764203447364991
 10
144.4089253878422596
 20
60.1764203447364991
  0
LWPOLYLINE
  5
F0
  8
STANDARD
 62
7
370
-1
  6
ByLayer
100
AcDbEntity
100
AcDbPolyline
 90
7
 70
1
 10
112.9089253878423449
 20
75.1764203447364991
 10
112.9089253878423449
 20
84.1764203447364139
 10
121.9089253878422596
 20
84.1764203447364139
 10
123.4089253878421744
 20
79.6764203447364565
 10
121.9089253878422596
 20
75.1764203447364991
 10
112.9089253878423449
 20
75.1764203447364991
 10
112.9089253878423449
 20
75.1764203447364991
  0
LWPOLYLINE
  5
F1
  8
STANDARD
 62
7
370
-1
  6
ByLayer
100
AcDbEntity
100
AcDbPolyline
 90
7
 70
1
 10
141.4089253878424302
 20
112.6764203447364991
 10
141.4089253878424302
 20
121.6764203447364139
 10
150.4089253878423449
 20
121.6764203447364139
 10
151.9089253878422596
 20
117.1764203447364565
 10
150.4089253878423449
 20
112.6764203447364991
 10
141.4089253878424302
 20
112.6764203447364991
 10
141.4089253878424302
 20
112.6764203447364991
  0
LWPOLYLINE
  5
F2
  8
STANDARD
 62
7
370
-1
  6
ByLayer
100
AcDbEntity
100
AcDbPolyline
 90
7
 70
1
 10
141.4089253878424302
 20
151.6764203447364139
 10
141.4089253878424302
 20
160.6764203447365276
 10
150.4089253878423449
 20
160.6764203447365276
 10
151.9089253878422596
 20
156.1764203447365844
 10
150.4089253878423449
 20
151.6764203447364139
 10
141.4089253878424302
 20
151.6764203447364139
 10
141.4089253878424302
 20
151.6764203447364139
  0
MTEXT
  5
F3
100
AcDbEntity
100
AcDbMText
  8
STANDARD
 62
7
370
-1
  6
ByLayer
 10
148.9089253878424302
 20
66.1764203447363712
 30
0.0
 40
1.875
 41
1500.0
 71
5
 72
2
  1
d
  7
romand
 50
0.0
 73
1
 44
1.0
  0
MTEXT
  5
F4
100
AcDbEntity
100
AcDbMText
  8
STANDARD
 62
7
370
-1
  6
ByLayer
 10
117.4089253878420891
 20
81.1764203447365844
 30
0.0
 40
1.875
 41
1500.0
 71
5
 72
2
  1
d
  7
romand
 50
0.0
 73
1
 44
1.0
  0
MTEXT
  5
F5
100
AcDbEntity
100
AcDbMText
  8
STANDARD
 62
7
370
-1
  6
ByLayer
 10
145.9089253878421744
 20
118.6764203447365844
 30
0.0
 40
1.875
 41
1500.0
 71
5
 72
2
  1
d
  7
romand
 50
0.0
 73
1
 44
1.0
  0
MTEXT
  5
F6
100
AcDbEntity
100
AcDbMText
  8
STANDARD
 62
7
370
-1
  6
ByLayer
 10
148.9089253878424302
 20
63.1764203447365418
 30
0.0
 40
1.875
 41
1500.0
 71
5
 72
2
  1
dT
  7
romand
 50
0.0
 73
1
 44
1.0
  0
MTEXT
  5
F7
100
AcDbEntity
100
AcDbMText
  8
STANDARD
 62
7
370
-1
  6
ByLayer
 10
117.4089253878420891
 20
78.1764203447365418
 30
0.0
 40
1.875
 41
1500.0
 71
5
 72
2
  1
dT
  7
romand
 50
0.0
 73
1
 44
1.0
  0
MTEXT
  5
F8
100
AcDbEntity
100
AcDbMText
  8
STANDARD
 62
7
370
-1
  6
ByLayer
 10
145.9089253878421744
 20
115.6764203447365418
 30
0.0
 40
1.875
 41
1500.0
 71
5
 72
2
  1
dT
  7
romand
 50
0.0
 73
1
 44
1.0
  0
LINE
  5
F9
100
AcDbEntity
100
AcDbLine
  8
STANDARD
 62
7
370
-1
  6
ByLayer
 10
147.4089253878420891
 20
64.6764203447364565
 30
0.0
 11
150.4089253878423449
 21
64.6764203447364565
 31
0.0
  0
LINE
  5
FA
100
AcDbEntity
100
AcDbLine
  8
STANDARD
 62
7
370
-1
  6
ByLayer
 10
115.9089253878421744
 20
79.6764203447364565
 30
0.0
 11
118.9089253878424302
 21
79.6764203447364565
 31
0.0
  0
LINE
  5
FB
100
AcDbEntity
100
AcDbLine
  8
STANDARD
 62
7
370
-1
  6
ByLayer
 10
144.4089253878422596
 20
117.1764203447364565
 30
0.0
 11
147.4089253878420891
 21
117.1764203447364565
 31
0.0
  0
LWPOLYLINE
  5
FC
  8
STANDARD
 62
7
370
-1
  6
ByLayer
100
AcDbEntity
100
AcDbPolyline
 90
25
 70
0
 10
147.4089253878420891
 20
159.1764203447364139
 10
147.2219203878422888
 20
159.1744703447364486
 10
147.0378253878423891
 20
159.1607903447364265
 10
146.8596103878421388
 20
159.123680344736556
 10
146.6901703878423291
 20
159.0514253447365149
 10
146.5324603878423204
 20
158.9322803447365686
 10
146.3893903878420133
 20
158.7545453447365844
 10
146.2639003878420851
 20
158.5065053447365528
 10
146.1589303878423607
 20
158.1764153447364833
 10
146.0759203878421886
 20
157.7584553447365749
 10
146.0104903878423954
 20
157.2701753447364297
 10
145.9567753878420149
 20
156.7350203447365402
 10
145.9089253878421744
 20
156.1764203447365844
 10
145.8610753878423338
 20
155.6178203447364012
 10
145.8073603878423796
 20
155.0826653447365402
 10
145.7419303878421601
 20
154.5943853447363949
 10
145.6589203878424144
 20
154.1764253447364581
 10
145.5539503878422636
 20
153.846335344736417
 10
145.4284603878423354
 20
153.5982953447365844
 10
145.2853903878420283
 20
153.4205603447364012
 10
145.1276803878420196
 20
153.3014153447364265
 10
144.9582403878422099
 20
153.2291603447363855
 10
144.780025387842386
 20
153.1920503447365149
 10
144.5959303878420599
 20
153.1783703447365212
 10
144.4089253878422596
 20
153.1764203447365276
  0
LINE
  5
FD
100
AcDbEntity
100
AcDbLine
  8
STANDARD
 62
7
370
-1
  6
ByLayer
 10
99.4089253878422596
 20
135.1764203447364991
 30
0.0
 11
99.4089253878422596
 21
156.1764203447365844
 31
0.0
  0
CIRCLE
  5
FE
100
AcDbEntity
100
AcDbCircle
  8
STANDARD
 62
7
370
-1
  6
ByLayer
 10
99.4089253878422596
 20
135.1764203447364991
 30
0.0
 40
0.3
  0
LINE
  5
FF
100
AcDbEntity
100
AcDbLine
  8
STANDARD
 62
7
370
-1
  6
ByLayer
 10
99.4089253878422596
 20
156.1764203447365844
 30
0.0
 11
82.9089253878423449
 21
156.1764203447365844
 31
0.0
  0
LWPOLYLINE
  5
100
  8
STANDARD
 62
7
370
-1
  6
ByLayer
100
AcDbEntity
100
AcDbPolyline
 90
4
 70
0
 10
82.9089253878423449
 20
156.1764203447365844
 10
84.1089253878421061
 20
155.90972034473657
 10
84.1089253878421061
 20
156.4431203447363998
 10
82.9089253878423449
 20
156.1764203447365844
  0
LINE
  5
101
100
AcDbEntity
100
AcDbLine
  8
STANDARD
 62
7
370
-1
  6
ByLayer
 10
99.4089253878422596
 20
135.1764203447364991
 30
0.0
 11
109.9089253878420891
 21
135.1764203447364991
 31
0.0
  0
LWPOLYLINE
  5
102
  8
STANDARD
 62
7
370
-1
  6
ByLayer
100
AcDbEntity
100
AcDbPolyline
 90
4
 70
0
 10
109.9089253878420891
 20
135.1764203447364991
 10
108.7089253878423278
 20
135.4431203447365419
 10
108.7089253878423278
 20
134.9097203447364564
 10
109.9089253878420891
 20
135.1764203447364991
  0
LINE
  5
103
100
AcDbEntity
100
AcDbLine
  8
STANDARD
 62
7
370
-1
  6
ByLayer
 10
88.9089253878424302
 20
132.1764203447364707
 30
0.0
 11
88.9089253878424302
 21
114.1764203447364139
 31
0.0
  0
LWPOLYLINE
  5
104
  8
STANDARD
 62
7
370
-1
  6
ByLayer
100
AcDbEntity
100
AcDbPolyline
 90
4
 70
0
 10
88.9089253878424302
 20
132.1764203447364707
 10
88.6422253878421884
 20
130.9764203447364821
 10
89.1756253878422456
 20
130.9764203447364821
 10
88.9089253878424302
 20
132.1764203447364707
  0
LINE
  5
105
100
AcDbEntity
100
AcDbLine
  8
STANDARD
 62
7
370
-1
  6
ByLayer
 10
111.4089253878424302
 20
126.1764203447365844
 30
0.0
 11
114.4089253878422596
 21
126.1764203447365844
 31
0.0
  0
LINE
  5
106
100
AcDbEntity
100
AcDbLine
  8
STANDARD
 62
7
370
-1
  6
ByLayer
 10
160.9089253878421744
 20
55.6764203447365418
 30
0.0
 11
163.9089253878424302
 21
55.6764203447365418
 31
0.0
  0
LINE
  5
107
100
AcDbEntity
100
AcDbLine
  8
STANDARD
 62
7
370
-1
  6
ByLayer
 10
129.4089253878422596
 20
88.6764203447365844
 30
0.0
 11
132.4089253878420891
 21
88.6764203447365844
 31
0.0
  0
LINE
  5
108
100
AcDbEntity
100
AcDbLine
  8
STANDARD
 62
7
370
-1
  6
ByLayer
 10
157.9089253878423449
 20
108.1764203447365418
 30
0.0
 11
160.9089253878421744
 21
108.1764203447365418
 31
0.0
  0
LINE
  5
109
100
AcDbEntity
100
AcDbLine
  8
STANDARD
 62
7
370
-1
  6
ByLayer
 10
171.4089253878424302
 20
141.1764203447365844
 30
0.0
 11
174.4089253878422596
 21
141.1764203447365844
 31
0.0
  0
LINE
  5
10A
100
AcDbEntity
100
AcDbLine
  8
STANDARD
 62
7
370
-1
  6
ByLayer
 10
171.4089253878424302
 20
73.6764203447365844
 30
0.0
 11
174.4089253878422596
 21
73.6764203447365844
 31
0.0
  0
LINE
  5
10B
100
AcDbEntity
100
AcDbLine
  8
STANDARD
 62
7
370
-1
  6
ByLayer
 10
171.4089253878424302
 20
99.1764203447364139
 30
0.0
 11
174.4089253878422596
 21
99.1764203447364139
 31
0.0
  0
LINE
  5
10C
100
AcDbEntity
100
AcDbLine
  8
STANDARD
 62
7
370
-1
  6
ByLayer
 10
171.4089253878424302
 20
85.6764203447365418
 30
0.0
 11
174.4089253878422596
 21
85.6764203447365418
 31
0.0
  0
LINE
  5
10D
100
AcDbEntity
100
AcDbLine
  8
STANDARD
 62
7
370
-1
  6
ByLayer
 10
171.4089253878424302
 20
126.1764203447365844
 30
0.0
 11
174.4089253878422596
 21
126.1764203447365844
 31
0.0
  0
LINE
  5
10E
100
AcDbEntity
100
AcDbLine
  8
STANDARD
 62
7
370
-1
  6
ByLayer
 10
171.4089253878424302
 20
165.1764203447364991
 30
0.0
 11
174.4089253878422596
 21
165.1764203447364991
 31
0.0
  0
LINE
  5
10F
100
AcDbEntity
100
AcDbLine
  8
STANDARD
 62
7
370
-1
  6
ByLayer
 10
157.9089253878423449
 20
147.1764203447364707
 30
0.0
 11
160.9089253878421744
 21
147.1764203447364707
 31
0.0
  0
LINE
  5
110
100
AcDbEntity
100
AcDbLine
  8
STANDARD
 62
7
370
-1
  6
ByLayer
 10
205.9089253878421744
 20
73.6764203447365844
 30
0.0
 11
208.9089253878424302
 21
73.6764203447365844
 31
0.0
  0
LINE
  5
111
100
AcDbEntity
100
AcDbLine
  8
STANDARD
 62
7
370
-1
  6
ByLayer
 10
124.9089253878420891
 20
144.1764203447364139
 30
0.0
 11
127.9089253878423449
 21
144.1764203447364139
 31
0.0
  0
LINE
  5
112
100
AcDbEntity
100
AcDbLine
  8
STANDARD
 62
7
370
-1
  6
ByLayer
 10
114.4089253878422596
 20
126.1764203447365844
 30
0.0
 11
114.4089253878422596
 21
130.6764203447365276
 31
0.0
  0
LWPOLYLINE
  5
113
  8
STANDARD
 62
7
370
-1
  6
ByLayer
100
AcDbEntity
100
AcDbPolyline
 90
4
 70
0
 10
114.4089253878422596
 20
130.6764203447365276
 10
114.1422253878424442
 20
129.4764203447365674
 10
114.675625387842075
 20
129.4764203447365674
 10
114.4089253878422596
 20
130.6764203447365276
  0
LINE
  5
114
100
AcDbEntity
100
AcDbLine
  8
STANDARD
 62
7
370
-1
  6
ByLayer
 10
163.9089253878424302
 20
55.6764203447365418
 30
0.0
 11
163.9089253878424302
 21
60.1764203447364991
 31
0.0
  0
LWPOLYLINE
  5
115
  8
STANDARD
 62
7
370
-1
  6
ByLayer
100
AcDbEntity
100
AcDbPolyline
 90
4
 70
0
 10
163.9089253878424302
 20
60.1764203447364991
 10
163.6422253878421884
 20
58.9764203447365247
 10
164.1756253878422456
 20
58.9764203447365247
 10
163.9089253878424302
 20
60.1764203447364991
  0
LINE
  5
116
100
AcDbEntity
100
AcDbLine
  8
STANDARD
 62
7
370
-1
  6
ByLayer
 10
132.4089253878420891
 20
88.6764203447365844
 30
0.0
 11
132.4089253878420891
 21
84.1764203447364139
 31
0.0
  0
LWPOLYLINE
  5
117
  8
STANDARD
 62
7
370
-1
  6
ByLayer
100
AcDbEntity
100
AcDbPolyline
 90
4
 70
0
 10
132.4089253878420891
 20
84.1764203447364139
 10
132.6756253878423308
 20
85.3764203447366015
 10
132.1422253878422737
 20
85.3764203447366015
 10
132.4089253878420891
 20
84.1764203447364139
  0
LINE
  5
118
100
AcDbEntity
100
AcDbLine
  8
STANDARD
 62
7
370
-1
  6
ByLayer
 10
160.9089253878421744
 20
108.1764203447365418
 30
0.0
 11
160.9089253878421744
 21
112.6764203447364991
 31
0.0
  0
LWPOLYLINE
  5
119
  8
STANDARD
 62
7
370
-1
  6
ByLayer
100
AcDbEntity
100
AcDbPolyline
 90
4
 70
0
 10
160.9089253878421744
 20
112.6764203447364991
 10
160.6422253878423589
 20
111.4764203447365247
 10
161.1756253878424161
 20
111.4764203447365247
 10
160.9089253878421744
 20
112.6764203447364991
  0
LINE
  5
11A
100
AcDbEntity
100
AcDbLine
  8
STANDARD
 62
7
370
-1
  6
ByLayer
 10
174.4089253878422596
 20
141.1764203447365844
 30
0.0
 11
174.4089253878422596
 21
137.4264203447365844
 31
0.0
  0
LWPOLYLINE
  5
11B
  8
STANDARD
 62
7
370
-1
  6
ByLayer
100
AcDbEntity
100
AcDbPolyline
 90
4
 70
0
 10
174.4089253878422596
 20
137.4264203447365844
 10
174.675625387842075
 20
138.6264203447363457
 10
174.1422253878424442
 20
138.6264203447363457
 10
174.4089253878422596
 20
137.4264203447365844
  0
LINE
  5
11C
100
AcDbEntity
100
AcDbLine
  8
STANDARD
 62
7
370
-1
  6
ByLayer
 10
174.4089253878422596
 20
73.6764203447365844
 30
0.0
 11
174.4089253878422596
 21
66.9264203447365418
 31
0.0
  0
LWPOLYLINE
  5
11D
  8
STANDARD
 62
7
370
-1
  6
ByLayer
100
AcDbEntity
100
AcDbPolyline
 90
4
 70
0
 10
174.4089253878422596
 20
66.9264203447365418
 10
174.675625387842075
 20
68.1264203447365162
 10
174.1422253878424442
 20
68.1264203447365162
 10
174.4089253878422596
 20
66.9264203447365418
  0
LINE
  5
11E
100
AcDbEntity
100
AcDbLine
  8
STANDARD
 62
7
370
-1
  6
ByLayer
 10
174.4089253878422596
 20
99.1764203447364139
 30
0.0
 11
174.4089253878422596
 21
95.4264203447364139
 31
0.0
  0
LWPOLYLINE
  5
11F
  8
STANDARD
 62
7
370
-1
  6
ByLayer
100
AcDbEntity
100
AcDbPolyline
 90
4
 70
0
 10
174.4089253878422596
 20
95.4264203447364139
 10
174.675625387842075
 20
96.6264203447363883
 10
174.1422253878424442
 20
96.6264203447363883
 10
174.4089253878422596
 20
95.4264203447364139
  0
LINE
  5
120
100
AcDbEntity
100
AcDbLine
  8
STANDARD
 62
7
370
-1
  6
ByLayer
 10
174.4089253878422596
 20
85.6764203447365418
 30
0.0
 11
174.4089253878422596
 21
81.9264203447365418
 31
0.0
  0
LWPOLYLINE
  5
121
  8
STANDARD
 62
7
370
-1
  6
ByLayer
100
AcDbEntity
100
AcDbPolyline
 90
4
 70
0
 10
174.4089253878422596
 20
81.9264203447365418
 10
174.675625387842075
 20
83.1264203447365162
 10
174.1422253878424442
 20
83.1264203447365162
 10
174.4089253878422596
 20
81.9264203447365418
  0
LINE
  5
122
100
AcDbEntity
100
AcDbLine
  8
STANDARD
 62
7
370
-1
  6
ByLayer
 10
174.4089253878422596
 20
126.1764203447365844
 30
0.0
 11
174.4089253878422596
 21
119.4264203447365418
 31
0.0
  0
LWPOLYLINE
  5
123
  8
STANDARD
 62
7
370
-1
  6
ByLayer
100
AcDbEntity
100
AcDbPolyline
 90
4
 70
0
 10
174.4089253878422596
 20
119.4264203447365418
 10
174.675625387842075
 20
120.6264203447365162
 10
174.1422253878424442
 20
120.6264203447365162
 10
174.4089253878422596
 20
119.4264203447365418
  0
LINE
  5
124
100
AcDbEntity
100
AcDbLine
  8
STANDARD
 62
7
370
-1
  6
ByLayer
 10
174.4089253878422596
 20
165.1764203447364991
 30
0.0
 11
174.4089253878422596
 21
158.4264203447364707
 31
0.0
  0
LWPOLYLINE
  5
125
  8
STANDARD
 62
7
370
-1
  6
ByLayer
100
AcDbEntity
100
AcDbPolyline
 90
4
 70
0
 10
174.4089253878422596
 20
158.4264203447364707
 10
174.675625387842075
 20
159.6264203447364309
 10
174.1422253878424442
 20
159.6264203447364309
 10
174.4089253878422596
 20
158.4264203447364707
  0
LINE
  5
126
100
AcDbEntity
100
AcDbLine
  8
STANDARD
 62
7
370
-1
  6
ByLayer
 10
160.9089253878421744
 20
147.1764203447364707
 30
0.0
 11
160.9089253878421744
 21
151.6764203447364139
 31
0.0
  0
LWPOLYLINE
  5
127
  8
STANDARD
 62
7
370
-1
  6
ByLayer
100
AcDbEntity
100
AcDbPolyline
 90
4
 70
0
 10
160.9089253878421744
 20
151.6764203447364139
 10
160.6422253878423589
 20
150.4764203447364252
 10
161.1756253878424161
 20
150.4764203447364252
 10
160.9089253878421744
 20
151.6764203447364139
  0
LINE
  5
128
100
AcDbEntity
100
AcDbLine
  8
STANDARD
 62
7
370
-1
  6
ByLayer
 10
208.9089253878424302
 20
73.6764203447365844
 30
0.0
 11
208.9089253878424302
 21
103.6764203447363712
 31
0.0
  0
LWPOLYLINE
  5
129
  8
STANDARD
 62
7
370
-1
  6
ByLayer
100
AcDbEntity
100
AcDbPolyline
 90
4
 70
0
 10
208.9089253878424302
 20
103.6764203447363712
 10
208.6422253878421884
 20
102.4764203447363968
 10
209.1756253878422456
 20
102.4764203447363968
 10
208.9089253878424302
 20
103.6764203447363712
  0
LINE
  5
12A
100
AcDbEntity
100
AcDbLine
  8
STANDARD
 62
7
370
-1
  6
ByLayer
 10
127.9089253878423449
 20
144.1764203447364139
 30
0.0
 11
127.9089253878423449
 21
139.6764203447364707
 31
0.0
  0
LWPOLYLINE
  5
12B
  8
STANDARD
 62
7
370
-1
  6
ByLayer
100
AcDbEntity
100
AcDbPolyline
 90
4
 70
0
 10
127.9089253878423449
 20
139.6764203447364707
 10
128.1756253878421603
 20
140.8764203447364309
 10
127.6422253878421031
 20
140.8764203447364309
 10
127.9089253878423449
 20
139.6764203447364707
  0
LINE
  5
12C
100
AcDbEntity
100
AcDbLine
  8
STANDARD
 62
7
370
-1
  6
ByLayer
 10
154.9089253878420891
 20
64.6764203447364565
 30
0.0
 11
159.4089253878422596
 21
64.6764203447364565
 31
0.0
  0
LWPOLYLINE
  5
12D
  8
STANDARD
 62
7
370
-1
  6
ByLayer
100
AcDbEntity
100
AcDbPolyline
 90
4
 70
0
 10
159.4089253878422596
 20
64.6764203447364565
 10
158.208925387842072
 20
64.9431203447364851
 10
158.208925387842072
 20
64.4097203447364279
 10
159.4089253878422596
 20
64.6764203447364565
  0
LINE
  5
12E
100
AcDbEntity
100
AcDbLine
  8
STANDARD
 62
7
370
-1
  6
ByLayer
 10
123.4089253878421744
 20
79.6764203447364565
 30
0.0
 11
127.9089253878423449
 21
79.6764203447364565
 31
0.0
  0
LWPOLYLINE
  5
12F
  8
STANDARD
 62
7
370
-1
  6
ByLayer
100
AcDbEntity
100
AcDbPolyline
 90
4
 70
0
 10
127.9089253878423449
 20
79.6764203447364565
 10
126.7089253878421573
 20
79.9431203447364851
 10
126.7089253878421573
 20
79.4097203447364279
 10
127.9089253878423449
 20
79.6764203447364565
  0
LINE
  5
130
100
AcDbEntity
100
AcDbLine
  8
STANDARD
 62
7
370
-1
  6
ByLayer
 10
151.9089253878422596
 20
117.1764203447364565
 30
0.0
 11
156.4089253878424302
 21
117.1764203447364565
 31
0.0
  0
LWPOLYLINE
  5
131
  8
STANDARD
 62
7
370
-1
  6
ByLayer
100
AcDbEntity
100
AcDbPolyline
 90
4
 70
0
 10
156.4089253878424302
 20
117.1764203447364565
 10
155.2089253878422426
 20
117.4431203447364851
 10
155.2089253878422426
 20
116.9097203447364279
 10
156.4089253878424302
 20
117.1764203447364565
  0
LINE
  5
132
100
AcDbEntity
100
AcDbLine
  8
STANDARD
 62
7
370
-1
  6
ByLayer
 10
151.9089253878422596
 20
156.1764203447365844
 30
0.0
 11
156.4089253878424302
 21
156.1764203447365844
 31
0.0
  0
LWPOLYLINE
  5
133
  8
STANDARD
 62
7
370
-1
  6
ByLayer
100
AcDbEntity
100
AcDbPolyline
 90
4
 70
0
 10
156.4089253878424302
 20
156.1764203447365844
 10
155.2089253878422426
 20
156.4431203447363998
 10
155.2089253878422426
 20
155.90972034473657
 10
156.4089253878424302
 20
156.1764203447365844
  0
LINE
  5
134
100
AcDbEntity
100
AcDbLine
  8
STANDARD
 62
7
370
-1
  6
ByLayer
 10
196.9089253878422596
 20
108.1764203447365418
 30
0.0
 11
204.4089253878422596
 21
108.1764203447365418
 31
0.0
  0
LWPOLYLINE
  5
135
  8
STANDARD
 62
7
370
-1
  6
ByLayer
100
AcDbEntity
100
AcDbPolyline
 90
4
 70
0
 10
204.4089253878422596
 20
108.1764203447365418
 10
203.208925387842072
 20
108.4431203447365704
 10
203.208925387842072
 20
107.9097203447365132
 10
204.4089253878422596
 20
108.1764203447365418
  0
LINE
  5
136
100
AcDbEntity
100
AcDbLine
  8
STANDARD
 62
7
370
-1
  6
ByLayer
 10
118.9089253878424302
 20
135.1764203447364991
 30
0.0
 11
123.4089253878421744
 21
135.1764203447364991
 31
0.0
  0
LWPOLYLINE
  5
137
  8
STANDARD
 62
7
370
-1
  6
ByLayer
100
AcDbEntity
100
AcDbPolyline
 90
4
 70
0
 10
123.4089253878421744
 20
135.1764203447364991
 10
122.2089253878424131
 20
135.4431203447365419
 10
122.2089253878424131
 20
134.9097203447364564
 10
123.4089253878421744
 20
135.1764203447364991
  0
LINE
  5
138
100
AcDbEntity
100
AcDbLine
  8
STANDARD
 62
7
370
-1
  6
ByLayer
 10
136.9089253878422596
 20
156.1764203447365844
 30
0.0
 11
136.9089253878422596
 21
117.1764203447364565
 31
0.0
  0
LINE
  5
139
100
AcDbEntity
100
AcDbLine
  8
STANDARD
 62
7
370
-1
  6
ByLayer
 10
132.4089253878420891
 20
135.1764203447364991
 30
0.0
 11
136.9089253878422596
 21
135.1764203447364991
 31
0.0
  0
LWPOLYLINE
  5
13A
  8
STANDARD
 62
7
370
-1
  6
ByLayer
100
AcDbEntity
100
AcDbPolyline
 90
4
 70
0
 10
136.9089253878422596
 20
135.1764203447364991
 10
135.708925387842072
 20
135.4431203447365419
 10
135.708925387842072
 20
134.9097203447364564
 10
136.9089253878422596
 20
135.1764203447364991
  0
LINE
  5
13B
100
AcDbEntity
100
AcDbLine
  8
STANDARD
 62
7
370
-1
  6
ByLayer
 10
141.4089253878424302
 20
156.1764203447365844
 30
0.0
 11
136.9089253878422596
 21
156.1764203447365844
 31
0.0
  0
LWPOLYLINE
  5
13C
  8
STANDARD
 62
7
370
-1
  6
ByLayer
100
AcDbEntity
100
AcDbPolyline
 90
4
 70
0
 10
141.4089253878424302
 20
156.1764203447365844
 10
140.2089253878422426
 20
156.4431203447363998
 10
140.2089253878422426
 20
155.90972034473657
 10
141.4089253878424302
 20
156.1764203447365844
  0
LINE
  5
13D
100
AcDbEntity
100
AcDbLine
  8
STANDARD
 62
7
370
-1
  6
ByLayer
 10
139.9089253878420891
 20
64.6764203447364565
 30
0.0
 11
144.4089253878422596
 21
64.6764203447364565
 31
0.0
  0
LWPOLYLINE
  5
13E
  8
STANDARD
 62
7
370
-1
  6
ByLayer
100
AcDbEntity
100
AcDbPolyline
 90
4
 70
0
 10
144.4089253878422596
 20
64.6764203447364565
 10
143.208925387842072
 20
64.9431203447364851
 10
143.208925387842072
 20
64.4097203447364279
 10
144.4089253878422596
 20
64.6764203447364565
  0
LINE
  5
13F
100
AcDbEntity
100
AcDbLine
  8
STANDARD
 62
7
370
-1
  6
ByLayer
 10
88.9089253878424302
 20
79.6764203447364565
 30
0.0
 11
112.9089253878423449
 21
79.6764203447364565
 31
0.0
  0
LWPOLYLINE
  5
140
  8
STANDARD
 62
7
370
-1
  6
ByLayer
100
AcDbEntity
100
AcDbPolyline
 90
4
 70
0
 10
112.9089253878423449
 20
79.6764203447364565
 10
111.7089253878421573
 20
79.9431203447364851
 10
111.7089253878421573
 20
79.4097203447364279
 10
112.9089253878423449
 20
79.6764203447364565
  0
LINE
  5
141
100
AcDbEntity
100
AcDbLine
  8
STANDARD
 62
7
370
-1
  6
ByLayer
 10
136.9089253878422596
 20
117.1764203447364565
 30
0.0
 11
141.4089253878424302
 21
117.1764203447364565
 31
0.0
  0
LWPOLYLINE
  5
142
  8
STANDARD
 62
7
370
-1
  6
ByLayer
100
AcDbEntity
100
AcDbPolyline
 90
4
 70
0
 10
141.4089253878424302
 20
117.1764203447364565
 10
140.2089253878422426
 20
117.4431203447364851
 10
140.2089253878422426
 20
116.9097203447364279
 10
141.4089253878424302
 20
117.1764203447364565
  0
LINE
  5
143
100
AcDbEntity
100
AcDbLine
  8
STANDARD
 62
7
370
-1
  6
ByLayer
 10
174.4089253878422596
 20
135.1764203447364991
 30
0.0
 11
173.6589253878420891
 21
135.9264203447364707
 31
0.0
  0
LINE
  5
144
100
AcDbEntity
100
AcDbLine
  8
STANDARD
 62
7
370
-1
  6
ByLayer
 10
174.4089253878422596
 20
64.6764203447364565
 30
0.0
 11
173.6589253878420891
 21
65.4264203447364139
 31
0.0
  0
LINE
  5
145
100
AcDbEntity
100
AcDbLine
  8
STANDARD
 62
7
370
-1
  6
ByLayer
 10
174.4089253878422596
 20
93.1764203447365418
 30
0.0
 11
173.6589253878420891
 21
93.9264203447364991
 31
0.0
  0
LINE
  5
146
100
AcDbEntity
100
AcDbLine
  8
STANDARD
 62
7
370
-1
  6
ByLayer
 10
174.4089253878422596
 20
79.6764203447364565
 30
0.0
 11
173.6589253878420891
 21
80.4264203447364139
 31
0.0
  0
LINE
  5
147
100
AcDbEntity
100
AcDbLine
  8
STANDARD
 62
7
370
-1
  6
ByLayer
 10
174.4089253878422596
 20
117.1764203447364565
 30
0.0
 11
173.6589253878420891
 21
117.9264203447364139
 31
0.0
  0
LINE
  5
148
100
AcDbEntity
100
AcDbLine
  8
STANDARD
 62
7
370
-1
  6
ByLayer
 10
174.4089253878422596
 20
156.1764203447365844
 30
0.0
 11
173.6589253878420891
 21
156.9264203447365276
 31
0.0
  0
LINE
  5
149
100
AcDbEntity
100
AcDbLine
  8
STANDARD
 62
7
370
-1
  6
ByLayer
 10
174.4089253878422596
 20
135.1764203447364991
 30
0.0
 11
173.6589253878420891
 21
134.4264203447365276
 31
0.0
  0
LINE
  5
14A
100
AcDbEntity
100
AcDbLine
  8
STANDARD
 62
7
370
-1
  6
ByLayer
 10
174.4089253878422596
 20
64.6764203447364565
 30
0.0
 11
173.6589253878420891
 21
63.9264203447364991
 31
0.0
  0
LINE
  5
14B
100
AcDbEntity
100
AcDbLine
  8
STANDARD
 62
7
370
-1
  6
ByLayer
 10
174.4089253878422596
 20
93.1764203447365418
 30
0.0
 11
173.6589253878420891
 21
92.4264203447363712
 31
0.0
  0
LINE
  5
14C
100
AcDbEntity
100
AcDbLine
  8
STANDARD
 62
7
370
-1
  6
ByLayer
 10
174.4089253878422596
 20
79.6764203447364565
 30
0.0
 11
173.6589253878420891
 21
78.9264203447364991
 31
0.0
  0
LINE
  5
14D
100
AcDbEntity
100
AcDbLine
  8
STANDARD
 62
7
370
-1
  6
ByLayer
 10
174.4089253878422596
 20
117.1764203447364565
 30
0.0
 11
173.6589253878420891
 21
116.4264203447364991
 31
0.0
  0
LINE
  5
14E
100
AcDbEntity
100
AcDbLine
  8
STANDARD
 62
7
370
-1
  6
ByLayer
 10
174.4089253878422596
 20
156.1764203447365844
 30
0.0
 11
173.6589253878420891
 21
155.4264203447364139
 31
0.0
  0
LINE
  5
14F
100
AcDbEntity
100
AcDbLine
  8
STANDARD
 62
7
370
-1
  6
ByLayer
 10
174.4089253878422596
 20
135.1764203447364991
 30
0.0
 11
175.1589253878424302
 21
134.4264203447365276
 31
0.0
  0
LINE
  5
150
100
AcDbEntity
100
AcDbLine
  8
STANDARD
 62
7
370
-1
  6
ByLayer
 10
174.4089253878422596
 20
64.6764203447364565
 30
0.0
 11
175.1589253878424302
 21
63.9264203447364991
 31
0.0
  0
LINE
  5
151
100
AcDbEntity
100
AcDbLine
  8
STANDARD
 62
7
370
-1
  6
ByLayer
 10
174.4089253878422596
 20
93.1764203447365418
 30
0.0
 11
175.1589253878424302
 21
92.4264203447363712
 31
0.0
  0
LINE
  5
152
100
AcDbEntity
100
AcDbLine
  8
STANDARD
 62
7
370
-1
  6
ByLayer
 10
174.4089253878422596
 20
79.6764203447364565
 30
0.0
 11
175.1589253878424302
 21
78.9264203447364991
 31
0.0
  0
LINE
  5
153
100
AcDbEntity
100
AcDbLine
  8
STANDARD
 62
7
370
-1
  6
ByLayer
 10
174.4089253878422596
 20
117.1764203447364565
 30
0.0
 11
175.1589253878424302
 21
116.4264203447364991
 31
0.0
  0
LINE
  5
154
100
AcDbEntity
100
AcDbLine
  8
STANDARD
 62
7
370
-1
  6
ByLayer
 10
174.4089253878422596
 20
156.1764203447365844
 30
0.0
 11
175.1589253878424302
 21
155.4264203447364139
 31
0.0
  0
LINE
  5
155
100
AcDbEntity
100
AcDbLine
  8
STANDARD
 62
7
370
-1
  6
ByLayer
 10
174.4089253878422596
 20
135.1764203447364991
 30
0.0
 11
175.1589253878424302
 21
135.9264203447364707
 31
0.0
  0
LINE
  5
156
100
AcDbEntity
100
AcDbLine
  8
STANDARD
 62
7
370
-1
  6
ByLayer
 10
174.4089253878422596
 20
64.6764203447364565
 30
0.0
 11
175.1589253878424302
 21
65.4264203447364139
 31
0.0
  0
LINE
  5
157
100
AcDbEntity
100
AcDbLine
  8
STANDARD
 62
7
370
-1
  6
ByLayer
 10
174.4089253878422596
 20
93.1764203447365418
 30
0.0
 11
175.1589253878424302
 21
93.9264203447364991
 31
0.0
  0
LINE
  5
158
100
AcDbEntity
100
AcDbLine
  8
STANDARD
 62
7
370
-1
  6
ByLayer
 10
174.4089253878422596
 20
79.6764203447364565
 30
0.0
 11
175.1589253878424302
 21
80.4264203447364139
 31
0.0
  0
LINE
  5
159
100
AcDbEntity
100
AcDbLine
  8
STANDARD
 62
7
370
-1
  6
ByLayer
 10
174.4089253878422596
 20
117.1764203447364565
 30
0.0
 11
175.1589253878424302
 21
117.9264203447364139
 31
0.0
  0
LINE
  5
15A
100
AcDbEntity
100
AcDbLine
  8
STANDARD
 62
7
370
-1
  6
ByLayer
 10
174.4089253878422596
 20
156.1764203447365844
 30
0.0
 11
175.1589253878424302
 21
156.9264203447365276
 31
0.0
  0
CIRCLE
  5
15B
100
AcDbEntity
100
AcDbCircle
  8
STANDARD
 62
7
370
-1
  6
ByLayer
 10
174.4089253878422596
 20
135.1764203447364991
 30
0.0
 40
2.2500000000000004
  0
CIRCLE
  5
15C
100
AcDbEntity
100
AcDbCircle
  8
STANDARD
 62
7
370
-1
  6
ByLayer
 10
174.4089253878422596
 20
64.6764203447364565
 30
0.0
 40
2.2500000000000004
  0
CIRCLE
  5
15D
100
AcDbEntity
100
AcDbCircle
  8
STANDARD
 62
7
370
-1
  6
ByLayer
 10
174.4089253878422596
 20
93.1764203447365418
 30
0.0
 40
2.2500000000000004
  0
CIRCLE
  5
15E
100
AcDbEntity
100
AcDbCircle
  8
STANDARD
 62
7
370
-1
  6
ByLayer
 10
174.4089253878422596
 20
79.6764203447364565
 30
0.0
 40
2.2500000000000004
  0
CIRCLE
  5
15F
100
AcDbEntity
100
AcDbCircle
  8
STANDARD
 62
7
370
-1
  6
ByLayer
 10
174.4089253878422596
 20
117.1764203447364565
 30
0.0
 40
2.2500000000000004
  0
CIRCLE
  5
160
100
AcDbEntity
100
AcDbCircle
  8
STANDARD
 62
7
370
-1
  6
ByLayer
 10
174.4089253878422596
 20
156.1764203447365844
 30
0.0
 40
2.2500000000000004
  0
LINE
  5
161
100
AcDbEntity
100
AcDbLine
  8
STANDARD
 62
7
370
-1
  6
ByLayer
 10
176.6589253878423449
 20
156.1764203447365844
 30
0.0
 11
183.4089253878421744
 21
156.1764203447365844
 31
0.0
  0
LINE
  5
162
100
AcDbEntity
100
AcDbLine
  8
STANDARD
 62
7
370
-1
  6
ByLayer
 10
183.4089253878421744
 20
93.1764203447365418
 30
0.0
 11
176.6589253878423449
 21
93.1764203447365418
 31
0.0
  0
LINE
  5
163
100
AcDbEntity
100
AcDbLine
  8
STANDARD
 62
7
370
-1
  6
ByLayer
 10
183.4089253878421744
 20
64.6764203447364565
 30
0.0
 11
176.6589253878423449
 21
64.6764203447364565
 31
0.0
  0
LINE
  5
164
100
AcDbEntity
100
AcDbLine
  8
STANDARD
 62
7
370
-1
  6
ByLayer
 10
183.4089253878421744
 20
117.1764203447364565
 30
0.0
 11
176.6589253878423449
 21
117.1764203447364565
 31
0.0
  0
LINE
  5
165
100
AcDbEntity
100
AcDbLine
  8
STANDARD
 62
7
370
-1
  6
ByLayer
 10
172.1589253878421744
 20
135.1764203447364991
 30
0.0
 11
136.9089253878422596
 21
135.1764203447364991
 31
0.0
  0
LWPOLYLINE
  5
166
  8
STANDARD
 62
7
370
-1
  6
ByLayer
100
AcDbEntity
100
AcDbPolyline
 90
4
 70
0
 10
172.1589253878421744
 20
135.1764203447364991
 10
170.9589253878424131
 20
135.4431203447365419
 10
170.9589253878424131
 20
134.9097203447364564
 10
172.1589253878421744
 20
135.1764203447364991
  0
LINE
  5
167
100
AcDbEntity
100
AcDbLine
  8
STANDARD
 62
7
370
-1
  6
ByLayer
 10
176.6589253878423449
 20
79.6764203447364565
 30
0.0
 11
180.4089253878423449
 21
79.6764203447364565
 31
0.0
  0
LWPOLYLINE
  5
168
  8
STANDARD
 62
7
370
-1
  6
ByLayer
100
AcDbEntity
100
AcDbPolyline
 90
4
 70
0
 10
180.4089253878423449
 20
79.6764203447364565
 10
179.2089253878421573
 20
79.9431203447364851
 10
179.2089253878421573
 20
79.4097203447364279
 10
180.4089253878423449
 20
79.6764203447364565
  0
LINE
  5
169
100
AcDbEntity
100
AcDbLine
  8
STANDARD
 62
7
370
-1
  6
ByLayer
 10
184.9089253878420891
 20
108.1764203447365418
 30
0.0
 11
190.9089253878421744
 21
108.1764203447365418
 31
0.0
  0
LWPOLYLINE
  5
16A
  8
STANDARD
 62
7
370
-1
  6
ByLayer
100
AcDbEntity
100
AcDbPolyline
 90
4
 70
0
 10
190.9089253878421744
 20
108.1764203447365418
 10
189.7089253878424131
 20
108.4431203447365704
 10
189.7089253878424131
 20
107.9097203447365132
 10
190.9089253878421744
 20
108.1764203447365418
  0
LINE
  5
16B
100
AcDbEntity
100
AcDbLine
  8
STANDARD
 62
7
370
-1
  6
ByLayer
 10
176.6589253878423449
 20
135.1764203447364991
 30
0.0
 11
180.4089253878423449
 21
135.1764203447364991
 31
0.0
  0
LWPOLYLINE
  5
16C
  8
STANDARD
 62
7
370
-1
  6
ByLayer
100
AcDbEntity
100
AcDbPolyline
 90
4
 70
0
 10
180.4089253878423449
 20
135.1764203447364991
 10
179.2089253878421573
 20
135.4431203447365419
 10
179.2089253878421573
 20
134.9097203447364564
 10
180.4089253878423449
 20
135.1764203447364991
  0
LINE
  5
16D
100
AcDbEntity
100
AcDbLine
  8
STANDARD
 62
7
370
-1
  6
ByLayer
 10
183.4089253878421744
 20
93.1764203447365418
 30
0.0
 11
183.4089253878421744
 21
82.6764203447364991
 31
0.0
  0
LWPOLYLINE
  5
16E
  8
STANDARD
 62
7
370
-1
  6
ByLayer
100
AcDbEntity
100
AcDbPolyline
 90
4
 70
0
 10
183.4089253878421744
 20
82.6764203447364991
 10
183.6756253878424161
 20
83.8764203447364736
 10
183.1422253878423589
 20
83.8764203447364736
 10
183.4089253878421744
 20
82.6764203447364991
  0
LINE
  5
16F
100
AcDbEntity
100
AcDbLine
  8
STANDARD
 62
7
370
-1
  6
ByLayer
 10
193.9089253878424302
 20
135.1764203447364991
 30
0.0
 11
193.9089253878424302
 21
111.1764203447363712
 31
0.0
  0
LWPOLYLINE
  5
170
  8
STANDARD
 62
7
370
-1
  6
ByLayer
100
AcDbEntity
100
AcDbPolyline
 90
4
 70
0
 10
193.9089253878424302
 20
111.1764203447363712
 10
194.1756253878422456
 20
112.3764203447365588
 10
193.6422253878421884
 20
112.3764203447365588
 10
193.9089253878424302
 20
111.1764203447363712
  0
LINE
  5
171
100
AcDbEntity
100
AcDbLine
  8
STANDARD
 62
7
370
-1
  6
ByLayer
 10
183.4089253878421744
 20
156.1764203447365844
 30
0.0
 11
183.4089253878421744
 21
138.1764203447365276
 31
0.0
  0
LWPOLYLINE
  5
172
  8
STANDARD
 62
7
370
-1
  6
ByLayer
100
AcDbEntity
100
AcDbPolyline
 90
4
 70
0
 10
183.4089253878421744
 20
138.1764203447365276
 10
183.6756253878424161
 20
139.3764203447365162
 10
183.1422253878423589
 20
139.3764203447365162
 10
183.4089253878421744
 20
138.1764203447365276
  0
LINE
  5
173
100
AcDbEntity
100
AcDbLine
  8
STANDARD
 62
7
370
-1
  6
ByLayer
 10
172.1589253878421744
 20
156.1764203447365844
 30
0.0
 11
165.4089253878423449
 21
156.1764203447365844
 31
0.0
  0
LWPOLYLINE
  5
174
  8
STANDARD
 62
7
370
-1
  6
ByLayer
100
AcDbEntity
100
AcDbPolyline
 90
4
 70
0
 10
172.1589253878421744
 20
156.1764203447365844
 10
170.9589253878424131
 20
156.4431203447363998
 10
170.9589253878424131
 20
155.90972034473657
 10
172.1589253878421744
 20
156.1764203447365844
  0
LINE
  5
175
100
AcDbEntity
100
AcDbLine
  8
STANDARD
 62
7
370
-1
  6
ByLayer
 10
172.1589253878421744
 20
64.6764203447364565
 30
0.0
 11
168.4089253878421744
 21
64.6764203447364565
 31
0.0
  0
LWPOLYLINE
  5
176
  8
STANDARD
 62
7
370
-1
  6
ByLayer
100
AcDbEntity
100
AcDbPolyline
 90
4
 70
0
 10
172.1589253878421744
 20
64.6764203447364565
 10
170.9589253878424131
 20
64.9431203447364851
 10
170.9589253878424131
 20
64.4097203447364279
 10
172.1589253878421744
 20
64.6764203447364565
  0
LINE
  5
177
100
AcDbEntity
100
AcDbLine
  8
STANDARD
 62
7
370
-1
  6
ByLayer
 10
172.1589253878421744
 20
93.1764203447365418
 30
0.0
 11
88.9089253878424302
 21
93.1764203447365418
 31
0.0
  0
LWPOLYLINE
  5
178
  8
STANDARD
 62
7
370
-1
  6
ByLayer
100
AcDbEntity
100
AcDbPolyline
 90
4
 70
0
 10
172.1589253878421744
 20
93.1764203447365418
 10
170.9589253878424131
 20
93.4431203447365704
 10
170.9589253878424131
 20
92.9097203447365132
 10
172.1589253878421744
 20
93.1764203447365418
  0
LINE
  5
179
100
AcDbEntity
100
AcDbLine
  8
STANDARD
 62
7
370
-1
  6
ByLayer
 10
172.1589253878421744
 20
79.6764203447364565
 30
0.0
 11
139.9089253878420891
 21
79.6764203447364565
 31
0.0
  0
LWPOLYLINE
  5
17A
  8
STANDARD
 62
7
370
-1
  6
ByLayer
100
AcDbEntity
100
AcDbPolyline
 90
4
 70
0
 10
172.1589253878421744
 20
79.6764203447364565
 10
170.9589253878424131
 20
79.9431203447364851
 10
170.9589253878424131
 20
79.4097203447364279
 10
172.1589253878421744
 20
79.6764203447364565
  0
LINE
  5
17B
100
AcDbEntity
100
AcDbLine
  8
STANDARD
 62
7
370
-1
  6
ByLayer
 10
139.9089253878420891
 20
79.6764203447364565
 30
0.0
 11
136.9089253878422596
 21
79.6764203447364565
 31
0.0
  0
LWPOLYLINE
  5
17C
  8
STANDARD
 62
7
370
-1
  6
ByLayer
100
AcDbEntity
100
AcDbPolyline
 90
4
 70
0
 10
139.9089253878420891
 20
79.6764203447364565
 10
138.7089253878423278
 20
79.9431203447364851
 10
138.7089253878423278
 20
79.4097203447364279
 10
139.9089253878420891
 20
79.6764203447364565
  0
LINE
  5
17D
100
AcDbEntity
100
AcDbLine
  8
STANDARD
 62
7
370
-1
  6
ByLayer
 10
172.1589253878421744
 20
117.1764203447364565
 30
0.0
 11
165.4089253878423449
 21
117.1764203447364565
 31
0.0
  0
LWPOLYLINE
  5
17E
  8
STANDARD
 62
7
370
-1
  6
ByLayer
100
AcDbEntity
100
AcDbPolyline
 90
4
 70
0
 10
172.1589253878421744
 20
117.1764203447364565
 10
170.9589253878424131
 20
117.4431203447364851
 10
170.9589253878424131
 20
116.9097203447364279
 10
172.1589253878421744
 20
117.1764203447364565
  0
LINE
  5
17F
100
AcDbEntity
100
AcDbLine
  8
STANDARD
 62
7
370
-1
  6
ByLayer
 10
183.4089253878421744
 20
76.6764203447364139
 30
0.0
 11
183.4089253878421744
 21
64.6764203447364565
 31
0.0
  0
LWPOLYLINE
  5
180
  8
STANDARD
 62
7
370
-1
  6
ByLayer
100
AcDbEntity
100
AcDbPolyline
 90
4
 70
0
 10
183.4089253878421744
 20
76.6764203447364139
 10
183.1422253878423589
 20
75.4764203447364395
 10
183.6756253878424161
 20
75.4764203447364395
 10
183.4089253878421744
 20
76.6764203447364139
  0
LINE
  5
181
100
AcDbEntity
100
AcDbLine
  8
STANDARD
 62
7
370
-1
  6
ByLayer
 10
193.9089253878424302
 20
105.1764203447364991
 30
0.0
 11
193.9089253878424302
 21
79.6764203447364565
 31
0.0
  0
LWPOLYLINE
  5
182
  8
STANDARD
 62
7
370
-1
  6
ByLayer
100
AcDbEntity
100
AcDbPolyline
 90
4
 70
0
 10
193.9089253878424302
 20
105.1764203447364991
 10
193.6422253878421884
 20
103.9764203447365247
 10
194.1756253878422456
 20
103.9764203447365247
 10
193.9089253878424302
 20
105.1764203447364991
  0
LINE
  5
183
100
AcDbEntity
100
AcDbLine
  8
STANDARD
 62
7
370
-1
  6
ByLayer
 10
183.4089253878421744
 20
132.1764203447364707
 30
0.0
 11
183.4089253878421744
 21
117.1764203447364565
 31
0.0
  0
LWPOLYLINE
  5
184
  8
STANDARD
 62
7
370
-1
  6
ByLayer
100
AcDbEntity
100
AcDbPolyline
 90
4
 70
0
 10
183.4089253878421744
 20
132.1764203447364707
 10
183.1422253878423589
 20
130.9764203447364821
 10
183.6756253878424161
 20
130.9764203447364821
 10
183.4089253878421744
 20
132.1764203447364707
  0
LINE
  5
185
100
AcDbEntity
100
AcDbLine
  8
STANDARD
 62
7
370
-1
  6
ByLayer
 10
139.9089253878420891
 20
79.6764203447364565
 30
0.0
 11
139.9089253878420891
 21
64.6764203447364565
 31
0.0
  0
LINE
  5
186
100
AcDbEntity
100
AcDbLine
  8
STANDARD
 62
7
370
-1
  6
ByLayer
 10
88.9089253878424302
 20
79.6764203447364565
 30
0.0
 11
88.9089253878424302
 21
93.1764203447365418
 31
0.0
  0
LINE
  5
187
100
AcDbEntity
100
AcDbLine
  8
STANDARD
 62
7
370
-1
  6
ByLayer
 10
186.4089253878424302
 20
135.1764203447364991
 30
0.0
 11
193.9089253878424302
 21
135.1764203447364991
 31
0.0
  0
LINE
  5
188
100
AcDbEntity
100
AcDbLine
  8
STANDARD
 62
7
370
-1
  6
ByLayer
 10
186.4089253878424302
 20
79.6764203447364565
 30
0.0
 11
193.9089253878424302
 21
79.6764203447364565
 31
0.0
  0
LINE
  5
189
100
AcDbEntity
100
AcDbLine
  8
STANDARD
 62
7
370
-1
  6
ByLayer
 10
88.9089253878424302
 20
114.1764203447364139
 30
0.0
 11
82.9089253878423449
 21
114.1764203447364139
 31
0.0
  0
LWPOLYLINE
  5
18A
  8
STANDARD
 62
7
370
-1
  6
ByLayer
100
AcDbEntity
100
AcDbPolyline
 90
4
 70
0
 10
88.9089253878424302
 20
114.1764203447364139
 10
87.7089253878422426
 20
114.4431203447364425
 10
87.7089253878422426
 20
113.9097203447363853
 10
88.9089253878424302
 20
114.1764203447364139
  0
LINE
  5
18B
100
AcDbEntity
100
AcDbLine
  8
STANDARD
 62
7
370
-1
  6
ByLayer
 10
88.9089253878424302
 20
114.1764203447364139
 30
0.0
 11
88.9089253878424302
 21
93.1764203447365418
 31
0.0
  0
LWPOLYLINE
  5
18C
  8
STANDARD
 62
7
370
-1
  6
ByLayer
100
AcDbEntity
100
AcDbPolyline
 90
4
 70
0
 10
88.9089253878424302
 20
93.1764203447365418
 10
89.1756253878422456
 20
94.3764203447365162
 10
88.6422253878421884
 20
94.3764203447365162
 10
88.9089253878424302
 20
93.1764203447365418
  0
LINE
  5
18D
100
AcDbEntity
100
AcDbLine
  8
STANDARD
 62
7
370
-1
  6
ByLayer
 10
91.9089253878422596
 20
135.1764203447364991
 30
0.0
 11
99.4089253878422596
 21
135.1764203447364991
 31
0.0
  0
LWPOLYLINE
  5
18E
  8
STANDARD
 62
7
370
-1
  6
ByLayer
100
AcDbEntity
100
AcDbPolyline
 90
4
 70
0
 10
99.4089253878422596
 20
135.1764203447364991
 10
98.208925387842072
 20
135.4431203447365419
 10
98.208925387842072
 20
134.9097203447364564
 10
99.4089253878422596
 20
135.1764203447364991
  0
LINE
  5
18F
100
AcDbEntity
100
AcDbLine
  8
STANDARD
 62
7
370
-1
  6
ByLayer
 10
219.4089253878422596
 20
108.1764203447365418
 30
0.0
 11
213.4089253878421744
 21
108.1764203447365418
 31
0.0
  0
LWPOLYLINE
  5
190
  8
STANDARD
 62
7
370
-1
  6
ByLayer
100
AcDbEntity
100
AcDbPolyline
 90
4
 70
0
 10
219.4089253878422596
 20
108.1764203447365418
 10
218.208925387842072
 20
108.4431203447365704
 10
218.208925387842072
 20
107.9097203447365132
 10
219.4089253878422596
 20
108.1764203447365418
  0
LINE
  5
191
100
AcDbEntity
100
AcDbLine
  8
STANDARD
 62
7
370
-1
  6
ByLayer
 10
219.4089253878422596
 20
169.6764203447364707
 30
0.0
 11
88.9089253878424302
 21
169.6764203447364707
 31
0.0
  0
LINE
  5
192
100
AcDbEntity
100
AcDbLine
  8
STANDARD
 62
7
370
-1
  6
ByLayer
 10
88.9089253878424302
 20
169.6764203447364707
 30
0.0
 11
88.9089253878424302
 21
138.1764203447365276
 31
0.0
  0
LWPOLYLINE
  5
193
  8
STANDARD
 62
7
370
-1
  6
ByLayer
100
AcDbEntity
100
AcDbPolyline
 90
4
 70
0
 10
88.9089253878424302
 20
138.1764203447365276
 10
89.1756253878422456
 20
139.3764203447365162
 10
88.6422253878421884
 20
139.3764203447365162
 10
88.9089253878424302
 20
138.1764203447365276
  0
LINE
  5
194
100
AcDbEntity
100
AcDbLine
  8
STANDARD
 62
7
370
-1
  6
ByLayer
 10
64.9089253878420891
 20
154.6764203447364707
 30
0.0
 11
64.9089253878420891
 21
115.6764203447365418
 31
0.0
  0
LINE
  5
195
100
AcDbEntity
100
AcDbLine
  8
STANDARD
 62
7
370
-1
  6
ByLayer
 10
64.9089253878420891
 20
157.6764203447364991
 30
0.0
 11
64.9089253878420891
 21
175.6764203447365276
 31
0.0
  0
LINE
  5
196
100
AcDbEntity
100
AcDbLine
  8
STANDARD
 62
7
370
-1
  6
ByLayer
 10
64.9089253878420891
 20
175.6764203447365276
 30
0.0
 11
237.4089253878420891
 21
175.6764203447365276
 31
0.0
  0
LINE
  5
197
100
AcDbEntity
100
AcDbLine
  8
STANDARD
 62
7
370
-1
  6
ByLayer
 10
237.4089253878420891
 20
175.6764203447365276
 30
0.0
 11
237.4089253878420891
 21
171.1764203447365844
 31
0.0
  0
LINE
  5
198
100
AcDbEntity
100
AcDbLine
  8
STANDARD
 62
7
370
-1
  6
ByLayer
 10
237.4089253878420891
 20
168.1764203447365276
 30
0.0
 11
237.4089253878420891
 21
109.6764203447364565
 31
0.0
  0
LINE
  5
199
100
AcDbEntity
100
AcDbLine
  8
STANDARD
 62
7
370
-1
  6
ByLayer
 10
237.4089253878420891
 20
106.6764203447364139
 30
0.0
 11
237.4089253878420891
 21
49.6764203447364565
 31
0.0
  0
LINE
  5
19A
100
AcDbEntity
100
AcDbLine
  8
STANDARD
 62
7
370
-1
  6
ByLayer
 10
237.4089253878420891
 20
49.6764203447364565
 30
0.0
 11
64.9089253878420891
 21
49.6764203447364565
 31
0.0
  0
LINE
  5
19B
100
AcDbEntity
100
AcDbLine
  8
STANDARD
 62
7
370
-1
  6
ByLayer
 10
64.9089253878420891
 20
70.6764203447365418
 30
0.0
 11
64.9089253878420891
 21
112.6764203447364991
 31
0.0
  0
LINE
  5
19C
100
AcDbEntity
100
AcDbLine
  8
STANDARD
 62
7
370
-1
  6
ByLayer
 10
64.9089253878420891
 20
49.6764203447364565
 30
0.0
 11
64.9089253878420891
 21
67.6764203447364991
 31
0.0
  0
ENDSEC
  0
SECTION
  2
OBJECTS
  0
DICTIONARY
  5
C
100
AcDbDictionary
280
0
281
1
  3
ACAD_GROUP
350
D
  3
ACAD_LAYOUT
350
1A
  3
ACAD_MLINESTYLE
350
17
  3
ACAD_PLOTSETTINGS
350
19
  3
ACAD_PLOTSTYLENAME
350
E
  3
AcDbVariableDictionary
350
19D
  0
DICTIONARY
  5
D
100
AcDbDictionary
280
0
281
1
  0
ACDBDICTIONARYWDFLT
  5
E
100
AcDbDictionary
281
1
  3
Normal
350
F
100
AcDbDictionaryWithDefault
340
F
  0
ACDBPLACEHOLDER
  5
F
  0
DICTIONARY
  5
17
100
AcDbDictionary
280
0
281
1
  3
Standard
350
18
  0
MLINESTYLE
  5
18
100
AcDbMlineStyle
  2
STANDARD
 70
0
  3

 62
256
 51
90.0
 52
90.0
 71
2
 49
0.5
 62
256
  6
BYLAYER
 49
-0.5
 62
256
  6
BYLAYER
  0
DICTIONARY
  5
19
100
AcDbDictionary
280
0
281
1
  0
DICTIONARY
  5
1A
100
AcDbDictionary
281
1
  3
Layout1
350
1E
  3
Layout2
350
26
  3
Model
350
22
  0
LAYOUT
  5
1E
100
AcDbPlotSettings
  1

  2
C:\Program Files\AutoCAD 2002\plotters\DWF ePlot (optimized for plotting).pc3
  4

  6

 40
0.0
 41
0.0
 42
0.0
 43
0.0
 44
0.0
 45
0.0
 46
0.0
 47
0.0
 48
0.0
 49
0.0
140
0.0
141
0.0
142
1.0
143
1.0
 70
688
 72
0
 73
0
 74
5
  7

 75
16
147
1.0
148
0.0
149
0.0
100
AcDbLayout
  1
Layout1
 70
1
 71
1
 10
0.0
 20
0.0
 11
420.0
 21
297.0
 12
0.0
 22
0.0
 32
0.0
 14
100000000000000000000.0
 24
100000000000000000000.0
 34
100000000000000000000.0
 15
-100000000000000000000.0
 25
-100000000000000000000.0
 35
-100000000000000000000.0
146
0.0
 13
0.0
 23
0.0
 33
0.0
 16
1.0
 26
0.0
 36
0.0
 17
0.0
 27
1.0
 37
0.0
 76
0
330
1B
  0
LAYOUT
  5
22
100
AcDbPlotSettings
  1

  2
C:\Program Files\AutoCAD 2002\plotters\DWF ePlot (optimized for plotting).pc3
  4

  6

 40
0.0
 41
0.0
 42
0.0
 43
0.0
 44
0.0
 45
0.0
 46
0.0
 47
0.0
 48
0.0
 49
0.0
140
0.0
141
0.0
142
1.0
143
1.0
 70
1712
 72
0
 73
0
 74
0
  7

 75
0
147
1.0
148
0.0
149
0.0
100
AcDbLayout
  1
Model
 70
1
 71
0
 10
0.0
 20
0.0
 11
12.0
 21
9.0
 12
0.0
 22
0.0
 32
0.0
 14
0.0
 24
0.0
 34
0.0
 15
0.0
 25
0.0
 35
0.0
146
0.0
 13
0.0
 23
0.0
 33
0.0
 16
1.0
 26
0.0
 36
0.0
 17
0.0
 27
1.0
 37
0.0
 76
0
330
1F
  0
LAYOUT
  5
26
100
AcDbPlotSettings
  1

  2
C:\Program Files\AutoCAD 2002\plotters\DWF ePlot (optimized for plotting).pc3
  4

  6

 40
0.0
 41
0.0
 42
0.0
 43
0.0
 44
0.0
 45
0.0
 46
0.0
 47
0.0
 48
0.0
 49
0.0
140
0.0
141
0.0
142
1.0
143
1.0
 70
688
 72
0
 73
0
 74
5
  7

 75
16
147
1.0
148
0.0
149
0.0
100
AcDbLayout
  1
Layout2
 70
1
 71
2
 10
0.0
 20
0.0
 11
12.0
 21
9.0
 12
0.0
 22
0.0
 32
0.0
 14
0.0
 24
0.0
 34
0.0
 15
0.0
 25
0.0
 35
0.0
146
0.0
 13
0.0
 23
0.0
 33
0.0
 16
1.0
 26
0.0
 36
0.0
 17
0.0
 27
1.0
 37
0.0
 76
0
330
23
  0
DICTIONARY
  5
19D
100
AcDbDictionary
281
1
  3
DIMASSOC
350
19F
  3
HIDETEXT
350
19E
  0
DICTIONARYVAR
  5
19E
100
DictionaryVariables
280
0
  1
2
  0
DICTIONARYVAR
  5
19F
100
DictionaryVariables
280
0
  1
1
  0
ENDSEC
  0
EOF
