999
dxflib 2.0.4.8
  0
SECTION
  2
HEADER
  9
$ACADVER
  1
AC1015
  9
$HANDSEED
  5
FFFF
  9
$USERR4
 40
0.0
  9
$AXISUNIT
 10
0.0
 20
0.0
 30
0.0
  9
$DIMTAD
 70
0
  9
$VISRETAIN
 70
0
  9
$TILEMODE
 70
1
  9
$SHADEDIF
 70
70
  9
$USERR5
 40
0.0
  9
$UCSYDIR
 10
0.0
 20
1.0
 30
0.0
  9
$ATTREQ
 70
1
  9
$CHAMFERA
 40
0.0
  9
$MENU
  1
acad
  9
$CLAYER
  8
0
  9
$UCSXDIR
 10
1.0
 20
0.0
 30
0.0
  9
$CHAMFERB
 40
0.0
  9
$DIMASZ
 40
0.18
  9
$TRACEWID
 40
0.05
  9
$REGENMODE
 70
1
  9
$ORTHOMODE
 70
0
  9
$EXTMIN
 10
-19.0350000000000001
 20
22.75
 30
0.0
  9
$PUCSYDIR
 10
0.0
 20
1.0
 30
0.0
  9
$ANGBASE
 50
0.0
  9
$USRTIMER
 70
1
  9
$SKETCHINC
 40
0.1
  9
$DIMGAP
 40
0.09
  9
$DIMTFAC
 40
1.0
  9
$DIMSAH
 70
0
  9
$DIMALT
 70
0
  9
$DIMSHO
 70
1
  9
$PUCSXDIR
 10
1.0
 20
0.0
 30
0.0
  9
$SURFTYPE
 70
6
  9
$SPLFRAME
 70
0
  9
$AXISMODE
 70
0
  9
$DIMTSZ
 40
0.0
  9
$LIMMIN
 10
0.0
 20
0.0
  9
$DWGCODEPAGE
  3
dos850
  9
$SURFTAB1
 70
6
  9
$SPLINESEGS
 70
8
  9
$BLIPMODE
 70
1
  9
$AUPREC
 70
0
  9
$LUNITS
 70
2
  9
$UNITMODE
 70
0
  9
$USERI1
 70
0
  9
$SURFTAB2
 70
6
  9
$SKPOLY
 70
0
  9
$ELEVATION
 40
0.0
  9
$DIMCEN
 40
0.09
  9
$DIMRND
 40
0.0
  9
$INSBASE
 10
0.0
 20
0.0
 30
0.0
  9
$USERI2
 70
0
  9
$UCSORG
 10
0.0
 20
0.0
 30
0.0
  9
$PELEVATION
 40
0.0
  9
$DIMEXO
 40
0.0625
  9
$TEXTSIZE
 40
0.2
  9
$DRAGMODE
 70
2
  9
$FILLMODE
 70
1
  9
$EXTMAX
 10
-11.9649999999999999
 20
32.8500000000000014
 30
0.0
  9
$INSUNITS
 70
1
  9
$USERI3
 70
0
  9
$SURFU
 70
6
  9
$ANGDIR
 70
0
  9
$TDUSRTIMER
 40
0.0
  9
$DIMZIN
 70
0
  9
$DIMDLE
 40
0.0
  9
$DIMSCALE
 40
1.0
  9
$WORLDVIEW
 70
1
  9
$USERI4
 70
0
  9
$SURFV
 70
6
  9
$OSMODE
 70
0
  9
$QTEXTMODE
 70
0
  9
$LIMMAX
 10
0.0
 20
0.0
  9
$USERI5
 70
0
  9
$HANDLING
 70
1
  9
$PDMODE
 70
0
  9
$LIMCHECK
 70
0
  9
$THICKNESS
 40
0.0
  9
$DIMSE1
 70
0
  9
$DIMLIM
 70
0
  9
$DIMTXT
 40
0.18
  9
$ATTMODE
 70
1
  9
$PEXTMAX
 10
-100000000000000000000.0
 20
-100000000000000000000.0
 30
-100000000000000000000.0
  9
$PEXTMIN
 10
100000000000000000000.0
 20
100000000000000000000.0
 30
100000000000000000000.0
  9
$PUCSORG
 10
0.0
 20
0.0
 30
0.0
  9
$SPLINETYPE
 70
6
  9
$TDINDWG
 40
0.0
  9
$LUPREC
 70
4
  9
$DIMSOXD
 70
0
  9
$DIMLFAC
 40
1.0
  9
$DIMSE2
 70
0
  9
$DIMTOH
 70
1
  9
$CELTYPE
  6
CONTINUOUS
  9
$PLIMCHECK
 70
0
  9
$PLINEWID
 40
0.0
  9
$DIMSTYLE
  2
STANDARD
  9
$DIMTVP
 40
0.0
  9
$DIMASO
 70
1
  9
$DIMTM
 40
0.0
  9
$DIMDLI
 40
0.38
  9
$CECOLOR
 62
256
  9
$TREEDEPTH
 70
3020
  9
$PLIMMAX
 10
12.0
 20
9.0
  9
$PLIMMIN
 10
0.0
 20
0.0
  9
$MAXACTVP
 70
16
  9
$TDUPDATE
 40
0.0
  9
$FILLETRAD
 40
0.0
  9
$DIMCLRT
 70
0
  9
$DIMALTD
 70
2
  9
$DIMTIH
 70
1
  9
$LTSCALE
 40
1.0
  9
$PINSBASE
 10
0.0
 20
0.0
 30
0.0
  9
$USERR1
 40
0.0
  9
$ATTDIA
 70
0
  9
$PDSIZE
 40
0.0
  9
$DIMCLRD
 70
0
  9
$DIMEXE
 40
0.18
  9
$PSLTSCALE
 70
0
  9
$PLINEGEN
 70
1
  9
$SHADEDGE
 70
3
  9
$USERR2
 40
0.0
  9
$COORDS
 70
0
  9
$TDCREATE
 40
0.0
  9
$DIMCLRE
 70
0
  9
$DIMTOFL
 70
0
  9
$DIMALTF
 40
25.3999999999999986
  9
$DIMTOL
 70
0
  9
$DIMTP
 40
0.0
  9
$TEXTSTYLE
  7
STANDARD
  9
$USERR3
 40
0.0
  9
$AUNITS
 70
0
  9
$DIMTIX
 70
0
  9
$MIRRTEXT
 70
1
  0
ENDSEC
  0
SECTION
  2
TABLES
  0
TABLE
  2
VPORT
  5
8
100
AcDbSymbolTable
 70
1
  0
VPORT
  5
30
100
AcDbSymbolTableRecord
100
AcDbViewportTableRecord
  2
*Active
 70
0
 10
0.0
 20
0.0
 11
1.0
 21
1.0
 12
286.3055555555554861
 22
148.5
 13
0.0
 23
0.0
 14
10.0
 24
10.0
 15
10.0
 25
10.0
 16
0.0
 26
0.0
 36
1.0
 17
0.0
 27
0.0
 37
0.0
 40
297.0
 41
1.92798353909465
 42
50.0
 43
0.0
 44
0.0
 50
0.0
 51
0.0
 71
0
 72
100
 73
1
 74
3
 75
1
 76
1
 77
0
 78
0
281
0
 65
1
110
0.0
120
0.0
130
0.0
111
1.0
121
0.0
131
0.0
112
0.0
122
1.0
132
0.0
 79
0
146
0.0
  0
ENDTAB
  0
TABLE
  2
LTYPE
  5
5
100
AcDbSymbolTable
 70
21
  0
LTYPE
  5
14
100
AcDbSymbolTableRecord
100
AcDbLinetypeTableRecord
  2
ByBlock
 70
0
  3

 72
65
 73
0
 40
0.0
  0
LTYPE
  5
15
100
AcDbSymbolTableRecord
100
AcDbLinetypeTableRecord
  2
ByLayer
 70
0
  3

 72
65
 73
0
 40
0.0
  0
LTYPE
  5
16
100
AcDbSymbolTableRecord
100
AcDbLinetypeTableRecord
  2
CONTINUOUS
 70
0
  3
Solid line
 72
65
 73
0
 40
0.0
  0
LTYPE
  5
31
100
AcDbSymbolTableRecord
100
AcDbLinetypeTableRecord
  2
DOT
 70
0
  3
Dot . . . . . . . . . . . . . . . . . . . . . .
 72
65
 73
2
 40
6.3499999999999996
 49
0.0
 74
0
 49
-6.3499999999999996
 74
0
  0
LTYPE
  5
32
100
AcDbSymbolTableRecord
100
AcDbLinetypeTableRecord
  2
DOT2
 70
0
  3
Dot (.5x) .....................................
 72
65
 73
2
 40
3.1749999999999998
 49
0.0
 74
0
 49
-3.1749999999999998
 74
0
  0
LTYPE
  5
33
100
AcDbSymbolTableRecord
100
AcDbLinetypeTableRecord
  2
DOTX2
 70
0
  3
Dot (2x) .  .  .  .  .  .  .  .  .  .  .  .  .
 72
65
 73
2
 40
12.6999999999999993
 49
0.0
 74
0
 49
-12.6999999999999993
 74
0
  0
LTYPE
  5
34
100
AcDbSymbolTableRecord
100
AcDbLinetypeTableRecord
  2
DASHED
 70
0
  3
Dashed __ __ __ __ __ __ __ __ __ __ __ __ __ _
 72
65
 73
2
 40
19.0500000000000007
 49
12.6999999999999993
 74
0
 49
-6.3499999999999996
 74
0
  0
LTYPE
  5
35
100
AcDbSymbolTableRecord
100
AcDbLinetypeTableRecord
  2
DASHED2
 70
0
  3
Dashed (.5x) _ _ _ _ _ _ _ _ _ _ _ _ _ _ _ _ _
 72
65
 73
2
 40
9.5250000000000004
 49
6.3499999999999996
 74
0
 49
-3.1749999999999998
 74
0
  0
LTYPE
  5
36
100
AcDbSymbolTableRecord
100
AcDbLinetypeTableRecord
  2
DASHEDX2
 70
0
  3
Dashed (2x) ____  ____  ____  ____  ____  ___
 72
65
 73
2
 40
38.1000000000000014
 49
25.3999999999999986
 74
0
 49
-12.6999999999999993
 74
0
  0
LTYPE
  5
37
100
AcDbSymbolTableRecord
100
AcDbLinetypeTableRecord
  2
DASHDOT
 70
0
  3
Dash dot __ . __ . __ . __ . __ . __ . __ . __
 72
65
 73
4
 40
25.3999999999999986
 49
12.6999999999999993
 74
0
 49
-6.3499999999999996
 74
0
 49
0.0
 74
0
 49
-6.3499999999999996
 74
0
  0
LTYPE
  5
38
100
AcDbSymbolTableRecord
100
AcDbLinetypeTableRecord
  2
DASHDOT2
 70
0
  3
Dash dot (.5x) _._._._._._._._._._._._._._._.
 72
65
 73
4
 40
12.6999999999999993
 49
6.3499999999999996
 74
0
 49
-3.1749999999999998
 74
0
 49
0.0
 74
0
 49
-3.1749999999999998
 74
0
  0
LTYPE
  5
39
100
AcDbSymbolTableRecord
100
AcDbLinetypeTableRecord
  2
DASHDOTX2
 70
0
  3
Dash dot (2x) ____  .  ____  .  ____  .  ___
 72
65
 73
4
 40
50.7999999999999972
 49
25.3999999999999986
 74
0
 49
-12.6999999999999993
 74
0
 49
0.0
 74
0
 49
-12.6999999999999993
 74
0
  0
LTYPE
  5
3A
100
AcDbSymbolTableRecord
100
AcDbLinetypeTableRecord
  2
DIVIDE
 70
0
  3
Divide ____ . . ____ . . ____ . . ____ . . ____
 72
65
 73
6
 40
31.75
 49
12.6999999999999993
 74
0
 49
-6.3499999999999996
 74
0
 49
0.0
 74
0
 49
-6.3499999999999996
 74
0
 49
0.0
 74
0
 49
-6.3499999999999996
 74
0
  0
LTYPE
  5
3B
100
AcDbSymbolTableRecord
100
AcDbLinetypeTableRecord
  2
DIVIDE2
 70
0
  3
Divide (.5x) __..__..__..__..__..__..__..__.._
 72
65
 73
6
 40
15.875
 49
6.3499999999999996
 74
0
 49
-3.1749999999999998
 74
0
 49
0.0
 74
0
 49
-3.1749999999999998
 74
0
 49
0.0
 74
0
 49
-3.1749999999999998
 74
0
  0
LTYPE
  5
3C
100
AcDbSymbolTableRecord
100
AcDbLinetypeTableRecord
  2
DIVIDEX2
 70
0
  3
Divide (2x) ________  .  .  ________  .  .  _
 72
65
 73
6
 40
63.5
 49
25.3999999999999986
 74
0
 49
-12.6999999999999993
 74
0
 49
0.0
 74
0
 49
-12.6999999999999993
 74
0
 49
0.0
 74
0
 49
-12.6999999999999993
 74
0
  0
LTYPE
  5
3D
100
AcDbSymbolTableRecord
100
AcDbLinetypeTableRecord
  2
CENTER
 70
0
  3
Center ____ _ ____ _ ____ _ ____ _ ____ _ ____
 72
65
 73
4
 40
50.7999999999999972
 49
31.75
 74
0
 49
-6.3499999999999996
 74
0
 49
6.3499999999999996
 74
0
 49
-6.3499999999999996
 74
0
  0
LTYPE
  5
3E
100
AcDbSymbolTableRecord
100
AcDbLinetypeTableRecord
  2
CENTER2
 70
0
  3
Center (.5x) ___ _ ___ _ ___ _ ___ _ ___ _ ___
 72
65
 73
4
 40
28.5749999999999993
 49
19.0500000000000007
 74
0
 49
-3.1749999999999998
 74
0
 49
3.1749999999999998
 74
0
 49
-3.1749999999999998
 74
0
  0
LTYPE
  5
3F
100
AcDbSymbolTableRecord
100
AcDbLinetypeTableRecord
  2
CENTERX2
 70
0
  3
Center (2x) ________  __  ________  __  _____
 72
65
 73
4
 40
101.5999999999999943
 49
63.5
 74
0
 49
-12.6999999999999993
 74
0
 49
12.6999999999999993
 74
0
 49
-12.6999999999999993
 74
0
  0
LTYPE
  5
40
100
AcDbSymbolTableRecord
100
AcDbLinetypeTableRecord
  2
BORDER
 70
0
  3
Border __ __ . __ __ . __ __ . __ __ . __ __ .
 72
65
 73
6
 40
44.4500000000000028
 49
12.6999999999999993
 74
0
 49
-6.3499999999999996
 74
0
 49
12.6999999999999993
 74
0
 49
-6.3499999999999996
 74
0
 49
0.0
 74
0
 49
-6.3499999999999996
 74
0
  0
LTYPE
  5
41
100
AcDbSymbolTableRecord
100
AcDbLinetypeTableRecord
  2
BORDER2
 70
0
  3
Border (.5x) __.__.__.__.__.__.__.__.__.__.__.
 72
65
 73
6
 40
22.2250000000000014
 49
6.3499999999999996
 74
0
 49
-3.1749999999999998
 74
0
 49
6.3499999999999996
 74
0
 49
-3.1749999999999998
 74
0
 49
0.0
 74
0
 49
-3.1749999999999998
 74
0
  0
LTYPE
  5
42
100
AcDbSymbolTableRecord
100
AcDbLinetypeTableRecord
  2
BORDERX2
 70
0
  3
Border (2x) ____  ____  .  ____  ____  .  ___
 72
65
 73
6
 40
88.9000000000000057
 49
25.3999999999999986
 74
0
 49
-12.6999999999999993
 74
0
 49
25.3999999999999986
 74
0
 49
-12.6999999999999993
 74
0
 49
0.0
 74
0
 49
-12.6999999999999993
 74
0
  0
ENDTAB
  0
TABLE
  2
LAYER
  5
2
100
AcDbSymbolTable
 70
9
  0
LAYER
  5
10
100
AcDbSymbolTableRecord
100
AcDbLayerTableRecord
  2
0
 70
0
 62
7
  6
CONTINUOUS
390
F
  0
LAYER
  5
43
100
AcDbSymbolTableRecord
100
AcDbLayerTableRecord
  2
PROCEDURE
 70
0
 62
7
  6
CONTINUOUS
370
35
390
F
  0
LAYER
  5
44
100
AcDbSymbolTableRecord
100
AcDbLayerTableRecord
  2
PARAMS
 70
0
 62
7
  6
CONTINUOUS
370
13
390
F
  0
LAYER
  5
45
100
AcDbSymbolTableRecord
100
AcDbLayerTableRecord
  2
OUTLINE
 70
0
 62
7
  6
CONTINUOUS
370
13
390
F
  0
LAYER
  5
46
100
AcDbSymbolTableRecord
100
AcDbLayerTableRecord
  2
DETECTIONS
 70
0
 62
7
  6
CONTINUOUS
370
35
390
F
  0
LAYER
  5
47
100
AcDbSymbolTableRecord
100
AcDbLayerTableRecord
  2
HOME_SWS
 70
0
 62
7
  6
CONTINUOUS
370
13
390
F
  0
LAYER
  5
48
100
AcDbSymbolTableRecord
100
AcDbLayerTableRecord
  2
INDEX_PULSES
 70
0
 62
7
  6
CONTINUOUS
370
13
390
F
  0
LAYER
  5
49
100
AcDbSymbolTableRecord
100
AcDbLayerTableRecord
  2
DESCRIPTION
 70
0
 62
7
  6
CONTINUOUS
370
13
390
F
  0
LAYER
  5
4A
100
AcDbSymbolTableRecord
100
AcDbLayerTableRecord
  2
GAPS
 70
0
 62
7
  6
DOT
370
18
390
F
  0
ENDTAB
  0
TABLE
  2
STYLE
  5
3
100
AcDbSymbolTable
 70
1
  0
STYLE
  5
11
100
AcDbSymbolTableRecord
100
AcDbTextStyleTableRecord
  2
Standard
 70
0
 40
0.0
 41
0.75
 50
0.0
 71
0
 42
2.5
  3
txt
  4

  0
ENDTAB
  0
TABLE
  2
VIEW
  5
6
100
AcDbSymbolTable
 70
0
  0
ENDTAB
  0
TABLE
  2
UCS
  5
7
100
AcDbSymbolTable
 70
0
  0
ENDTAB
  0
TABLE
  2
APPID
  5
9
100
AcDbSymbolTable
 70
1
  0
APPID
  5
12
100
AcDbSymbolTableRecord
100
AcDbRegAppTableRecord
  2
ACAD
 70
0
  0
ENDTAB
  0
TABLE
  2
DIMSTYLE
  5
A
100
AcDbSymbolTable
 70
1
100
AcDbDimStyleTable
 71
0
  0
DIMSTYLE
105
27
100
AcDbSymbolTableRecord
100
AcDbDimStyleTableRecord
  2
Standard
 41
0.18
 42
0.0625
 43
3.75
 44
0.18
 70
0
 73
0
 74
0
 77
1
 78
8
140
0.18
141
2.5
143
0.03937007874016
147
0.09
171
3
172
1
271
2
272
2
274
3
278
44
283
0
284
8
340
11
  0
ENDTAB
  0
TABLE
  2
BLOCK_RECORD
  5
1
100
AcDbSymbolTable
 70
1
  0
BLOCK_RECORD
  5
1F
100
AcDbSymbolTableRecord
100
AcDbBlockTableRecord
  2
*Model_Space
340
22
  0
BLOCK_RECORD
  5
1B
100
AcDbSymbolTableRecord
100
AcDbBlockTableRecord
  2
*Paper_Space
340
1E
  0
BLOCK_RECORD
  5
23
100
AcDbSymbolTableRecord
100
AcDbBlockTableRecord
  2
*Paper_Space0
340
26
  0
ENDTAB
  0
ENDSEC
  0
SECTION
  2
BLOCKS
  0
BLOCK
  5
20
100
AcDbEntity
  8
0
100
AcDbBlockBegin
  2
*Model_Space
 70
0
 10
0.0
 20
0.0
 30
0.0
  3
*Model_Space
  1

  0
ENDBLK
  5
21
100
AcDbEntity
  8
0
100
AcDbBlockEnd
  0
BLOCK
  5
1C
100
AcDbEntity
 67
1
  8
0
100
AcDbBlockBegin
  2
*Paper_Space
 70
0
 10
0.0
 20
0.0
 30
0.0
  3
*Paper_Space
  1

  0
ENDBLK
  5
1D
100
AcDbEntity
 67
1
  8
0
100
AcDbBlockEnd
  0
BLOCK
  5
24
100
AcDbEntity
  8
0
100
AcDbBlockBegin
  2
*Paper_Space0
 70
0
 10
0.0
 20
0.0
 30
0.0
  3
*Paper_Space0
  1

  0
ENDBLK
  5
25
100
AcDbEntity
  8
0
100
AcDbBlockEnd
  0
ENDSEC
  0
SECTION
  2
ENTITIES
  0
LINE
  5
4B
100
AcDbEntity
100
AcDbLine
  8
PROCEDURE
 62
7
370
-1
  6
ByLayer
 10
-15.1500000000000004
 20
31.8000000000000007
 30
0.0
 11
-17.8000000000000007
 21
31.8000000000000007
 31
0.0
  0
LWPOLYLINE
  5
4C
  8
PROCEDURE
 62
7
370
-1
  6
ByLayer
100
AcDbEntity
100
AcDbPolyline
 90
4
 70
0
 10
-15.1500000000000004
 20
31.8000000000000007
 10
-15.3300000000000001
 20
31.8399999999999999
 10
-15.3300000000000001
 20
31.7600000000000016
 10
-15.1500000000000004
 20
31.8000000000000007
  0
LINE
  5
4D
100
AcDbEntity
100
AcDbLine
  8
PROCEDURE
 62
7
370
-1
  6
ByLayer
 10
-15.1500000000000004
 20
26.8000000000000007
 30
0.0
 11
-17.8000000000000007
 21
26.8000000000000007
 31
0.0
  0
LWPOLYLINE
  5
4E
  8
PROCEDURE
 62
7
370
-1
  6
ByLayer
100
AcDbEntity
100
AcDbPolyline
 90
4
 70
0
 10
-15.1500000000000004
 20
26.8000000000000007
 10
-15.3300000000000001
 20
26.8399999999999999
 10
-15.3300000000000001
 20
26.7600000000000016
 10
-15.1500000000000004
 20
26.8000000000000007
  0
LINE
  5
4F
100
AcDbEntity
100
AcDbLine
  8
PROCEDURE
 62
7
370
-1
  6
ByLayer
 10
-15.1500000000000004
 20
29.3500000000000014
 30
0.0
 11
-17.8000000000000007
 21
29.3500000000000014
 31
0.0
  0
LWPOLYLINE
  5
50
  8
PROCEDURE
 62
7
370
-1
  6
ByLayer
100
AcDbEntity
100
AcDbPolyline
 90
4
 70
0
 10
-15.1500000000000004
 20
29.3500000000000014
 10
-15.3300000000000001
 20
29.3900000000000006
 10
-15.3300000000000001
 20
29.3099999999999987
 10
-15.1500000000000004
 20
29.3500000000000014
  0
LINE
  5
51
100
AcDbEntity
100
AcDbLine
  8
PROCEDURE
 62
7
370
-1
  6
ByLayer
 10
-15.1500000000000004
 20
24.3500000000000014
 30
0.0
 11
-17.8000000000000007
 21
24.3500000000000014
 31
0.0
  0
LWPOLYLINE
  5
52
  8
PROCEDURE
 62
7
370
-1
  6
ByLayer
100
AcDbEntity
100
AcDbPolyline
 90
4
 70
0
 10
-15.1500000000000004
 20
24.3500000000000014
 10
-15.3300000000000001
 20
24.3900000000000006
 10
-15.3300000000000001
 20
24.3099999999999987
 10
-15.1500000000000004
 20
24.3500000000000014
  0
LINE
  5
53
100
AcDbEntity
100
AcDbLine
  8
PROCEDURE
 62
7
370
-1
  6
ByLayer
 10
-16.25
 20
31.5
 30
0.0
 11
-15.1500000000000004
 21
31.5
 31
0.0
  0
LWPOLYLINE
  5
54
  8
PROCEDURE
 62
7
370
-1
  6
ByLayer
100
AcDbEntity
100
AcDbPolyline
 90
4
 70
0
 10
-16.25
 20
31.5
 10
-16.0700000000000003
 20
31.4600000000000009
 10
-16.0700000000000003
 20
31.5399999999999991
 10
-16.25
 20
31.5
  0
LINE
  5
55
100
AcDbEntity
100
AcDbLine
  8
PROCEDURE
 62
7
370
-1
  6
ByLayer
 10
-16.4499999999999993
 20
26.5
 30
0.0
 11
-15.1500000000000004
 21
26.5
 31
0.0
  0
LWPOLYLINE
  5
56
  8
PROCEDURE
 62
7
370
-1
  6
ByLayer
100
AcDbEntity
100
AcDbPolyline
 90
4
 70
0
 10
-16.4499999999999993
 20
26.5
 10
-16.2699999999999996
 20
26.4600000000000009
 10
-16.2699999999999996
 20
26.5399999999999991
 10
-16.4499999999999993
 20
26.5
  0
LINE
  5
57
100
AcDbEntity
100
AcDbLine
  8
PROCEDURE
 62
7
370
-1
  6
ByLayer
 10
-16.3000000000000007
 20
29.0500000000000007
 30
0.0
 11
-15.1500000000000004
 21
29.0500000000000007
 31
0.0
  0
LWPOLYLINE
  5
58
  8
PROCEDURE
 62
7
370
-1
  6
ByLayer
100
AcDbEntity
100
AcDbPolyline
 90
4
 70
0
 10
-16.3000000000000007
 20
29.0500000000000007
 10
-16.120000000000001
 20
29.0100000000000016
 10
-16.120000000000001
 20
29.0899999999999999
 10
-16.3000000000000007
 20
29.0500000000000007
  0
LINE
  5
59
100
AcDbEntity
100
AcDbLine
  8
PROCEDURE
 62
7
370
-1
  6
ByLayer
 10
-16.3000000000000007
 20
24.0500000000000007
 30
0.0
 11
-15.1500000000000004
 21
24.0500000000000007
 31
0.0
  0
LWPOLYLINE
  5
5A
  8
PROCEDURE
 62
7
370
-1
  6
ByLayer
100
AcDbEntity
100
AcDbPolyline
 90
4
 70
0
 10
-16.3000000000000007
 20
24.0500000000000007
 10
-16.120000000000001
 20
24.0100000000000016
 10
-16.120000000000001
 20
24.0899999999999999
 10
-16.3000000000000007
 20
24.0500000000000007
  0
LINE
  5
5B
100
AcDbEntity
100
AcDbLine
  8
PROCEDURE
 62
7
370
-1
  6
ByLayer
 10
-15.4000000000000004
 20
28.75
 30
0.0
 11
-16.3000000000000007
 21
28.75
 31
0.0
  0
LWPOLYLINE
  5
5C
  8
PROCEDURE
 62
7
370
-1
  6
ByLayer
100
AcDbEntity
100
AcDbPolyline
 90
4
 70
0
 10
-15.4000000000000004
 20
28.75
 10
-15.5800000000000001
 20
28.7899999999999991
 10
-15.5800000000000001
 20
28.7100000000000009
 10
-15.4000000000000004
 20
28.75
  0
LINE
  5
5D
100
AcDbEntity
100
AcDbLine
  8
PROCEDURE
 62
7
370
-1
  6
ByLayer
 10
-15.3000000000000007
 20
23.75
 30
0.0
 11
-16.3000000000000007
 21
23.75
 31
0.0
  0
LWPOLYLINE
  5
5E
  8
PROCEDURE
 62
7
370
-1
  6
ByLayer
100
AcDbEntity
100
AcDbPolyline
 90
4
 70
0
 10
-15.3000000000000007
 20
23.75
 10
-15.4800000000000004
 20
23.7899999999999991
 10
-15.4800000000000004
 20
23.7100000000000009
 10
-15.3000000000000007
 20
23.75
  0
LINE
  5
5F
100
AcDbEntity
100
AcDbLine
  8
PROCEDURE
 62
7
370
-1
  6
ByLayer
 10
-18.3000000000000007
 20
31.1999999999999993
 30
0.0
 11
-16.25
 21
31.1999999999999993
 31
0.0
  0
LWPOLYLINE
  5
60
  8
PROCEDURE
 62
7
370
-1
  6
ByLayer
100
AcDbEntity
100
AcDbPolyline
 90
4
 70
0
 10
-18.3000000000000007
 20
31.1999999999999993
 10
-18.120000000000001
 20
31.1600000000000001
 10
-18.120000000000001
 20
31.2399999999999984
 10
-18.3000000000000007
 20
31.1999999999999993
  0
LINE
  5
61
100
AcDbEntity
100
AcDbLine
  8
PROCEDURE
 62
7
370
-1
  6
ByLayer
 10
-18.6499999999999986
 20
26.1999999999999993
 30
0.0
 11
-16.4499999999999993
 21
26.1999999999999993
 31
0.0
  0
LWPOLYLINE
  5
62
  8
PROCEDURE
 62
7
370
-1
  6
ByLayer
100
AcDbEntity
100
AcDbPolyline
 90
4
 70
0
 10
-18.6499999999999986
 20
26.1999999999999993
 10
-18.4699999999999989
 20
26.1600000000000001
 10
-18.4699999999999989
 20
26.2399999999999984
 10
-18.6499999999999986
 20
26.1999999999999993
  0
LINE
  5
63
100
AcDbEntity
100
AcDbLine
  8
PROCEDURE
 62
7
370
-1
  6
ByLayer
 10
-18.3000000000000007
 20
28.4499999999999993
 30
0.0
 11
-15.4000000000000004
 21
28.4499999999999993
 31
0.0
  0
LWPOLYLINE
  5
64
  8
PROCEDURE
 62
7
370
-1
  6
ByLayer
100
AcDbEntity
100
AcDbPolyline
 90
4
 70
0
 10
-18.3000000000000007
 20
28.4499999999999993
 10
-18.120000000000001
 20
28.4100000000000001
 10
-18.120000000000001
 20
28.4899999999999984
 10
-18.3000000000000007
 20
28.4499999999999993
  0
LINE
  5
65
100
AcDbEntity
100
AcDbLine
  8
PROCEDURE
 62
7
370
-1
  6
ByLayer
 10
-18.1499999999999986
 20
23.4499999999999993
 30
0.0
 11
-15.3000000000000007
 21
23.4499999999999993
 31
0.0
  0
LWPOLYLINE
  5
66
  8
PROCEDURE
 62
7
370
-1
  6
ByLayer
100
AcDbEntity
100
AcDbPolyline
 90
4
 70
0
 10
-18.1499999999999986
 20
23.4499999999999993
 10
-17.9699999999999989
 20
23.4100000000000001
 10
-17.9699999999999989
 20
23.4899999999999984
 10
-18.1499999999999986
 20
23.4499999999999993
  0
LINE
  5
67
100
AcDbEntity
100
AcDbLine
  8
PROCEDURE
 62
7
370
-1
  6
ByLayer
 10
-17.8000000000000007
 20
31.8000000000000007
 30
0.0
 11
-15.3000000000000007
 21
31.8000000000000007
 31
0.0
  0
LINE
  5
68
100
AcDbEntity
100
AcDbLine
  8
PROCEDURE
 62
7
370
-1
  6
ByLayer
 10
-17.8000000000000007
 20
26.8000000000000007
 30
0.0
 11
-15.3000000000000007
 21
26.8000000000000007
 31
0.0
  0
LINE
  5
69
100
AcDbEntity
100
AcDbLine
  8
PROCEDURE
 62
7
370
-1
  6
ByLayer
 10
-17.8000000000000007
 20
29.3500000000000014
 30
0.0
 11
-15.3000000000000007
 21
29.3500000000000014
 31
0.0
  0
LINE
  5
6A
100
AcDbEntity
100
AcDbLine
  8
PROCEDURE
 62
7
370
-1
  6
ByLayer
 10
-17.8000000000000007
 20
24.3500000000000014
 30
0.0
 11
-15.3000000000000007
 21
24.3500000000000014
 31
0.0
  0
LINE
  5
6B
100
AcDbEntity
100
AcDbLine
  8
PROCEDURE
 62
7
370
-1
  6
ByLayer
 10
-15.1500000000000004
 20
31.5
 30
0.0
 11
-16.0500000000000007
 21
31.5
 31
0.0
  0
LINE
  5
6C
100
AcDbEntity
100
AcDbLine
  8
PROCEDURE
 62
7
370
-1
  6
ByLayer
 10
-15.1500000000000004
 20
26.5
 30
0.0
 11
-16.25
 21
26.5
 31
0.0
  0
LINE
  5
6D
100
AcDbEntity
100
AcDbLine
  8
PROCEDURE
 62
7
370
-1
  6
ByLayer
 10
-15.1500000000000004
 20
29.0500000000000007
 30
0.0
 11
-16.1000000000000014
 21
29.0500000000000007
 31
0.0
  0
LINE
  5
6E
100
AcDbEntity
100
AcDbLine
  8
PROCEDURE
 62
7
370
-1
  6
ByLayer
 10
-15.1500000000000004
 20
24.0500000000000007
 30
0.0
 11
-16.1000000000000014
 21
24.0500000000000007
 31
0.0
  0
LINE
  5
6F
100
AcDbEntity
100
AcDbLine
  8
PROCEDURE
 62
7
370
-1
  6
ByLayer
 10
-15.5999999999999996
 20
28.75
 30
0.0
 11
-16.3000000000000007
 21
28.75
 31
0.0
  0
LINE
  5
70
100
AcDbEntity
100
AcDbLine
  8
PROCEDURE
 62
7
370
-1
  6
ByLayer
 10
-15.5
 20
23.75
 30
0.0
 11
-16.3000000000000007
 21
23.75
 31
0.0
  0
LINE
  5
71
100
AcDbEntity
100
AcDbLine
  8
PROCEDURE
 62
7
370
-1
  6
ByLayer
 10
-16.25
 20
31.1999999999999993
 30
0.0
 11
-18.1000000000000014
 21
31.1999999999999993
 31
0.0
  0
LINE
  5
72
100
AcDbEntity
100
AcDbLine
  8
PROCEDURE
 62
7
370
-1
  6
ByLayer
 10
-16.4499999999999993
 20
26.1999999999999993
 30
0.0
 11
-18.4499999999999993
 21
26.1999999999999993
 31
0.0
  0
LINE
  5
73
100
AcDbEntity
100
AcDbLine
  8
PROCEDURE
 62
7
370
-1
  6
ByLayer
 10
-15.4000000000000004
 20
28.4499999999999993
 30
0.0
 11
-18.1000000000000014
 21
28.4499999999999993
 31
0.0
  0
LINE
  5
74
100
AcDbEntity
100
AcDbLine
  8
PROCEDURE
 62
7
370
-1
  6
ByLayer
 10
-15.3000000000000007
 20
23.4499999999999993
 30
0.0
 11
-17.9499999999999993
 21
23.4499999999999993
 31
0.0
  0
LINE
  5
75
100
AcDbEntity
100
AcDbLine
  8
PROCEDURE
 62
7
370
-1
  6
ByLayer
 10
-18.3000000000000007
 20
31.3000000000000007
 30
0.0
 11
-18.3000000000000007
 21
31.0
 31
0.0
  0
LINE
  5
76
100
AcDbEntity
100
AcDbLine
  8
PROCEDURE
 62
7
370
-1
  6
ByLayer
 10
-18.6499999999999986
 20
26.3000000000000007
 30
0.0
 11
-18.6499999999999986
 21
25.8500000000000014
 31
0.0
  0
LINE
  5
77
100
AcDbEntity
100
AcDbLine
  8
PROCEDURE
 62
7
370
-1
  6
ByLayer
 10
-18.3000000000000007
 20
28.5500000000000007
 30
0.0
 11
-18.3000000000000007
 21
28.25
 31
0.0
  0
LINE
  5
78
100
AcDbEntity
100
AcDbLine
  8
PROCEDURE
 62
7
370
-1
  6
ByLayer
 10
-18.1499999999999986
 20
23.5500000000000007
 30
0.0
 11
-18.1499999999999986
 21
23.1000000000000014
 31
0.0
  0
MTEXT
  5
79
100
AcDbEntity
100
AcDbMText
  8
PROCEDURE
 62
7
370
-1
  6
ByLayer
 10
-18.1499999999999986
 20
23.0
 30
0.0
 40
0.08
 41
100.0
 71
5
 72
2
  1
1.000
  7
STYLE1
 50
0.0
 73
0
 44
1.0
  0
MTEXT
  5
7A
100
AcDbEntity
100
AcDbMText
  8
PROCEDURE
 62
7
370
-1
  6
ByLayer
 10
-18.3000000000000007
 20
30.8999999999999986
 30
0.0
 40
0.08
 41
100.0
 71
5
 72
2
  1
1.000
  7
STYLE1
 50
0.0
 73
0
 44
1.0
  0
MTEXT
  5
7B
100
AcDbEntity
100
AcDbMText
  8
PROCEDURE
 62
7
370
-1
  6
ByLayer
 10
-18.6499999999999986
 20
25.75
 30
0.0
 40
0.08
 41
100.0
 71
5
 72
2
  1
1.000
  7
STYLE1
 50
0.0
 73
0
 44
1.0
  0
MTEXT
  5
7C
100
AcDbEntity
100
AcDbMText
  8
PROCEDURE
 62
7
370
-1
  6
ByLayer
 10
-18.3000000000000007
 20
28.1499999999999986
 30
0.0
 40
0.08
 41
100.0
 71
5
 72
2
  1
1.000
  7
STYLE1
 50
0.0
 73
0
 44
1.0
  0
LINE
  5
7D
100
AcDbEntity
100
AcDbLine
  8
PROCEDURE
 62
7
370
-1
  6
ByLayer
 10
-19.0
 20
30.3000000000000007
 30
0.0
 11
-19.0
 21
30.3000000000000007
 31
0.0
  0
LINE
  5
7E
100
AcDbEntity
100
AcDbLine
  8
PROCEDURE
 62
7
370
-1
  6
ByLayer
 10
-19.0
 20
27.8000000000000007
 30
0.0
 11
-19.0
 21
27.8000000000000007
 31
0.0
  0
LINE
  5
7F
100
AcDbEntity
100
AcDbLine
  8
PROCEDURE
 62
7
370
-1
  6
ByLayer
 10
-19.0
 20
25.3000000000000007
 30
0.0
 11
-19.0
 21
25.3000000000000007
 31
0.0
  0
LINE
  5
80
100
AcDbEntity
100
AcDbLine
  8
PROCEDURE
 62
7
370
-1
  6
ByLayer
 10
-19.0
 20
22.8000000000000007
 30
0.0
 11
-19.0
 21
22.8000000000000007
 31
0.0
  0
LINE
  5
81
100
AcDbEntity
100
AcDbLine
  8
OUTLINE
 62
7
370
-1
  6
ByLayer
 10
-19.0
 20
30.3000000000000007
 30
0.0
 11
-19.0
 21
32.7999999999999972
 31
0.0
  0
LINE
  5
82
100
AcDbEntity
100
AcDbLine
  8
OUTLINE
 62
7
370
-1
  6
ByLayer
 10
-19.0
 20
32.7999999999999972
 30
0.0
 11
-12.0
 21
32.7999999999999972
 31
0.0
  0
LINE
  5
83
100
AcDbEntity
100
AcDbLine
  8
OUTLINE
 62
7
370
-1
  6
ByLayer
 10
-12.0
 20
32.7999999999999972
 30
0.0
 11
-12.0
 21
30.3000000000000007
 31
0.0
  0
LINE
  5
84
100
AcDbEntity
100
AcDbLine
  8
OUTLINE
 62
7
370
-1
  6
ByLayer
 10
-12.0
 20
30.3000000000000007
 30
0.0
 11
-19.0
 21
30.3000000000000007
 31
0.0
  0
LINE
  5
85
100
AcDbEntity
100
AcDbLine
  8
OUTLINE
 62
7
370
-1
  6
ByLayer
 10
-19.0
 20
27.8000000000000007
 30
0.0
 11
-19.0
 21
30.3000000000000007
 31
0.0
  0
LINE
  5
86
100
AcDbEntity
100
AcDbLine
  8
OUTLINE
 62
7
370
-1
  6
ByLayer
 10
-12.0
 20
30.3000000000000007
 30
0.0
 11
-12.0
 21
27.8000000000000007
 31
0.0
  0
LINE
  5
87
100
AcDbEntity
100
AcDbLine
  8
OUTLINE
 62
7
370
-1
  6
ByLayer
 10
-12.0
 20
27.8000000000000007
 30
0.0
 11
-19.0
 21
27.8000000000000007
 31
0.0
  0
LINE
  5
88
100
AcDbEntity
100
AcDbLine
  8
OUTLINE
 62
7
370
-1
  6
ByLayer
 10
-19.0
 20
25.3000000000000007
 30
0.0
 11
-19.0
 21
27.8000000000000007
 31
0.0
  0
LINE
  5
89
100
AcDbEntity
100
AcDbLine
  8
OUTLINE
 62
7
370
-1
  6
ByLayer
 10
-12.0
 20
27.8000000000000007
 30
0.0
 11
-12.0
 21
25.3000000000000007
 31
0.0
  0
LINE
  5
8A
100
AcDbEntity
100
AcDbLine
  8
OUTLINE
 62
7
370
-1
  6
ByLayer
 10
-12.0
 20
25.3000000000000007
 30
0.0
 11
-19.0
 21
25.3000000000000007
 31
0.0
  0
LINE
  5
8B
100
AcDbEntity
100
AcDbLine
  8
OUTLINE
 62
7
370
-1
  6
ByLayer
 10
-19.0
 20
22.8000000000000007
 30
0.0
 11
-19.0
 21
25.3000000000000007
 31
0.0
  0
LINE
  5
8C
100
AcDbEntity
100
AcDbLine
  8
OUTLINE
 62
7
370
-1
  6
ByLayer
 10
-12.0
 20
25.3000000000000007
 30
0.0
 11
-12.0
 21
22.8000000000000007
 31
0.0
  0
LINE
  5
8D
100
AcDbEntity
100
AcDbLine
  8
OUTLINE
 62
7
370
-1
  6
ByLayer
 10
-12.0
 20
22.8000000000000007
 30
0.0
 11
-19.0
 21
22.8000000000000007
 31
0.0
  0
MTEXT
  5
8E
100
AcDbEntity
100
AcDbMText
  8
PARAMS
 62
7
370
13
  6
ByLayer
 10
-18.6000000000000014
 20
32.4500000000000028
 30
0.0
 40
0.08
 41
100.0
 71
4
 72
2
  1
SEARCH_VEL\~=\~POSITIVE
  7
STYLE1
 50
0.0
 73
0
 44
1.0
  0
MTEXT
  5
8F
100
AcDbEntity
100
AcDbMText
  8
PARAMS
 62
7
370
13
  6
ByLayer
 10
-18.6000000000000014
 20
27.4499999999999993
 30
0.0
 40
0.08
 41
100.0
 71
4
 72
2
  1
SEARCH_VEL\~=\~POSITIVE
  7
STYLE1
 50
0.0
 73
0
 44
1.0
  0
MTEXT
  5
90
100
AcDbEntity
100
AcDbMText
  8
PARAMS
 62
7
370
13
  6
ByLayer
 10
-18.6000000000000014
 20
30.0
 30
0.0
 40
0.08
 41
100.0
 71
4
 72
2
  1
SEARCH_VEL\~=\~POSITIVE
  7
STYLE1
 50
0.0
 73
0
 44
1.0
  0
MTEXT
  5
91
100
AcDbEntity
100
AcDbMText
  8
PARAMS
 62
7
370
13
  6
ByLayer
 10
-18.6000000000000014
 20
25.0
 30
0.0
 40
0.08
 41
100.0
 71
4
 72
2
  1
SEARCH_VEL\~=\~POSITIVE
  7
STYLE1
 50
0.0
 73
0
 44
1.0
  0
MTEXT
  5
92
100
AcDbEntity
100
AcDbMText
  8
PARAMS
 62
7
370
13
  6
ByLayer
 10
-18.6000000000000014
 20
32.2999999999999972
 30
0.0
 40
0.08
 41
100.0
 71
4
 72
2
  1
LATCH_VEL\~=\~NEGATIVE
  7
STYLE1
 50
0.0
 73
0
 44
1.0
  0
MTEXT
  5
93
100
AcDbEntity
100
AcDbMText
  8
PARAMS
 62
7
370
13
  6
ByLayer
 10
-18.6000000000000014
 20
27.3000000000000007
 30
0.0
 40
0.08
 41
100.0
 71
4
 72
2
  1
LATCH_VEL\~=\~NEGATIVE
  7
STYLE1
 50
0.0
 73
0
 44
1.0
  0
MTEXT
  5
94
100
AcDbEntity
100
AcDbMText
  8
PARAMS
 62
7
370
13
  6
ByLayer
 10
-18.6000000000000014
 20
29.8500000000000014
 30
0.0
 40
0.08
 41
100.0
 71
4
 72
2
  1
LATCH_VEL\~=\~POSITIVE
  7
STYLE1
 50
0.0
 73
0
 44
1.0
  0
MTEXT
  5
95
100
AcDbEntity
100
AcDbMText
  8
PARAMS
 62
7
370
13
  6
ByLayer
 10
-18.6000000000000014
 20
24.8500000000000014
 30
0.0
 40
0.08
 41
100.0
 71
4
 72
2
  1
LATCH_VEL\~=\~POSITIVE
  7
STYLE1
 50
0.0
 73
0
 44
1.0
  0
MTEXT
  5
96
100
AcDbEntity
100
AcDbMText
  8
PARAMS
 62
7
370
13
  6
ByLayer
 10
-18.6000000000000014
 20
32.1499999999999986
 30
0.0
 40
0.08
 41
100.0
 71
4
 72
2
  1
USE_INDEX\~=\~FALSE
  7
STYLE1
 50
0.0
 73
0
 44
1.0
  0
MTEXT
  5
97
100
AcDbEntity
100
AcDbMText
  8
PARAMS
 62
7
370
13
  6
ByLayer
 10
-18.6000000000000014
 20
27.1499999999999986
 30
0.0
 40
0.08
 41
100.0
 71
4
 72
2
  1
USE_INDEX\~=\~TRUE
  7
STYLE1
 50
0.0
 73
0
 44
1.0
  0
MTEXT
  5
98
100
AcDbEntity
100
AcDbMText
  8
PARAMS
 62
7
370
13
  6
ByLayer
 10
-18.6000000000000014
 20
29.6999999999999993
 30
0.0
 40
0.08
 41
100.0
 71
4
 72
2
  1
USE_INDEX\~=\~FALSE
  7
STYLE1
 50
0.0
 73
0
 44
1.0
  0
MTEXT
  5
99
100
AcDbEntity
100
AcDbMText
  8
PARAMS
 62
7
370
13
  6
ByLayer
 10
-18.6000000000000014
 20
24.6999999999999993
 30
0.0
 40
0.08
 41
100.0
 71
4
 72
2
  1
USE_INDEX\~=\~TRUE
  7
STYLE1
 50
0.0
 73
0
 44
1.0
  0
MTEXT
  5
9A
100
AcDbEntity
100
AcDbMText
  8
PARAMS
 62
7
370
13
  6
ByLayer
 10
-17.0500000000000007
 20
25.0
 30
0.0
 40
0.08
 41
100.0
 71
4
 72
2
  1
HOME_OFFSET\~=\~3.000
  7
STYLE1
 50
0.0
 73
0
 44
1.0
  0
MTEXT
  5
9B
100
AcDbEntity
100
AcDbMText
  8
PARAMS
 62
7
370
13
  6
ByLayer
 10
-17.0500000000000007
 20
32.4500000000000028
 30
0.0
 40
0.08
 41
100.0
 71
4
 72
2
  1
HOME_OFFSET\~=\~3.000
  7
STYLE1
 50
0.0
 73
0
 44
1.0
  0
MTEXT
  5
9C
100
AcDbEntity
100
AcDbMText
  8
PARAMS
 62
7
370
13
  6
ByLayer
 10
-17.0500000000000007
 20
27.4499999999999993
 30
0.0
 40
0.08
 41
100.0
 71
4
 72
2
  1
HOME_OFFSET\~=\~3.000
  7
STYLE1
 50
0.0
 73
0
 44
1.0
  0
MTEXT
  5
9D
100
AcDbEntity
100
AcDbMText
  8
PARAMS
 62
7
370
13
  6
ByLayer
 10
-17.0500000000000007
 20
30.0
 30
0.0
 40
0.08
 41
100.0
 71
4
 72
2
  1
HOME_OFFSET\~=\~3.000
  7
STYLE1
 50
0.0
 73
0
 44
1.0
  0
MTEXT
  5
9E
100
AcDbEntity
100
AcDbMText
  8
PARAMS
 62
7
370
13
  6
ByLayer
 10
-17.0500000000000007
 20
24.8500000000000014
 30
0.0
 40
0.08
 41
100.0
 71
4
 72
2
  1
HOME\~=\~1.000
  7
STYLE1
 50
0.0
 73
0
 44
1.0
  0
MTEXT
  5
9F
100
AcDbEntity
100
AcDbMText
  8
PARAMS
 62
7
370
13
  6
ByLayer
 10
-17.0500000000000007
 20
32.2999999999999972
 30
0.0
 40
0.08
 41
100.0
 71
4
 72
2
  1
HOME\~=\~1.000
  7
STYLE1
 50
0.0
 73
0
 44
1.0
  0
MTEXT
  5
A0
100
AcDbEntity
100
AcDbMText
  8
PARAMS
 62
7
370
13
  6
ByLayer
 10
-17.0500000000000007
 20
27.3000000000000007
 30
0.0
 40
0.08
 41
100.0
 71
4
 72
2
  1
HOME\~=\~1.000
  7
STYLE1
 50
0.0
 73
0
 44
1.0
  0
MTEXT
  5
A1
100
AcDbEntity
100
AcDbMText
  8
PARAMS
 62
7
370
13
  6
ByLayer
 10
-17.0500000000000007
 20
29.8500000000000014
 30
0.0
 40
0.08
 41
100.0
 71
4
 72
2
  1
HOME\~=\~1.000
  7
STYLE1
 50
0.0
 73
0
 44
1.0
  0
LINE
  5
A2
100
AcDbEntity
100
AcDbLine
  8
HOME_SWS
 62
7
370
13
  6
ByLayer
 10
-15.9000000000000004
 20
32.1000000000000014
 30
0.0
 11
-15.9000000000000004
 21
31.0
 31
0.0
  0
LINE
  5
A3
100
AcDbEntity
100
AcDbLine
  8
HOME_SWS
 62
7
370
13
  6
ByLayer
 10
-15.75
 20
32.1000000000000014
 30
0.0
 11
-15.75
 21
31.3999999999999986
 31
0.0
  0
LINE
  5
A4
100
AcDbEntity
100
AcDbLine
  8
HOME_SWS
 62
7
370
13
  6
ByLayer
 10
-15.9000000000000004
 20
27.0
 30
0.0
 11
-15.9000000000000004
 21
26.3999999999999986
 31
0.0
  0
LINE
  5
A5
100
AcDbEntity
100
AcDbLine
  8
HOME_SWS
 62
7
370
13
  6
ByLayer
 10
-15.75
 20
27.0
 30
0.0
 11
-15.75
 21
26.3999999999999986
 31
0.0
  0
LINE
  5
A6
100
AcDbEntity
100
AcDbLine
  8
HOME_SWS
 62
7
370
13
  6
ByLayer
 10
-15.9000000000000004
 20
29.5500000000000007
 30
0.0
 11
-15.9000000000000004
 21
28.6499999999999986
 31
0.0
  0
LINE
  5
A7
100
AcDbEntity
100
AcDbLine
  8
HOME_SWS
 62
7
370
13
  6
ByLayer
 10
-15.75
 20
29.5500000000000007
 30
0.0
 11
-15.75
 21
28.25
 31
0.0
  0
LINE
  5
A8
100
AcDbEntity
100
AcDbLine
  8
HOME_SWS
 62
7
370
13
  6
ByLayer
 10
-15.9000000000000004
 20
24.5500000000000007
 30
0.0
 11
-15.9000000000000004
 21
23.6499999999999986
 31
0.0
  0
LINE
  5
A9
100
AcDbEntity
100
AcDbLine
  8
HOME_SWS
 62
7
370
13
  6
ByLayer
 10
-15.75
 20
24.5500000000000007
 30
0.0
 11
-15.75
 21
23.6499999999999986
 31
0.0
  0
LWPOLYLINE
  5
AA
  8
HOME_SWS
 62
7
370
13
  6
ByLayer
100
AcDbEntity
100
AcDbPolyline
 90
3
 70
0
 10
-15.7302320000000009
 20
32.1292809999999989
 10
-15.6500000000000004
 20
32.25
 10
-15.4499999999999993
 20
32.25
  0
LWPOLYLINE
  5
AB
  8
HOME_SWS
 62
7
370
13
  6
ByLayer
100
AcDbEntity
100
AcDbPolyline
 90
4
 70
0
 10
-15.7302320000000009
 20
32.1292809999999989
 10
-15.6785309999999996
 20
32.1789690000000022
 10
-15.7044409999999992
 20
32.1961900000000014
 10
-15.7302320000000009
 20
32.1292809999999989
  0
LWPOLYLINE
  5
AC
  8
HOME_SWS
 62
7
370
13
  6
ByLayer
100
AcDbEntity
100
AcDbPolyline
 90
3
 70
0
 10
-15.7302320000000009
 20
27.029281000000001
 10
-15.6500000000000004
 20
27.1499999999999986
 10
-15.4499999999999993
 20
27.1499999999999986
  0
LWPOLYLINE
  5
AD
  8
HOME_SWS
 62
7
370
13
  6
ByLayer
100
AcDbEntity
100
AcDbPolyline
 90
4
 70
0
 10
-15.7302320000000009
 20
27.029281000000001
 10
-15.6785309999999996
 20
27.0789690000000007
 10
-15.7044409999999992
 20
27.09619
 10
-15.7302320000000009
 20
27.029281000000001
  0
LWPOLYLINE
  5
AE
  8
HOME_SWS
 62
7
370
13
  6
ByLayer
100
AcDbEntity
100
AcDbPolyline
 90
3
 70
0
 10
-15.7302320000000009
 20
29.5792810000000017
 10
-15.6500000000000004
 20
29.6999999999999993
 10
-15.4499999999999993
 20
29.6999999999999993
  0
LWPOLYLINE
  5
AF
  8
HOME_SWS
 62
7
370
13
  6
ByLayer
100
AcDbEntity
100
AcDbPolyline
 90
4
 70
0
 10
-15.7302320000000009
 20
29.5792810000000017
 10
-15.6785309999999996
 20
29.6289690000000014
 10
-15.7044409999999992
 20
29.6461900000000007
 10
-15.7302320000000009
 20
29.5792810000000017
  0
LWPOLYLINE
  5
B0
  8
HOME_SWS
 62
7
370
13
  6
ByLayer
100
AcDbEntity
100
AcDbPolyline
 90
3
 70
0
 10
-15.7302320000000009
 20
24.5792810000000017
 10
-15.6500000000000004
 20
24.6999999999999993
 10
-15.4499999999999993
 20
24.6999999999999993
  0
LWPOLYLINE
  5
B1
  8
HOME_SWS
 62
7
370
13
  6
ByLayer
100
AcDbEntity
100
AcDbPolyline
 90
4
 70
0
 10
-15.7302320000000009
 20
24.5792810000000017
 10
-15.6785309999999996
 20
24.6289690000000014
 10
-15.7044409999999992
 20
24.6461900000000007
 10
-15.7302320000000009
 20
24.5792810000000017
  0
MTEXT
  5
B2
100
AcDbEntity
100
AcDbMText
  8
HOME_SWS
 62
7
370
13
  6
ByLayer
 10
-15.4000000000000004
 20
32.25
 30
0.0
 40
0.08
 41
100.0
 71
4
 72
2
  1
HOME\~SWITCH\~TRIPS
  7
STYLE1
 50
0.0
 73
0
 44
1.0
  0
MTEXT
  5
B3
100
AcDbEntity
100
AcDbMText
  8
HOME_SWS
 62
7
370
13
  6
ByLayer
 10
-15.4000000000000004
 20
27.1499999999999986
 30
0.0
 40
0.08
 41
100.0
 71
4
 72
2
  1
HOME\~SWITCH\~TRIPS
  7
STYLE1
 50
0.0
 73
0
 44
1.0
  0
MTEXT
  5
B4
100
AcDbEntity
100
AcDbMText
  8
HOME_SWS
 62
7
370
13
  6
ByLayer
 10
-15.4000000000000004
 20
29.6999999999999993
 30
0.0
 40
0.08
 41
100.0
 71
4
 72
2
  1
HOME\~SWITCH\~TRIPS
  7
STYLE1
 50
0.0
 73
0
 44
1.0
  0
MTEXT
  5
B5
100
AcDbEntity
100
AcDbMText
  8
HOME_SWS
 62
7
370
13
  6
ByLayer
 10
-15.4000000000000004
 20
24.6999999999999993
 30
0.0
 40
0.08
 41
100.0
 71
4
 72
2
  1
HOME\~SWITCH\~TRIPS
  7
STYLE1
 50
0.0
 73
0
 44
1.0
  0
MTEXT
  5
B6
100
AcDbEntity
100
AcDbMText
  8
HOME_SWS
 62
7
370
13
  6
ByLayer
 10
-15.9000000000000004
 20
30.8999999999999986
 30
0.0
 40
0.08
 41
100.0
 71
5
 72
2
  1
3.000
  7
STYLE1
 50
0.0
 73
0
 44
1.0
  0
MTEXT
  5
B7
100
AcDbEntity
100
AcDbMText
  8
HOME_SWS
 62
7
370
13
  6
ByLayer
 10
-15.75
 20
28.1499999999999986
 30
0.0
 40
0.08
 41
100.0
 71
5
 72
2
  1
3.000
  7
STYLE1
 50
0.0
 73
0
 44
1.0
  0
LWPOLYLINE
  5
B8
  8
HOME_SWS
 62
7
370
13
  6
ByLayer
100
AcDbEntity
100
AcDbPolyline
 90
3
 70
0
 10
-15.8773909999999994
 20
27.0293519999999994
 10
-15.6999999999999993
 20
27.3000000000000007
 10
-15.5
 20
27.3000000000000007
  0
LWPOLYLINE
  5
B9
  8
HOME_SWS
 62
7
370
13
  6
ByLayer
100
AcDbEntity
100
AcDbPolyline
 90
4
 70
0
 10
-15.8773909999999994
 20
27.0293519999999994
 10
-15.8260079999999999
 20
27.0793700000000008
 10
-15.8520280000000007
 20
27.096423999999999
 10
-15.8773909999999994
 20
27.0293519999999994
  0
LWPOLYLINE
  5
BA
  8
HOME_SWS
 62
7
370
13
  6
ByLayer
100
AcDbEntity
100
AcDbPolyline
 90
3
 70
0
 10
-15.8773909999999994
 20
29.5793520000000001
 10
-15.6999999999999993
 20
29.8500000000000014
 10
-15.5
 20
29.8500000000000014
  0
LWPOLYLINE
  5
BB
  8
HOME_SWS
 62
7
370
13
  6
ByLayer
100
AcDbEntity
100
AcDbPolyline
 90
4
 70
0
 10
-15.8773909999999994
 20
29.5793520000000001
 10
-15.8260079999999999
 20
29.6293700000000015
 10
-15.8520280000000007
 20
29.6464239999999997
 10
-15.8773909999999994
 20
29.5793520000000001
  0
LWPOLYLINE
  5
BC
  8
HOME_SWS
 62
7
370
13
  6
ByLayer
100
AcDbEntity
100
AcDbPolyline
 90
3
 70
0
 10
-15.8773909999999994
 20
32.1293519999999972
 10
-15.6999999999999993
 20
32.3999999999999986
 10
-15.5
 20
32.3999999999999986
  0
LWPOLYLINE
  5
BD
  8
HOME_SWS
 62
7
370
13
  6
ByLayer
100
AcDbEntity
100
AcDbPolyline
 90
4
 70
0
 10
-15.8773909999999994
 20
32.1293519999999972
 10
-15.8260079999999999
 20
32.1793699999999987
 10
-15.8520280000000007
 20
32.1964240000000004
 10
-15.8773909999999994
 20
32.1293519999999972
  0
LWPOLYLINE
  5
BE
  8
HOME_SWS
 62
7
370
13
  6
ByLayer
100
AcDbEntity
100
AcDbPolyline
 90
3
 70
0
 10
-15.8773909999999994
 20
24.5793520000000001
 10
-15.6999999999999993
 20
24.8500000000000014
 10
-15.5
 20
24.8500000000000014
  0
LWPOLYLINE
  5
BF
  8
HOME_SWS
 62
7
370
13
  6
ByLayer
100
AcDbEntity
100
AcDbPolyline
 90
4
 70
0
 10
-15.8773909999999994
 20
24.5793520000000001
 10
-15.8260079999999999
 20
24.6293700000000015
 10
-15.8520280000000007
 20
24.6464239999999997
 10
-15.8773909999999994
 20
24.5793520000000001
  0
MTEXT
  5
C0
100
AcDbEntity
100
AcDbMText
  8
HOME_SWS
 62
7
370
13
  6
ByLayer
 10
-15.4499999999999993
 20
27.3000000000000007
 30
0.0
 40
0.08
 41
100.0
 71
4
 72
2
  1
HOME\~SWITCH\~RELEASES
  7
STYLE1
 50
0.0
 73
0
 44
1.0
  0
MTEXT
  5
C1
100
AcDbEntity
100
AcDbMText
  8
HOME_SWS
 62
7
370
13
  6
ByLayer
 10
-15.4499999999999993
 20
29.8500000000000014
 30
0.0
 40
0.08
 41
100.0
 71
4
 72
2
  1
HOME\~SWITCH\~RELEASES
  7
STYLE1
 50
0.0
 73
0
 44
1.0
  0
MTEXT
  5
C2
100
AcDbEntity
100
AcDbMText
  8
HOME_SWS
 62
7
370
13
  6
ByLayer
 10
-15.4499999999999993
 20
32.3999999999999986
 30
0.0
 40
0.08
 41
100.0
 71
4
 72
2
  1
HOME\~SWITCH\~RELEASES
  7
STYLE1
 50
0.0
 73
0
 44
1.0
  0
MTEXT
  5
C3
100
AcDbEntity
100
AcDbMText
  8
HOME_SWS
 62
7
370
13
  6
ByLayer
 10
-15.4499999999999993
 20
24.8500000000000014
 30
0.0
 40
0.08
 41
100.0
 71
4
 72
2
  1
HOME\~SWITCH\~RELEASES
  7
STYLE1
 50
0.0
 73
0
 44
1.0
  0
LINE
  5
C4
100
AcDbEntity
100
AcDbLine
  8
INDEX_PULSES
 62
7
370
13
  6
ByLayer
 10
-15.0999999999999996
 20
26.0500000000000007
 30
0.0
 11
-15.0999999999999996
 21
25.9499999999999993
 31
0.0
  0
LINE
  5
C5
100
AcDbEntity
100
AcDbLine
  8
INDEX_PULSES
 62
7
370
13
  6
ByLayer
 10
-15.0999999999999996
 20
23.3000000000000007
 30
0.0
 11
-15.0999999999999996
 21
23.1999999999999993
 31
0.0
  0
LINE
  5
C6
100
AcDbEntity
100
AcDbLine
  8
INDEX_PULSES
 62
7
370
13
  6
ByLayer
 10
-15.5999999999999996
 20
26.0500000000000007
 30
0.0
 11
-15.5999999999999996
 21
25.9499999999999993
 31
0.0
  0
LINE
  5
C7
100
AcDbEntity
100
AcDbLine
  8
INDEX_PULSES
 62
7
370
13
  6
ByLayer
 10
-15.5999999999999996
 20
23.8500000000000014
 30
0.0
 11
-15.5999999999999996
 21
23.1000000000000014
 31
0.0
  0
LINE
  5
C8
100
AcDbEntity
100
AcDbLine
  8
INDEX_PULSES
 62
7
370
13
  6
ByLayer
 10
-16.1000000000000014
 20
26.6000000000000014
 30
0.0
 11
-16.1000000000000014
 21
25.8500000000000014
 31
0.0
  0
LINE
  5
C9
100
AcDbEntity
100
AcDbLine
  8
INDEX_PULSES
 62
7
370
13
  6
ByLayer
 10
-16.1000000000000014
 20
23.3000000000000007
 30
0.0
 11
-16.1000000000000014
 21
23.1999999999999993
 31
0.0
  0
LINE
  5
CA
100
AcDbEntity
100
AcDbLine
  8
INDEX_PULSES
 62
7
370
13
  6
ByLayer
 10
-16.6000000000000014
 20
26.0500000000000007
 30
0.0
 11
-16.6000000000000014
 21
25.9499999999999993
 31
0.0
  0
LINE
  5
CB
100
AcDbEntity
100
AcDbLine
  8
INDEX_PULSES
 62
7
370
13
  6
ByLayer
 10
-16.6000000000000014
 20
23.3000000000000007
 30
0.0
 11
-16.6000000000000014
 21
23.1999999999999993
 31
0.0
  0
LINE
  5
CC
100
AcDbEntity
100
AcDbLine
  8
INDEX_PULSES
 62
7
370
13
  6
ByLayer
 10
-17.1000000000000014
 20
26.0500000000000007
 30
0.0
 11
-17.1000000000000014
 21
25.9499999999999993
 31
0.0
  0
LINE
  5
CD
100
AcDbEntity
100
AcDbLine
  8
INDEX_PULSES
 62
7
370
13
  6
ByLayer
 10
-17.1000000000000014
 20
23.3000000000000007
 30
0.0
 11
-17.1000000000000014
 21
23.1999999999999993
 31
0.0
  0
LINE
  5
CE
100
AcDbEntity
100
AcDbLine
  8
INDEX_PULSES
 62
7
370
13
  6
ByLayer
 10
-17.6000000000000014
 20
26.0500000000000007
 30
0.0
 11
-17.6000000000000014
 21
25.9499999999999993
 31
0.0
  0
LINE
  5
CF
100
AcDbEntity
100
AcDbLine
  8
INDEX_PULSES
 62
7
370
13
  6
ByLayer
 10
-17.6000000000000014
 20
23.3000000000000007
 30
0.0
 11
-17.6000000000000014
 21
23.1999999999999993
 31
0.0
  0
MTEXT
  5
D0
100
AcDbEntity
100
AcDbMText
  8
INDEX_PULSES
 62
7
370
13
  6
ByLayer
 10
-15.3000000000000007
 20
25.6999999999999993
 30
0.0
 40
0.08
 41
100.0
 71
4
 72
2
  1
INDEX\~PULSES
  7
STYLE1
 50
0.0
 73
0
 44
1.0
  0
MTEXT
  5
D1
100
AcDbEntity
100
AcDbMText
  8
INDEX_PULSES
 62
7
370
13
  6
ByLayer
 10
-14.8000000000000007
 20
22.9499999999999993
 30
0.0
 40
0.08
 41
100.0
 71
4
 72
2
  1
INDEX\~PULSES
  7
STYLE1
 50
0.0
 73
0
 44
1.0
  0
LWPOLYLINE
  5
D2
  8
INDEX_PULSES
 62
7
370
13
  6
ByLayer
100
AcDbEntity
100
AcDbPolyline
 90
2
 70
0
 10
-16.0721260000000008
 20
25.9451180000000008
 10
-15.3000000000000007
 20
25.6999999999999993
  0
LWPOLYLINE
  5
D3
  8
INDEX_PULSES
 62
7
370
13
  6
ByLayer
100
AcDbEntity
100
AcDbPolyline
 90
4
 70
0
 10
-16.0721260000000008
 20
25.9451180000000008
 10
-16.0101140000000015
 20
25.9091109999999993
 10
-16.0007009999999994
 20
25.938763999999999
 10
-16.0721260000000008
 20
25.9451180000000008
  0
LWPOLYLINE
  5
D4
  8
INDEX_PULSES
 62
7
370
13
  6
ByLayer
100
AcDbEntity
100
AcDbPolyline
 90
2
 70
0
 10
-15.5721260000000008
 20
23.1951180000000008
 10
-14.8000000000000007
 20
22.9499999999999993
  0
LWPOLYLINE
  5
D5
  8
INDEX_PULSES
 62
7
370
13
  6
ByLayer
100
AcDbEntity
100
AcDbPolyline
 90
4
 70
0
 10
-15.5721260000000008
 20
23.1951180000000008
 10
-15.5101139999999997
 20
23.1591109999999993
 10
-15.5007009999999994
 20
23.188763999999999
 10
-15.5721260000000008
 20
23.1951180000000008
  0
LWPOLYLINE
  5
D6
  8
INDEX_PULSES
 62
7
370
13
  6
ByLayer
100
AcDbEntity
100
AcDbPolyline
 90
2
 70
0
 10
-15.5699710000000007
 20
25.9307480000000012
 10
-15.3000000000000007
 20
25.6999999999999993
  0
LWPOLYLINE
  5
D7
  8
INDEX_PULSES
 62
7
370
13
  6
ByLayer
100
AcDbEntity
100
AcDbPolyline
 90
4
 70
0
 10
-15.5699710000000007
 20
25.9307480000000012
 10
-15.5268660000000001
 20
25.8734420000000007
 10
-15.5066520000000008
 20
25.8970920000000007
 10
-15.5699710000000007
 20
25.9307480000000012
  0
LWPOLYLINE
  5
D8
  8
INDEX_PULSES
 62
7
370
13
  6
ByLayer
100
AcDbEntity
100
AcDbPolyline
 90
2
 70
0
 10
-15.0699710000000007
 20
23.1807480000000012
 10
-14.8000000000000007
 20
22.9499999999999993
  0
LWPOLYLINE
  5
D9
  8
INDEX_PULSES
 62
7
370
13
  6
ByLayer
100
AcDbEntity
100
AcDbPolyline
 90
4
 70
0
 10
-15.0699710000000007
 20
23.1807480000000012
 10
-15.0268660000000001
 20
23.1234420000000007
 10
-15.0066520000000008
 20
23.1470920000000007
 10
-15.0699710000000007
 20
23.1807480000000012
  0
MTEXT
  5
DA
100
AcDbEntity
100
AcDbMText
  8
INDEX_PULSES
 62
7
370
13
  6
ByLayer
 10
-15.5999999999999996
 20
23.0
 30
0.0
 40
0.08
 41
100.0
 71
5
 72
2
  1
3.000
  7
STYLE1
 50
0.0
 73
0
 44
1.0
  0
MTEXT
  5
DB
100
AcDbEntity
100
AcDbMText
  8
INDEX_PULSES
 62
7
370
13
  6
ByLayer
 10
-16.1000000000000014
 20
25.75
 30
0.0
 40
0.08
 41
100.0
 71
5
 72
2
  1
3.000
  7
STYLE1
 50
0.0
 73
0
 44
1.0
  0
MTEXT
  5
DC
100
AcDbEntity
100
AcDbMText
  8
DESCRIPTION
 62
7
370
-1
  6
ByLayer
 10
-15.0
 20
31.8000000000000007
 30
0.0
 40
0.08
 41
100.0
 71
4
 72
2
  1
SEARCH\~FOR\~HOME\~SWITCH\~(SEARCH_VEL)
  7
STYLE1
 50
0.0
 73
0
 44
1.0
  0
MTEXT
  5
DD
100
AcDbEntity
100
AcDbMText
  8
DESCRIPTION
 62
7
370
-1
  6
ByLayer
 10
-15.0
 20
26.8000000000000007
 30
0.0
 40
0.08
 41
100.0
 71
4
 72
2
  1
SEARCH\~FOR\~HOME\~SWITCH\~(SEARCH_VEL)
  7
STYLE1
 50
0.0
 73
0
 44
1.0
  0
MTEXT
  5
DE
100
AcDbEntity
100
AcDbMText
  8
DESCRIPTION
 62
7
370
-1
  6
ByLayer
 10
-15.0
 20
29.3500000000000014
 30
0.0
 40
0.08
 41
100.0
 71
4
 72
2
  1
SEARCH\~FOR\~HOME\~SWITCH\~(SEARCH_VEL)
  7
STYLE1
 50
0.0
 73
0
 44
1.0
  0
MTEXT
  5
DF
100
AcDbEntity
100
AcDbMText
  8
DESCRIPTION
 62
7
370
-1
  6
ByLayer
 10
-15.0
 20
24.3500000000000014
 30
0.0
 40
0.08
 41
100.0
 71
4
 72
2
  1
SEARCH\~FOR\~HOME\~SWITCH\~(SEARCH_VEL)
  7
STYLE1
 50
0.0
 73
0
 44
1.0
  0
MTEXT
  5
E0
100
AcDbEntity
100
AcDbMText
  8
DESCRIPTION
 62
7
370
-1
  6
ByLayer
 10
-15.0
 20
29.0500000000000007
 30
0.0
 40
0.08
 41
100.0
 71
4
 72
2
  1
BACK\~OFF\~OF\~HOME\~SWITCH\~(SEARCH_VEL)
  7
STYLE1
 50
0.0
 73
0
 44
1.0
  0
MTEXT
  5
E1
100
AcDbEntity
100
AcDbMText
  8
DESCRIPTION
 62
7
370
-1
  6
ByLayer
 10
-15.0
 20
24.0500000000000007
 30
0.0
 40
0.08
 41
100.0
 71
4
 72
2
  1
BACK\~OFF\~OF\~HOME\~SWITCH\~(SEARCH_VEL)
  7
STYLE1
 50
0.0
 73
0
 44
1.0
  0
MTEXT
  5
E2
100
AcDbEntity
100
AcDbMText
  8
DESCRIPTION
 62
7
370
-1
  6
ByLayer
 10
-15.0
 20
31.5
 30
0.0
 40
0.08
 41
100.0
 71
4
 72
2
  1
FINAL\~DETECTION\~OF\~SWITCH\~(LATCH_VEL)
  7
STYLE1
 50
0.0
 73
0
 44
1.0
  0
MTEXT
  5
E3
100
AcDbEntity
100
AcDbMText
  8
DESCRIPTION
 62
7
370
-1
  6
ByLayer
 10
-15.0
 20
26.5599999999999987
 30
0.0
 40
0.08
 41
100.0
 71
4
 72
2
  1
FINAL\~DETECTION\~OF\~SWITCH\~AND
  7
STYLE1
 50
0.0
 73
0
 44
1.0
  0
MTEXT
  5
E4
100
AcDbEntity
100
AcDbMText
  8
DESCRIPTION
 62
7
370
-1
  6
ByLayer
 10
-15.0
 20
26.4400000000000013
 30
0.0
 40
0.08
 41
100.0
 71
4
 72
2
  1
INDEX\~PULSE\~(LATCH_VEL)
  7
STYLE1
 50
0.0
 73
0
 44
1.0
  0
MTEXT
  5
E5
100
AcDbEntity
100
AcDbMText
  8
DESCRIPTION
 62
7
370
-1
  6
ByLayer
 10
-15.0
 20
28.75
 30
0.0
 40
0.08
 41
100.0
 71
4
 72
2
  1
FINAL\~DETECTION\~OF\~SWITCH\~(LATCH_VEL)
  7
STYLE1
 50
0.0
 73
0
 44
1.0
  0
MTEXT
  5
E6
100
AcDbEntity
100
AcDbMText
  8
DESCRIPTION
 62
7
370
-1
  6
ByLayer
 10
-15.0
 20
23.8099999999999987
 30
0.0
 40
0.08
 41
100.0
 71
4
 72
2
  1
FINAL\~DETECTION\~OF\~SWITCH\~AND
  7
STYLE1
 50
0.0
 73
0
 44
1.0
  0
MTEXT
  5
E7
100
AcDbEntity
100
AcDbMText
  8
DESCRIPTION
 62
7
370
-1
  6
ByLayer
 10
-15.0
 20
23.6900000000000013
 30
0.0
 40
0.08
 41
100.0
 71
4
 72
2
  1
INDEX\~PULSE\~(LATCH_VEL)
  7
STYLE1
 50
0.0
 73
0
 44
1.0
  0
MTEXT
  5
E8
100
AcDbEntity
100
AcDbMText
  8
DESCRIPTION
 62
7
370
-1
  6
ByLayer
 10
-15.0
 20
31.1999999999999993
 30
0.0
 40
0.08
 41
100.0
 71
4
 72
2
  1
GO\~TO\~HOME\~POSITION\~(MAX_VEL)
  7
STYLE1
 50
0.0
 73
0
 44
1.0
  0
MTEXT
  5
E9
100
AcDbEntity
100
AcDbMText
  8
DESCRIPTION
 62
7
370
-1
  6
ByLayer
 10
-15.0
 20
26.1999999999999993
 30
0.0
 40
0.08
 41
100.0
 71
4
 72
2
  1
GO\~TO\~HOME\~POSITION\~(MAX_VEL)
  7
STYLE1
 50
0.0
 73
0
 44
1.0
  0
MTEXT
  5
EA
100
AcDbEntity
100
AcDbMText
  8
DESCRIPTION
 62
7
370
-1
  6
ByLayer
 10
-15.0
 20
28.4499999999999993
 30
0.0
 40
0.08
 41
100.0
 71
4
 72
2
  1
GO\~TO\~HOME\~POSITION\~(MAX_VEL)
  7
STYLE1
 50
0.0
 73
0
 44
1.0
  0
MTEXT
  5
EB
100
AcDbEntity
100
AcDbMText
  8
DESCRIPTION
 62
7
370
-1
  6
ByLayer
 10
-15.0
 20
23.4499999999999993
 30
0.0
 40
0.08
 41
100.0
 71
4
 72
2
  1
GO\~TO\~HOME\~POSITION\~(MAX_VEL)
  7
STYLE1
 50
0.0
 73
0
 44
1.0
  0
LWPOLYLINE
  5
EC
  8
DESCRIPTION
 62
7
370
-1
  6
ByLayer
100
AcDbEntity
100
AcDbPolyline
 90
3
 70
0
 10
-15.5
 20
31.8999999999999986
 10
-15.3499999999999996
 20
32.0499999999999972
 10
-15.1999999999999993
 20
32.0499999999999972
  0
LWPOLYLINE
  5
ED
  8
DESCRIPTION
 62
7
370
-1
  6
ByLayer
100
AcDbEntity
100
AcDbPolyline
 90
4
 70
0
 10
-15.5
 20
31.8999999999999986
 10
-15.4395030000000002
 20
31.9384979999999992
 10
-15.4615019999999994
 20
31.9604970000000002
 10
-15.5
 20
31.8999999999999986
  0
MTEXT
  5
EE
100
AcDbEntity
100
AcDbMText
  8
DESCRIPTION
 62
7
370
-1
  6
ByLayer
 10
-15.1500000000000004
 20
32.0499999999999972
 30
0.0
 40
0.08
 41
100.0
 71
4
 72
2
  1
OVERSHOOT
  7
STYLE1
 50
0.0
 73
0
 44
1.0
  0
LINE
  5
EF
100
AcDbEntity
100
AcDbLine
  8
GAPS
 62
256
370
-1
  6
ByLayer
 10
-15.1500000000000004
 20
24.3500000000000014
 30
0.0
 11
-15.1500000000000004
 21
24.0500000000000007
 31
0.0
  0
LINE
  5
F0
100
AcDbEntity
100
AcDbLine
  8
GAPS
 62
256
370
-1
  6
ByLayer
 10
-16.3000000000000007
 20
24.0500000000000007
 30
0.0
 11
-16.3000000000000007
 21
23.75
 31
0.0
  0
LINE
  5
F1
100
AcDbEntity
100
AcDbLine
  8
GAPS
 62
256
370
-1
  6
ByLayer
 10
-15.3000000000000007
 20
23.75
 30
0.0
 11
-15.3000000000000007
 21
23.4499999999999993
 31
0.0
  0
LINE
  5
F2
100
AcDbEntity
100
AcDbLine
  8
GAPS
 62
256
370
-1
  6
ByLayer
 10
-15.1500000000000004
 20
26.8000000000000007
 30
0.0
 11
-15.1500000000000004
 21
26.5
 31
0.0
  0
LINE
  5
F3
100
AcDbEntity
100
AcDbLine
  8
GAPS
 62
256
370
-1
  6
ByLayer
 10
-16.4499999999999993
 20
26.5
 30
0.0
 11
-16.4499999999999993
 21
26.1999999999999993
 31
0.0
  0
LINE
  5
F4
100
AcDbEntity
100
AcDbLine
  8
GAPS
 62
256
370
-1
  6
ByLayer
 10
-15.1500000000000004
 20
29.3500000000000014
 30
0.0
 11
-15.1500000000000004
 21
29.0500000000000007
 31
0.0
  0
LINE
  5
F5
100
AcDbEntity
100
AcDbLine
  8
GAPS
 62
256
370
-1
  6
ByLayer
 10
-16.3000000000000007
 20
29.0500000000000007
 30
0.0
 11
-16.3000000000000007
 21
28.75
 31
0.0
  0
LINE
  5
F6
100
AcDbEntity
100
AcDbLine
  8
GAPS
 62
256
370
-1
  6
ByLayer
 10
-15.4000000000000004
 20
28.75
 30
0.0
 11
-15.4000000000000004
 21
28.4499999999999993
 31
0.0
  0
LINE
  5
F7
100
AcDbEntity
100
AcDbLine
  8
GAPS
 62
256
370
-1
  6
ByLayer
 10
-15.1500000000000004
 20
31.8000000000000007
 30
0.0
 11
-15.1500000000000004
 21
31.5
 31
0.0
  0
LINE
  5
F8
100
AcDbEntity
100
AcDbLine
  8
GAPS
 62
256
370
-1
  6
ByLayer
 10
-16.25
 20
31.5
 30
0.0
 11
-16.25
 21
31.1999999999999993
 31
0.0
  0
CIRCLE
  5
F9
100
AcDbEntity
100
AcDbCircle
  8
DETECTIONS
 62
256
370
-1
  6
ByLayer
 10
-15.75
 20
31.8000000000000007
 30
0.0
 40
0.025
  0
CIRCLE
  5
FA
100
AcDbEntity
100
AcDbCircle
  8
DETECTIONS
 62
256
370
-1
  6
ByLayer
 10
-15.9000000000000004
 20
31.5
 30
0.0
 40
0.025
  0
CIRCLE
  5
FB
100
AcDbEntity
100
AcDbCircle
  8
DETECTIONS
 62
256
370
-1
  6
ByLayer
 10
-18.3000000000000007
 20
31.1999999999999993
 30
0.0
 40
0.025
  0
CIRCLE
  5
FC
100
AcDbEntity
100
AcDbCircle
  8
DETECTIONS
 62
256
370
-1
  6
ByLayer
 10
-15.75
 20
29.3500000000000014
 30
0.0
 40
0.025
  0
CIRCLE
  5
FD
100
AcDbEntity
100
AcDbCircle
  8
DETECTIONS
 62
256
370
-1
  6
ByLayer
 10
-15.9000000000000004
 20
29.0500000000000007
 30
0.0
 40
0.025
  0
CIRCLE
  5
FE
100
AcDbEntity
100
AcDbCircle
  8
DETECTIONS
 62
256
370
-1
  6
ByLayer
 10
-15.75
 20
28.75
 30
0.0
 40
0.025
  0
CIRCLE
  5
FF
100
AcDbEntity
100
AcDbCircle
  8
DETECTIONS
 62
256
370
-1
  6
ByLayer
 10
-18.3000000000000007
 20
28.4499999999999993
 30
0.0
 40
0.025
  0
CIRCLE
  5
100
100
AcDbEntity
100
AcDbCircle
  8
DETECTIONS
 62
256
370
-1
  6
ByLayer
 10
-15.75
 20
26.8000000000000007
 30
0.0
 40
0.025
  0
CIRCLE
  5
101
100
AcDbEntity
100
AcDbCircle
  8
DETECTIONS
 62
256
370
-1
  6
ByLayer
 10
-15.9000000000000004
 20
26.5
 30
0.0
 40
0.025
  0
CIRCLE
  5
102
100
AcDbEntity
100
AcDbCircle
  8
DETECTIONS
 62
256
370
-1
  6
ByLayer
 10
-16.1000000000000014
 20
26.5
 30
0.0
 40
0.025
  0
CIRCLE
  5
103
100
AcDbEntity
100
AcDbCircle
  8
DETECTIONS
 62
256
370
-1
  6
ByLayer
 10
-18.6499999999999986
 20
26.1999999999999993
 30
0.0
 40
0.025
  0
CIRCLE
  5
104
100
AcDbEntity
100
AcDbCircle
  8
DETECTIONS
 62
256
370
-1
  6
ByLayer
 10
-15.75
 20
24.3500000000000014
 30
0.0
 40
0.025
  0
CIRCLE
  5
105
100
AcDbEntity
100
AcDbCircle
  8
DETECTIONS
 62
256
370
-1
  6
ByLayer
 10
-15.9000000000000004
 20
24.0500000000000007
 30
0.0
 40
0.025
  0
CIRCLE
  5
106
100
AcDbEntity
100
AcDbCircle
  8
DETECTIONS
 62
256
370
-1
  6
ByLayer
 10
-15.75
 20
23.75
 30
0.0
 40
0.025
  0
CIRCLE
  5
107
100
AcDbEntity
100
AcDbCircle
  8
DETECTIONS
 62
256
370
-1
  6
ByLayer
 10
-15.5999999999999996
 20
23.75
 30
0.0
 40
0.025
  0
CIRCLE
  5
108
100
AcDbEntity
100
AcDbCircle
  8
DETECTIONS
 62
256
370
-1
  6
ByLayer
 10
-18.1499999999999986
 20
23.4499999999999993
 30
0.0
 40
0.025
  0
ENDSEC
  0
SECTION
  2
OBJECTS
  0
DICTIONARY
  5
C
100
AcDbDictionary
280
0
281
1
  3
ACAD_GROUP
350
D
  3
ACAD_LAYOUT
350
1A
  3
ACAD_MLINESTYLE
350
17
  3
ACAD_PLOTSETTINGS
350
19
  3
ACAD_PLOTSTYLENAME
350
E
  3
AcDbVariableDictionary
350
109
  0
DICTIONARY
  5
D
100
AcDbDictionary
280
0
281
1
  0
ACDBDICTIONARYWDFLT
  5
E
100
AcDbDictionary
281
1
  3
Normal
350
F
100
AcDbDictionaryWithDefault
340
F
  0
ACDBPLACEHOLDER
  5
F
  0
DICTIONARY
  5
17
100
AcDbDictionary
280
0
281
1
  3
Standard
350
18
  0
MLINESTYLE
  5
18
100
AcDbMlineStyle
  2
STANDARD
 70
0
  3

 62
256
 51
90.0
 52
90.0
 71
2
 49
0.5
 62
256
  6
BYLAYER
 49
-0.5
 62
256
  6
BYLAYER
  0
DICTIONARY
  5
19
100
AcDbDictionary
280
0
281
1
  0
DICTIONARY
  5
1A
100
AcDbDictionary
281
1
  3
Layout1
350
1E
  3
Layout2
350
26
  3
Model
350
22
  0
LAYOUT
  5
1E
100
AcDbPlotSettings
  1

  2
C:\Program Files\AutoCAD 2002\plotters\DWF ePlot (optimized for plotting).pc3
  4

  6

 40
0.0
 41
0.0
 42
0.0
 43
0.0
 44
0.0
 45
0.0
 46
0.0
 47
0.0
 48
0.0
 49
0.0
140
0.0
141
0.0
142
1.0
143
1.0
 70
688
 72
0
 73
0
 74
5
  7

 75
16
147
1.0
148
0.0
149
0.0
100
AcDbLayout
  1
Layout1
 70
1
 71
1
 10
0.0
 20
0.0
 11
420.0
 21
297.0
 12
0.0
 22
0.0
 32
0.0
 14
100000000000000000000.0
 24
100000000000000000000.0
 34
100000000000000000000.0
 15
-100000000000000000000.0
 25
-100000000000000000000.0
 35
-100000000000000000000.0
146
0.0
 13
0.0
 23
0.0
 33
0.0
 16
1.0
 26
0.0
 36
0.0
 17
0.0
 27
1.0
 37
0.0
 76
0
330
1B
  0
LAYOUT
  5
22
100
AcDbPlotSettings
  1

  2
C:\Program Files\AutoCAD 2002\plotters\DWF ePlot (optimized for plotting).pc3
  4

  6

 40
0.0
 41
0.0
 42
0.0
 43
0.0
 44
0.0
 45
0.0
 46
0.0
 47
0.0
 48
0.0
 49
0.0
140
0.0
141
0.0
142
1.0
143
1.0
 70
1712
 72
0
 73
0
 74
0
  7

 75
0
147
1.0
148
0.0
149
0.0
100
AcDbLayout
  1
Model
 70
1
 71
0
 10
0.0
 20
0.0
 11
12.0
 21
9.0
 12
0.0
 22
0.0
 32
0.0
 14
0.0
 24
0.0
 34
0.0
 15
0.0
 25
0.0
 35
0.0
146
0.0
 13
0.0
 23
0.0
 33
0.0
 16
1.0
 26
0.0
 36
0.0
 17
0.0
 27
1.0
 37
0.0
 76
0
330
1F
  0
LAYOUT
  5
26
100
AcDbPlotSettings
  1

  2
C:\Program Files\AutoCAD 2002\plotters\DWF ePlot (optimized for plotting).pc3
  4

  6

 40
0.0
 41
0.0
 42
0.0
 43
0.0
 44
0.0
 45
0.0
 46
0.0
 47
0.0
 48
0.0
 49
0.0
140
0.0
141
0.0
142
1.0
143
1.0
 70
688
 72
0
 73
0
 74
5
  7

 75
16
147
1.0
148
0.0
149
0.0
100
AcDbLayout
  1
Layout2
 70
1
 71
2
 10
0.0
 20
0.0
 11
12.0
 21
9.0
 12
0.0
 22
0.0
 32
0.0
 14
0.0
 24
0.0
 34
0.0
 15
0.0
 25
0.0
 35
0.0
146
0.0
 13
0.0
 23
0.0
 33
0.0
 16
1.0
 26
0.0
 36
0.0
 17
0.0
 27
1.0
 37
0.0
 76
0
330
23
  0
DICTIONARY
  5
109
100
AcDbDictionary
281
1
  3
DIMASSOC
350
10B
  3
HIDETEXT
350
10A
  0
DICTIONARYVAR
  5
10A
100
DictionaryVariables
280
0
  1
2
  0
DICTIONARYVAR
  5
10B
100
DictionaryVariables
280
0
  1
1
  0
ENDSEC
  0
EOF
