  0
SECTION
  2
HEADER
  9
$ACADVER
  1
AC1009
  9
$INSBASE
 10
0.0
 20
0.0
 30
0.0
  9
$EXTMIN
 10
-19.035
 20
22.75
 30
0.0
  9
$EXTMAX
 10
-11.965
 20
32.85
 30
0.0
  9
$LIMMIN
 10
0.0
 20
0.0
  9
$LIMMAX
 10
0.0
 20
0.0
  9
$ORTHOMODE
 70
     0
  9
$REGENMODE
 70
     1
  9
$FILLMODE
 70
     1
  9
$QTEXTMODE
 70
     0
  9
$MIRRTEXT
 70
     1
  9
$DRAGMODE
 70
     2
  9
$LTSCALE
 40
1.0
  9
$OSMODE
 70
     0
  9
$ATTMODE
 70
     1
  9
$TEXTSIZE
 40
0.2
  9
$TRACEWID
 40
0.05
  9
$TEXTSTYLE
  7
STANDARD
  9
$CLAYER
  8
0
  9
$CELTYPE
  6
CONTINUOUS
  9
$CECOLOR
 62
   256
  9
$DIMSCALE
 40
1.0
  9
$DIMASZ
 40
0.18
  9
$DIMEXO
 40
0.0625
  9
$DIMDLI
 40
0.38
  9
$DIMRND
 40
0.0
  9
$DIMDLE
 40
0.0
  9
$DIMEXE
 40
0.18
  9
$DIMTP
 40
0.0
  9
$DIMTM
 40
0.0
  9
$DIMTXT
 40
0.18
  9
$DIMCEN
 40
0.09
  9
$DIMTSZ
 40
0.0
  9
$DIMTOL
 70
     0
  9
$DIMLIM
 70
     0
  9
$DIMTIH
 70
     1
  9
$DIMTOH
 70
     1
  9
$DIMSE1
 70
     0
  9
$DIMSE2
 70
     0
  9
$DIMTAD
 70
     0
  9
$DIMZIN
 70
     0
  9
$DIMBLK
  1

  9
$DIMASO
 70
     1
  9
$DIMSHO
 70
     1
  9
$DIMPOST
  1

  9
$DIMAPOST
  1

  9
$DIMALT
 70
     0
  9
$DIMALTD
 70
     2
  9
$DIMALTF
 40
25.4
  9
$DIMLFAC
 40
1.0
  9
$DIMTOFL
 70
     0
  9
$DIMTVP
 40
0.0
  9
$DIMTIX
 70
     0
  9
$DIMSOXD
 70
     0
  9
$DIMSAH
 70
     0
  9
$DIMBLK1
  1

  9
$DIMBLK2
  1

  9
$DIMSTYLE
  2
STANDARD
  9
$DIMCLRD
 70
     0
  9
$DIMCLRE
 70
     0
  9
$DIMCLRT
 70
     0
  9
$DIMTFAC
 40
1.0
  9
$DIMGAP
 40
0.09
  9
$LUNITS
 70
     2
  9
$LUPREC
 70
     4
  9
$AXISMODE
 70
     0
  9
$AXISUNIT
 10
0.0
 20
0.0
  9
$SKETCHINC
 40
0.1
  9
$FILLETRAD
 40
0.0
  9
$AUNITS
 70
     0
  9
$AUPREC
 70
     0
  9
$MENU
  1
acad
  9
$ELEVATION
 40
0.0
  9
$PELEVATION
 40
0.0
  9
$THICKNESS
 40
0.0
  9
$LIMCHECK
 70
     0
  9
$BLIPMODE
 70
     1
  9
$CHAMFERA
 40
0.0
  9
$CHAMFERB
 40
0.0
  9
$SKPOLY
 70
     0
  9
$TDCREATE
 40
0.000000000
  9
$TDUPDATE
 40
0.000000000
  9
$TDINDWG
 40
0.0000000000
  9
$TDUSRTIMER
 40
0.0000000000
  9
$USRTIMER
 70
     1
  9
$ANGBASE
 50
0.0
  9
$ANGDIR
 70
     0
  9
$PDMODE
 70
     0
  9
$PDSIZE
 40
0.0
  9
$PLINEWID
 40
0.0
  9
$COORDS
 70
     0
  9
$SPLFRAME
 70
     0
  9
$SPLINETYPE
 70
     6
  9
$SPLINESEGS
 70
     8
  9
$ATTDIA
 70
     0
  9
$ATTREQ
 70
     1
  9
$HANDLING
 70
     1
  9
$HANDSEED
  5
1A9
  9
$SURFTAB1
 70
     6
  9
$SURFTAB2
 70
     6
  9
$SURFTYPE
 70
     6
  9
$SURFU
 70
     6
  9
$SURFV
 70
     6
  9
$UCSNAME
  2

  9
$UCSORG
 10
0.0
 20
0.0
 30
0.0
  9
$UCSXDIR
 10
1.0
 20
0.0
 30
0.0
  9
$UCSYDIR
 10
0.0
 20
1.0
 30
0.0
  9
$PUCSNAME
  2

  9
$PUCSORG
 10
0.0
 20
0.0
 30
0.0
  9
$PUCSXDIR
 10
1.0
 20
0.0
 30
0.0
  9
$PUCSYDIR
 10
0.0
 20
1.0
 30
0.0
  9
$USERI1
 70
     0
  9
$USERI2
 70
     0
  9
$USERI3
 70
     0
  9
$USERI4
 70
     0
  9
$USERI5
 70
     0
  9
$USERR1
 40
0.0
  9
$USERR2
 40
0.0
  9
$USERR3
 40
0.0
  9
$USERR4
 40
0.0
  9
$USERR5
 40
0.0
  9
$WORLDVIEW
 70
     1
  9
$SHADEDGE
 70
     3
  9
$SHADEDIF
 70
    70
  9
$TILEMODE
 70
     1
  9
$MAXACTVP
 70
    16
  9
$PINSBASE
 10
0.0
 20
0.0
 30
0.0
  9
$PLIMCHECK
 70
     0
  9
$PEXTMIN
 10
1.000000E+20
 20
1.000000E+20
 30
1.000000E+20
  9
$PEXTMAX
 10
-1.000000E+20
 20
-1.000000E+20
 30
-1.000000E+20
  9
$PLIMMIN
 10
0.0
 20
0.0
  9
$PLIMMAX
 10
12.0
 20
9.0
  9
$UNITMODE
 70
     0
  9
$VISRETAIN
 70
     0
  9
$PLINEGEN
 70
     1
  9
$PSLTSCALE
 70
     0
  9
$TREEDEPTH
 70
  3020
  9
$DWGCODEPAGE
  3
dos850
  0
ENDSEC
  0
SECTION
  2
TABLES
  0
TABLE
  2
VPORT
 70
     1
  0
VPORT
  2
*ACTIVE
 70
     0
 10
0.0
 20
0.0
 11
1.0
 21
1.0
 12
6.591288
 22
4.579184
 13
0.0
 23
0.0
 14
1.0
 24
1.0
 15
0.0
 25
0.0
 16
0.0
 26
0.0
 36
1.0
 17
0.0
 27
0.0
 37
0.0
 40
9.158369
 41
0.688564
 42
50.0
 43
0.0
 44
0.0
 50
0.0
 51
0.0
 71
     0
 72
   100
 73
     1
 74
     1
 75
     0
 76
     0
 77
     0
 78
     0
  0
ENDTAB
  0
TABLE
  2
LTYPE
 70
     2
  0
LTYPE
  2
CONTINUOUS
 70
    64
  3
Solid line
 72
    65
 73
     0
 40
0.0
  0
LTYPE
  2
SMALL_DASH
 70
    64
  3
- -
 72
    65
 73
     4
 40
0.125
 49
0.03125
 49
-0.03125
 49
-0.03125
 49
0.03125
  0
ENDTAB
  0
TABLE
  2
LAYER
 70
     7
  0
LAYER
  2
0
 70
     0
 62
     7
  6
CONTINUOUS
  0
LAYER
  2
MERGE
 70
     0
 62
     7
  6
CONTINUOUS
  0
LAYER
  2
STANDARD
 70
     0
 62
     7
  6
CONTINUOUS
  0
LAYER
  2
PINS
 70
     0
 62
     7
  6
CONTINUOUS
  0
LAYER
  2
PARAMS
 70
     0
 62
     7
  6
CONTINUOUS
  0
LAYER
  2
OUTLINE
 70
     0
 62
     7
  6
CONTINUOUS
  0
LAYER
  2
INTERNALS
 70
     0
 62
     7
  6
CONTINUOUS
  0
ENDTAB
  0
TABLE
  2
STYLE
 70
     4
  0
STYLE
  2
STANDARD
 70
     0
 40
0.0
 41
1.0
 50
0.0
 71
     0
 42
0.0
  3
txt
  4

  0
STYLE
  2
STYLE1
 70
     0
 40
0.0
 41
1.0
 50
0.0
 71
     0
 42
0.0
  3
Arial.ttf
  4

  0
STYLE
  2
STYLE2
 70
     0
 40
0.0
 41
1.0
 50
0.0
 71
     0
 42
0.0
  3
txt.SHX
  4

  0
STYLE
  2
STYLE3
 70
     0
 40
0.0
 41
1.0
 50
0.0
 71
     0
 42
0.0
  3
Arial.ttf
  4

  0
ENDTAB
  0
TABLE
  2
VIEW
 70
     0
  0
ENDTAB
  0
TABLE
  2
UCS
 70
     0
  0
ENDTAB
  0
TABLE
  2
APPID
 70
     1
  0
APPID
  2
ACAD
 70
     0
  0
ENDTAB
  0
TABLE
  2
DIMSTYLE
 70
     1
  0
DIMSTYLE
  2
STANDARD
 70
     0
  3

  4

  5

  6

  7

 40
1.0
 41
0.18
 42
0.0625
 43
0.38
 44
0.18
 45
0.0
 46
0.0
 47
0.0
 48
0.0
 71
     0
 72
     0
 73
     1
 74
     1
 75
     0
 76
     0
 77
     0
 78
     0
140
0.18
141
0.09
142
0.0
143
25.4
144
1.0
145
0.0
146
1.0
147
0.09
170
     0
171
     2
172
     0
173
     0
174
     0
175
     0
176
     0
177
     0
178
     0
  0
ENDTAB
  0
ENDSEC
  0
SECTION
  2
BLOCKS
  0
ENDSEC
  0
SECTION
  2
ENTITIES
  0
LINE
  8
STANDARD
 62
     7
  5
26
 10
-15.1
 20
26.05
 30
0.0
 11
-15.1
 21
25.95
 31
0.0
  0
LINE
  8
STANDARD
 62
     7
  5
27
 10
-15.1
 20
23.3
 30
0.0
 11
-15.1
 21
23.2
 31
0.0
  0
LINE
  8
STANDARD
 62
     7
  5
28
 10
-15.6
 20
26.05
 30
0.0
 11
-15.6
 21
25.95
 31
0.0
  0
LINE
  8
STANDARD
 62
     7
  5
29
 10
-15.6
 20
23.85
 30
0.0
 11
-15.6
 21
23.1
 31
0.0
  0
LINE
  8
STANDARD
 62
     7
  5
2A
 10
-16.1
 20
26.6
 30
0.0
 11
-16.1
 21
25.85
 31
0.0
  0
LINE
  8
STANDARD
 62
     7
  5
2B
 10
-16.1
 20
23.3
 30
0.0
 11
-16.1
 21
23.2
 31
0.0
  0
LINE
  8
STANDARD
 62
     7
  5
2C
 10
-16.6
 20
26.05
 30
0.0
 11
-16.6
 21
25.95
 31
0.0
  0
LINE
  8
STANDARD
 62
     7
  5
2D
 10
-16.6
 20
23.3
 30
0.0
 11
-16.6
 21
23.2
 31
0.0
  0
LINE
  8
STANDARD
 62
     7
  5
2E
 10
-17.1
 20
26.05
 30
0.0
 11
-17.1
 21
25.95
 31
0.0
  0
LINE
  8
STANDARD
 62
     7
  5
2F
 10
-17.1
 20
23.3
 30
0.0
 11
-17.1
 21
23.2
 31
0.0
  0
LINE
  8
STANDARD
 62
     7
  5
30
 10
-17.6
 20
26.05
 30
0.0
 11
-17.6
 21
25.95
 31
0.0
  0
LINE
  8
STANDARD
 62
     7
  5
31
 10
-17.6
 20
23.3
 30
0.0
 11
-17.6
 21
23.2
 31
0.0
  0
TEXT
  8
STANDARD
 62
     7
  5
32
 10
-15.268
 20
25.66
 30
0.0
 40
0.08
  1
INDEX PULSES
  7
STYLE1
 11
-15.3
 21
25.7
 31
0.0
 73
     2
  0
TEXT
  8
STANDARD
 62
     7
  5
33
 10
-14.768
 20
22.91
 30
0.0
 40
0.08
  1
INDEX PULSES
  7
STYLE1
 11
-14.8
 21
22.95
 31
0.0
 73
     2
  0
LINE
  8
STANDARD
 62
     7
  5
34
 10
-15.9
 20
32.1
 30
0.0
 11
-15.9
 21
31.0
 31
0.0
  0
LINE
  8
STANDARD
 62
     7
  5
35
 10
-15.75
 20
32.1
 30
0.0
 11
-15.75
 21
31.4
 31
0.0
  0
LINE
  8
STANDARD
 62
     7
  5
36
 10
-15.9
 20
27.0
 30
0.0
 11
-15.9
 21
26.4
 31
0.0
  0
LINE
  8
STANDARD
 62
     7
  5
37
 10
-15.75
 20
27.0
 30
0.0
 11
-15.75
 21
26.4
 31
0.0
  0
LINE
  8
STANDARD
 62
     7
  5
38
 10
-15.9
 20
29.55
 30
0.0
 11
-15.9
 21
28.65
 31
0.0
  0
LINE
  8
STANDARD
 62
     7
  5
39
 10
-15.75
 20
29.55
 30
0.0
 11
-15.75
 21
28.25
 31
0.0
  0
LINE
  8
STANDARD
 62
     7
  5
3A
 10
-15.9
 20
24.55
 30
0.0
 11
-15.9
 21
23.65
 31
0.0
  0
LINE
  8
STANDARD
 62
     7
  5
3B
 10
-15.75
 20
24.55
 30
0.0
 11
-15.75
 21
23.65
 31
0.0
  0
POLYLINE
  8
STANDARD
 62
     7
  5
3C
 66
     1
 10
0.0
 20
0.0
 30
0.0
  0
VERTEX
  8
STANDARD
 62
     7
  5
3D
 10
-15.730232
 20
32.129281
 30
0.0
  0
VERTEX
  8
STANDARD
 62
     7
  5
3E
 10
-15.65
 20
32.25
 30
0.0
  0
VERTEX
  8
STANDARD
 62
     7
  5
3F
 10
-15.45
 20
32.25
 30
0.0
  0
SEQEND
  8
0
  5
40
  0
POLYLINE
  8
STANDARD
 62
     7
  5
41
 66
     1
 10
0.0
 20
0.0
 30
0.0
  0
VERTEX
  8
STANDARD
 62
     7
  5
42
 10
-15.730232
 20
32.129281
 30
0.0
  0
VERTEX
  8
STANDARD
 62
     7
  5
43
 10
-15.678531
 20
32.178969
 30
0.0
  0
VERTEX
  8
STANDARD
 62
     7
  5
44
 10
-15.704441
 20
32.19619
 30
0.0
  0
VERTEX
  8
STANDARD
 62
     7
  5
45
 10
-15.730232
 20
32.129281
 30
0.0
  0
SEQEND
  8
0
  5
46
  0
POLYLINE
  8
STANDARD
 62
     7
  5
47
 66
     1
 10
0.0
 20
0.0
 30
0.0
  0
VERTEX
  8
STANDARD
 62
     7
  5
48
 10
-15.730232
 20
27.029281
 30
0.0
  0
VERTEX
  8
STANDARD
 62
     7
  5
49
 10
-15.65
 20
27.15
 30
0.0
  0
VERTEX
  8
STANDARD
 62
     7
  5
4A
 10
-15.45
 20
27.15
 30
0.0
  0
SEQEND
  8
0
  5
4B
  0
POLYLINE
  8
STANDARD
 62
     7
  5
4C
 66
     1
 10
0.0
 20
0.0
 30
0.0
  0
VERTEX
  8
STANDARD
 62
     7
  5
4D
 10
-15.730232
 20
27.029281
 30
0.0
  0
VERTEX
  8
STANDARD
 62
     7
  5
4E
 10
-15.678531
 20
27.078969
 30
0.0
  0
VERTEX
  8
STANDARD
 62
     7
  5
4F
 10
-15.704441
 20
27.09619
 30
0.0
  0
VERTEX
  8
STANDARD
 62
     7
  5
50
 10
-15.730232
 20
27.029281
 30
0.0
  0
SEQEND
  8
0
  5
51
  0
POLYLINE
  8
STANDARD
 62
     7
  5
52
 66
     1
 10
0.0
 20
0.0
 30
0.0
  0
VERTEX
  8
STANDARD
 62
     7
  5
53
 10
-15.730232
 20
29.579281
 30
0.0
  0
VERTEX
  8
STANDARD
 62
     7
  5
54
 10
-15.65
 20
29.7
 30
0.0
  0
VERTEX
  8
STANDARD
 62
     7
  5
55
 10
-15.45
 20
29.7
 30
0.0
  0
SEQEND
  8
0
  5
56
  0
POLYLINE
  8
STANDARD
 62
     7
  5
57
 66
     1
 10
0.0
 20
0.0
 30
0.0
  0
VERTEX
  8
STANDARD
 62
     7
  5
58
 10
-15.730232
 20
29.579281
 30
0.0
  0
VERTEX
  8
STANDARD
 62
     7
  5
59
 10
-15.678531
 20
29.628969
 30
0.0
  0
VERTEX
  8
STANDARD
 62
     7
  5
5A
 10
-15.704441
 20
29.64619
 30
0.0
  0
VERTEX
  8
STANDARD
 62
     7
  5
5B
 10
-15.730232
 20
29.579281
 30
0.0
  0
SEQEND
  8
0
  5
5C
  0
POLYLINE
  8
STANDARD
 62
     7
  5
5D
 66
     1
 10
0.0
 20
0.0
 30
0.0
  0
VERTEX
  8
STANDARD
 62
     7
  5
5E
 10
-15.730232
 20
24.579281
 30
0.0
  0
VERTEX
  8
STANDARD
 62
     7
  5
5F
 10
-15.65
 20
24.7
 30
0.0
  0
VERTEX
  8
STANDARD
 62
     7
  5
60
 10
-15.45
 20
24.7
 30
0.0
  0
SEQEND
  8
0
  5
61
  0
POLYLINE
  8
STANDARD
 62
     7
  5
62
 66
     1
 10
0.0
 20
0.0
 30
0.0
  0
VERTEX
  8
STANDARD
 62
     7
  5
63
 10
-15.730232
 20
24.579281
 30
0.0
  0
VERTEX
  8
STANDARD
 62
     7
  5
64
 10
-15.678531
 20
24.628969
 30
0.0
  0
VERTEX
  8
STANDARD
 62
     7
  5
65
 10
-15.704441
 20
24.64619
 30
0.0
  0
VERTEX
  8
STANDARD
 62
     7
  5
66
 10
-15.730232
 20
24.579281
 30
0.0
  0
SEQEND
  8
0
  5
67
  0
TEXT
  8
STANDARD
 62
     7
  5
68
 10
-15.368
 20
32.21
 30
0.0
 40
0.08
  1
HOME SWITCH TRIPS
  7
STYLE1
 11
-15.4
 21
32.25
 31
0.0
 73
     2
  0
TEXT
  8
STANDARD
 62
     7
  5
69
 10
-15.368
 20
27.11
 30
0.0
 40
0.08
  1
HOME SWITCH TRIPS
  7
STYLE1
 11
-15.4
 21
27.15
 31
0.0
 73
     2
  0
TEXT
  8
STANDARD
 62
     7
  5
6A
 10
-15.368
 20
29.66
 30
0.0
 40
0.08
  1
HOME SWITCH TRIPS
  7
STYLE1
 11
-15.4
 21
29.7
 31
0.0
 73
     2
  0
TEXT
  8
STANDARD
 62
     7
  5
6B
 10
-15.368
 20
24.66
 30
0.0
 40
0.08
  1
HOME SWITCH TRIPS
  7
STYLE1
 11
-15.4
 21
24.7
 31
0.0
 73
     2
  0
TEXT
  8
STANDARD
 62
     7
  5
6C
 10
-14.968
 20
31.76
 30
0.0
 40
0.08
  1
SEARCH FOR HOME SWITCH (SEARCH_VEL)
  7
STYLE1
 11
-15.0
 21
31.8
 31
0.0
 73
     2
  0
TEXT
  8
STANDARD
 62
     7
  5
6D
 10
-14.968
 20
26.76
 30
0.0
 40
0.08
  1
SEARCH FOR HOME SWITCH (SEARCH_VEL)
  7
STYLE1
 11
-15.0
 21
26.8
 31
0.0
 73
     2
  0
TEXT
  8
STANDARD
 62
     7
  5
6E
 10
-14.968
 20
29.31
 30
0.0
 40
0.08
  1
SEARCH FOR HOME SWITCH (SEARCH_VEL)
  7
STYLE1
 11
-15.0
 21
29.35
 31
0.0
 73
     2
  0
TEXT
  8
STANDARD
 62
     7
  5
6F
 10
-14.968
 20
24.31
 30
0.0
 40
0.08
  1
SEARCH FOR HOME SWITCH (SEARCH_VEL)
  7
STYLE1
 11
-15.0
 21
24.35
 31
0.0
 73
     2
  0
TEXT
  8
STANDARD
 62
     7
  5
70
 10
-14.968
 20
29.01
 30
0.0
 40
0.08
  1
BACK OFF OF HOME SWITCH (SEARCH_VEL)
  7
STYLE1
 11
-15.0
 21
29.05
 31
0.0
 73
     2
  0
TEXT
  8
STANDARD
 62
     7
  5
71
 10
-14.968
 20
24.01
 30
0.0
 40
0.08
  1
BACK OFF OF HOME SWITCH (SEARCH_VEL)
  7
STYLE1
 11
-15.0
 21
24.05
 31
0.0
 73
     2
  0
TEXT
  8
STANDARD
 62
     7
  5
72
 10
-14.968
 20
31.46
 30
0.0
 40
0.08
  1
FINAL DETECTION OF SWITCH (LATCH_VEL)
  7
STYLE1
 11
-15.0
 21
31.5
 31
0.0
 73
     2
  0
TEXT
  8
STANDARD
 62
     7
  5
73
 10
-14.968
 20
26.52
 30
0.0
 40
0.08
  1
FINAL DETECTION OF SWITCH AND
  7
STYLE1
 11
-15.0
 21
26.56
 31
0.0
 73
     2
  0
TEXT
  8
STANDARD
 62
     7
  5
74
 10
-14.968
 20
26.4
 30
0.0
 40
0.08
  1
INDEX PULSE (LATCH_VEL)
  7
STYLE1
 11
-15.0
 21
26.44
 31
0.0
 73
     2
  0
TEXT
  8
STANDARD
 62
     7
  5
75
 10
-14.968
 20
28.71
 30
0.0
 40
0.08
  1
FINAL DETECTION OF SWITCH (LATCH_VEL)
  7
STYLE1
 11
-15.0
 21
28.75
 31
0.0
 73
     2
  0
TEXT
  8
STANDARD
 62
     7
  5
76
 10
-14.968
 20
23.77
 30
0.0
 40
0.08
  1
FINAL DETECTION OF SWITCH AND
  7
STYLE1
 11
-15.0
 21
23.81
 31
0.0
 73
     2
  0
TEXT
  8
STANDARD
 62
     7
  5
77
 10
-14.968
 20
23.65
 30
0.0
 40
0.08
  1
INDEX PULSE (LATCH_VEL)
  7
STYLE1
 11
-15.0
 21
23.69
 31
0.0
 73
     2
  0
TEXT
  8
STANDARD
 62
     7
  5
78
 10
-14.968
 20
31.16
 30
0.0
 40
0.08
  1
GO TO HOME POSITION (MAX_VEL)
  7
STYLE1
 11
-15.0
 21
31.2
 31
0.0
 73
     2
  0
TEXT
  8
STANDARD
 62
     7
  5
79
 10
-14.968
 20
26.16
 30
0.0
 40
0.08
  1
GO TO HOME POSITION (MAX_VEL)
  7
STYLE1
 11
-15.0
 21
26.2
 31
0.0
 73
     2
  0
TEXT
  8
STANDARD
 62
     7
  5
7A
 10
-14.968
 20
28.41
 30
0.0
 40
0.08
  1
GO TO HOME POSITION (MAX_VEL)
  7
STYLE1
 11
-15.0
 21
28.45
 31
0.0
 73
     2
  0
TEXT
  8
STANDARD
 62
     7
  5
7B
 10
-14.968
 20
23.41
 30
0.0
 40
0.08
  1
GO TO HOME POSITION (MAX_VEL)
  7
STYLE1
 11
-15.0
 21
23.45
 31
0.0
 73
     2
  0
LINE
  8
STANDARD
 62
     7
  5
7C
 10
-15.15
 20
31.8
 30
0.0
 11
-17.8
 21
31.8
 31
0.0
  0
POLYLINE
  8
STANDARD
 62
     7
  5
7D
 66
     1
 10
0.0
 20
0.0
 30
0.0
  0
VERTEX
  8
STANDARD
 62
     7
  5
7E
 10
-15.15
 20
31.8
 30
0.0
  0
VERTEX
  8
STANDARD
 62
     7
  5
7F
 10
-15.33
 20
31.84
 30
0.0
  0
VERTEX
  8
STANDARD
 62
     7
  5
80
 10
-15.33
 20
31.76
 30
0.0
  0
VERTEX
  8
STANDARD
 62
     7
  5
81
 10
-15.15
 20
31.8
 30
0.0
  0
SEQEND
  8
0
  5
82
  0
LINE
  8
STANDARD
 62
     7
  5
83
 10
-15.15
 20
26.8
 30
0.0
 11
-17.8
 21
26.8
 31
0.0
  0
POLYLINE
  8
STANDARD
 62
     7
  5
84
 66
     1
 10
0.0
 20
0.0
 30
0.0
  0
VERTEX
  8
STANDARD
 62
     7
  5
85
 10
-15.15
 20
26.8
 30
0.0
  0
VERTEX
  8
STANDARD
 62
     7
  5
86
 10
-15.33
 20
26.84
 30
0.0
  0
VERTEX
  8
STANDARD
 62
     7
  5
87
 10
-15.33
 20
26.76
 30
0.0
  0
VERTEX
  8
STANDARD
 62
     7
  5
88
 10
-15.15
 20
26.8
 30
0.0
  0
SEQEND
  8
0
  5
89
  0
LINE
  8
STANDARD
 62
     7
  5
8A
 10
-15.15
 20
29.35
 30
0.0
 11
-17.8
 21
29.35
 31
0.0
  0
POLYLINE
  8
STANDARD
 62
     7
  5
8B
 66
     1
 10
0.0
 20
0.0
 30
0.0
  0
VERTEX
  8
STANDARD
 62
     7
  5
8C
 10
-15.15
 20
29.35
 30
0.0
  0
VERTEX
  8
STANDARD
 62
     7
  5
8D
 10
-15.33
 20
29.39
 30
0.0
  0
VERTEX
  8
STANDARD
 62
     7
  5
8E
 10
-15.33
 20
29.31
 30
0.0
  0
VERTEX
  8
STANDARD
 62
     7
  5
8F
 10
-15.15
 20
29.35
 30
0.0
  0
SEQEND
  8
0
  5
90
  0
LINE
  8
STANDARD
 62
     7
  5
91
 10
-15.15
 20
24.35
 30
0.0
 11
-17.8
 21
24.35
 31
0.0
  0
POLYLINE
  8
STANDARD
 62
     7
  5
92
 66
     1
 10
0.0
 20
0.0
 30
0.0
  0
VERTEX
  8
STANDARD
 62
     7
  5
93
 10
-15.15
 20
24.35
 30
0.0
  0
VERTEX
  8
STANDARD
 62
     7
  5
94
 10
-15.33
 20
24.39
 30
0.0
  0
VERTEX
  8
STANDARD
 62
     7
  5
95
 10
-15.33
 20
24.31
 30
0.0
  0
VERTEX
  8
STANDARD
 62
     7
  5
96
 10
-15.15
 20
24.35
 30
0.0
  0
SEQEND
  8
0
  5
97
  0
LINE
  8
STANDARD
 62
     7
  5
98
 10
-16.25
 20
31.5
 30
0.0
 11
-15.15
 21
31.5
 31
0.0
  0
POLYLINE
  8
STANDARD
 62
     7
  5
99
 66
     1
 10
0.0
 20
0.0
 30
0.0
  0
VERTEX
  8
STANDARD
 62
     7
  5
9A
 10
-16.25
 20
31.5
 30
0.0
  0
VERTEX
  8
STANDARD
 62
     7
  5
9B
 10
-16.07
 20
31.46
 30
0.0
  0
VERTEX
  8
STANDARD
 62
     7
  5
9C
 10
-16.07
 20
31.54
 30
0.0
  0
VERTEX
  8
STANDARD
 62
     7
  5
9D
 10
-16.25
 20
31.5
 30
0.0
  0
SEQEND
  8
0
  5
9E
  0
LINE
  8
STANDARD
 62
     7
  5
9F
 10
-16.45
 20
26.5
 30
0.0
 11
-15.15
 21
26.5
 31
0.0
  0
POLYLINE
  8
STANDARD
 62
     7
  5
A0
 66
     1
 10
0.0
 20
0.0
 30
0.0
  0
VERTEX
  8
STANDARD
 62
     7
  5
A1
 10
-16.45
 20
26.5
 30
0.0
  0
VERTEX
  8
STANDARD
 62
     7
  5
A2
 10
-16.27
 20
26.46
 30
0.0
  0
VERTEX
  8
STANDARD
 62
     7
  5
A3
 10
-16.27
 20
26.54
 30
0.0
  0
VERTEX
  8
STANDARD
 62
     7
  5
A4
 10
-16.45
 20
26.5
 30
0.0
  0
SEQEND
  8
0
  5
A5
  0
LINE
  8
STANDARD
 62
     7
  5
A6
 10
-16.3
 20
29.05
 30
0.0
 11
-15.15
 21
29.05
 31
0.0
  0
POLYLINE
  8
STANDARD
 62
     7
  5
A7
 66
     1
 10
0.0
 20
0.0
 30
0.0
  0
VERTEX
  8
STANDARD
 62
     7
  5
A8
 10
-16.3
 20
29.05
 30
0.0
  0
VERTEX
  8
STANDARD
 62
     7
  5
A9
 10
-16.12
 20
29.01
 30
0.0
  0
VERTEX
  8
STANDARD
 62
     7
  5
AA
 10
-16.12
 20
29.09
 30
0.0
  0
VERTEX
  8
STANDARD
 62
     7
  5
AB
 10
-16.3
 20
29.05
 30
0.0
  0
SEQEND
  8
0
  5
AC
  0
LINE
  8
STANDARD
 62
     7
  5
AD
 10
-16.3
 20
24.05
 30
0.0
 11
-15.15
 21
24.05
 31
0.0
  0
POLYLINE
  8
STANDARD
 62
     7
  5
AE
 66
     1
 10
0.0
 20
0.0
 30
0.0
  0
VERTEX
  8
STANDARD
 62
     7
  5
AF
 10
-16.3
 20
24.05
 30
0.0
  0
VERTEX
  8
STANDARD
 62
     7
  5
B0
 10
-16.12
 20
24.01
 30
0.0
  0
VERTEX
  8
STANDARD
 62
     7
  5
B1
 10
-16.12
 20
24.09
 30
0.0
  0
VERTEX
  8
STANDARD
 62
     7
  5
B2
 10
-16.3
 20
24.05
 30
0.0
  0
SEQEND
  8
0
  5
B3
  0
LINE
  8
STANDARD
 62
     7
  5
B4
 10
-15.4
 20
28.75
 30
0.0
 11
-16.3
 21
28.75
 31
0.0
  0
POLYLINE
  8
STANDARD
 62
     7
  5
B5
 66
     1
 10
0.0
 20
0.0
 30
0.0
  0
VERTEX
  8
STANDARD
 62
     7
  5
B6
 10
-15.4
 20
28.75
 30
0.0
  0
VERTEX
  8
STANDARD
 62
     7
  5
B7
 10
-15.58
 20
28.79
 30
0.0
  0
VERTEX
  8
STANDARD
 62
     7
  5
B8
 10
-15.58
 20
28.71
 30
0.0
  0
VERTEX
  8
STANDARD
 62
     7
  5
B9
 10
-15.4
 20
28.75
 30
0.0
  0
SEQEND
  8
0
  5
BA
  0
LINE
  8
STANDARD
 62
     7
  5
BB
 10
-15.3
 20
23.75
 30
0.0
 11
-16.3
 21
23.75
 31
0.0
  0
POLYLINE
  8
STANDARD
 62
     7
  5
BC
 66
     1
 10
0.0
 20
0.0
 30
0.0
  0
VERTEX
  8
STANDARD
 62
     7
  5
BD
 10
-15.3
 20
23.75
 30
0.0
  0
VERTEX
  8
STANDARD
 62
     7
  5
BE
 10
-15.48
 20
23.79
 30
0.0
  0
VERTEX
  8
STANDARD
 62
     7
  5
BF
 10
-15.48
 20
23.71
 30
0.0
  0
VERTEX
  8
STANDARD
 62
     7
  5
C0
 10
-15.3
 20
23.75
 30
0.0
  0
SEQEND
  8
0
  5
C1
  0
LINE
  8
STANDARD
 62
     7
  5
C2
 10
-18.3
 20
31.2
 30
0.0
 11
-16.25
 21
31.2
 31
0.0
  0
POLYLINE
  8
STANDARD
 62
     7
  5
C3
 66
     1
 10
0.0
 20
0.0
 30
0.0
  0
VERTEX
  8
STANDARD
 62
     7
  5
C4
 10
-18.3
 20
31.2
 30
0.0
  0
VERTEX
  8
STANDARD
 62
     7
  5
C5
 10
-18.12
 20
31.16
 30
0.0
  0
VERTEX
  8
STANDARD
 62
     7
  5
C6
 10
-18.12
 20
31.24
 30
0.0
  0
VERTEX
  8
STANDARD
 62
     7
  5
C7
 10
-18.3
 20
31.2
 30
0.0
  0
SEQEND
  8
0
  5
C8
  0
LINE
  8
STANDARD
 62
     7
  5
C9
 10
-18.65
 20
26.2
 30
0.0
 11
-16.45
 21
26.2
 31
0.0
  0
POLYLINE
  8
STANDARD
 62
     7
  5
CA
 66
     1
 10
0.0
 20
0.0
 30
0.0
  0
VERTEX
  8
STANDARD
 62
     7
  5
CB
 10
-18.65
 20
26.2
 30
0.0
  0
VERTEX
  8
STANDARD
 62
     7
  5
CC
 10
-18.47
 20
26.16
 30
0.0
  0
VERTEX
  8
STANDARD
 62
     7
  5
CD
 10
-18.47
 20
26.24
 30
0.0
  0
VERTEX
  8
STANDARD
 62
     7
  5
CE
 10
-18.65
 20
26.2
 30
0.0
  0
SEQEND
  8
0
  5
CF
  0
LINE
  8
STANDARD
 62
     7
  5
D0
 10
-18.3
 20
28.45
 30
0.0
 11
-15.4
 21
28.45
 31
0.0
  0
POLYLINE
  8
STANDARD
 62
     7
  5
D1
 66
     1
 10
0.0
 20
0.0
 30
0.0
  0
VERTEX
  8
STANDARD
 62
     7
  5
D2
 10
-18.3
 20
28.45
 30
0.0
  0
VERTEX
  8
STANDARD
 62
     7
  5
D3
 10
-18.12
 20
28.41
 30
0.0
  0
VERTEX
  8
STANDARD
 62
     7
  5
D4
 10
-18.12
 20
28.49
 30
0.0
  0
VERTEX
  8
STANDARD
 62
     7
  5
D5
 10
-18.3
 20
28.45
 30
0.0
  0
SEQEND
  8
0
  5
D6
  0
LINE
  8
STANDARD
 62
     7
  5
D7
 10
-18.15
 20
23.45
 30
0.0
 11
-15.3
 21
23.45
 31
0.0
  0
POLYLINE
  8
STANDARD
 62
     7
  5
D8
 66
     1
 10
0.0
 20
0.0
 30
0.0
  0
VERTEX
  8
STANDARD
 62
     7
  5
D9
 10
-18.15
 20
23.45
 30
0.0
  0
VERTEX
  8
STANDARD
 62
     7
  5
DA
 10
-17.97
 20
23.41
 30
0.0
  0
VERTEX
  8
STANDARD
 62
     7
  5
DB
 10
-17.97
 20
23.49
 30
0.0
  0
VERTEX
  8
STANDARD
 62
     7
  5
DC
 10
-18.15
 20
23.45
 30
0.0
  0
SEQEND
  8
0
  5
DD
  0
LINE
  8
STANDARD
 62
     7
  5
DE
 10
-17.8
 20
31.8
 30
0.0
 11
-15.3
 21
31.8
 31
0.0
  0
LINE
  8
STANDARD
 62
     7
  5
DF
 10
-17.8
 20
26.8
 30
0.0
 11
-15.3
 21
26.8
 31
0.0
  0
LINE
  8
STANDARD
 62
     7
  5
E0
 10
-17.8
 20
29.35
 30
0.0
 11
-15.3
 21
29.35
 31
0.0
  0
LINE
  8
STANDARD
 62
     7
  5
E1
 10
-17.8
 20
24.35
 30
0.0
 11
-15.3
 21
24.35
 31
0.0
  0
LINE
  8
STANDARD
 62
     7
  5
E2
 10
-15.15
 20
31.5
 30
0.0
 11
-16.05
 21
31.5
 31
0.0
  0
LINE
  8
STANDARD
 62
     7
  5
E3
 10
-15.15
 20
26.5
 30
0.0
 11
-16.25
 21
26.5
 31
0.0
  0
LINE
  8
STANDARD
 62
     7
  5
E4
 10
-15.15
 20
29.05
 30
0.0
 11
-16.1
 21
29.05
 31
0.0
  0
LINE
  8
STANDARD
 62
     7
  5
E5
 10
-15.15
 20
24.05
 30
0.0
 11
-16.1
 21
24.05
 31
0.0
  0
LINE
  8
STANDARD
 62
     7
  5
E6
 10
-15.6
 20
28.75
 30
0.0
 11
-16.3
 21
28.75
 31
0.0
  0
LINE
  8
STANDARD
 62
     7
  5
E7
 10
-15.5
 20
23.75
 30
0.0
 11
-16.3
 21
23.75
 31
0.0
  0
LINE
  8
STANDARD
 62
     7
  5
E8
 10
-16.25
 20
31.2
 30
0.0
 11
-18.1
 21
31.2
 31
0.0
  0
LINE
  8
STANDARD
 62
     7
  5
E9
 10
-16.45
 20
26.2
 30
0.0
 11
-18.45
 21
26.2
 31
0.0
  0
LINE
  8
STANDARD
 62
     7
  5
EA
 10
-15.4
 20
28.45
 30
0.0
 11
-18.1
 21
28.45
 31
0.0
  0
LINE
  8
STANDARD
 62
     7
  5
EB
 10
-15.3
 20
23.45
 30
0.0
 11
-17.95
 21
23.45
 31
0.0
  0
POLYLINE
  8
STANDARD
 62
     7
  5
EC
 66
     1
 10
0.0
 20
0.0
 30
0.0
  0
VERTEX
  8
STANDARD
 62
     7
  5
ED
 10
-16.072126
 20
25.945118
 30
0.0
  0
VERTEX
  8
STANDARD
 62
     7
  5
EE
 10
-15.3
 20
25.7
 30
0.0
  0
SEQEND
  8
0
  5
EF
  0
POLYLINE
  8
STANDARD
 62
     7
  5
F0
 66
     1
 10
0.0
 20
0.0
 30
0.0
  0
VERTEX
  8
STANDARD
 62
     7
  5
F1
 10
-16.072126
 20
25.945118
 30
0.0
  0
VERTEX
  8
STANDARD
 62
     7
  5
F2
 10
-16.010114
 20
25.909111
 30
0.0
  0
VERTEX
  8
STANDARD
 62
     7
  5
F3
 10
-16.000701
 20
25.938764
 30
0.0
  0
VERTEX
  8
STANDARD
 62
     7
  5
F4
 10
-16.072126
 20
25.945118
 30
0.0
  0
SEQEND
  8
0
  5
F5
  0
POLYLINE
  8
STANDARD
 62
     7
  5
F6
 66
     1
 10
0.0
 20
0.0
 30
0.0
  0
VERTEX
  8
STANDARD
 62
     7
  5
F7
 10
-15.572126
 20
23.195118
 30
0.0
  0
VERTEX
  8
STANDARD
 62
     7
  5
F8
 10
-14.8
 20
22.95
 30
0.0
  0
SEQEND
  8
0
  5
F9
  0
POLYLINE
  8
STANDARD
 62
     7
  5
FA
 66
     1
 10
0.0
 20
0.0
 30
0.0
  0
VERTEX
  8
STANDARD
 62
     7
  5
FB
 10
-15.572126
 20
23.195118
 30
0.0
  0
VERTEX
  8
STANDARD
 62
     7
  5
FC
 10
-15.510114
 20
23.159111
 30
0.0
  0
VERTEX
  8
STANDARD
 62
     7
  5
FD
 10
-15.500701
 20
23.188764
 30
0.0
  0
VERTEX
  8
STANDARD
 62
     7
  5
FE
 10
-15.572126
 20
23.195118
 30
0.0
  0
SEQEND
  8
0
  5
FF
  0
POLYLINE
  8
STANDARD
 62
     7
  5
100
 66
     1
 10
0.0
 20
0.0
 30
0.0
  0
VERTEX
  8
STANDARD
 62
     7
  5
101
 10
-15.569971
 20
25.930748
 30
0.0
  0
VERTEX
  8
STANDARD
 62
     7
  5
102
 10
-15.3
 20
25.7
 30
0.0
  0
SEQEND
  8
0
  5
103
  0
POLYLINE
  8
STANDARD
 62
     7
  5
104
 66
     1
 10
0.0
 20
0.0
 30
0.0
  0
VERTEX
  8
STANDARD
 62
     7
  5
105
 10
-15.569971
 20
25.930748
 30
0.0
  0
VERTEX
  8
STANDARD
 62
     7
  5
106
 10
-15.526866
 20
25.873442
 30
0.0
  0
VERTEX
  8
STANDARD
 62
     7
  5
107
 10
-15.506652
 20
25.897092
 30
0.0
  0
VERTEX
  8
STANDARD
 62
     7
  5
108
 10
-15.569971
 20
25.930748
 30
0.0
  0
SEQEND
  8
0
  5
109
  0
POLYLINE
  8
STANDARD
 62
     7
  5
10A
 66
     1
 10
0.0
 20
0.0
 30
0.0
  0
VERTEX
  8
STANDARD
 62
     7
  5
10B
 10
-15.069971
 20
23.180748
 30
0.0
  0
VERTEX
  8
STANDARD
 62
     7
  5
10C
 10
-14.8
 20
22.95
 30
0.0
  0
SEQEND
  8
0
  5
10D
  0
POLYLINE
  8
STANDARD
 62
     7
  5
10E
 66
     1
 10
0.0
 20
0.0
 30
0.0
  0
VERTEX
  8
STANDARD
 62
     7
  5
10F
 10
-15.069971
 20
23.180748
 30
0.0
  0
VERTEX
  8
STANDARD
 62
     7
  5
110
 10
-15.026866
 20
23.123442
 30
0.0
  0
VERTEX
  8
STANDARD
 62
     7
  5
111
 10
-15.006652
 20
23.147092
 30
0.0
  0
VERTEX
  8
STANDARD
 62
     7
  5
112
 10
-15.069971
 20
23.180748
 30
0.0
  0
SEQEND
  8
0
  5
113
  0
CIRCLE
  8
STANDARD
 62
     7
  5
114
 10
-18.3
 20
31.2
 30
0.0
 40
0.025
  0
CIRCLE
  8
STANDARD
 62
     7
  5
115
 10
-18.65
 20
26.2
 30
0.0
 40
0.025
  0
CIRCLE
  8
STANDARD
 62
     7
  5
116
 10
-18.3
 20
28.45
 30
0.0
 40
0.025
  0
CIRCLE
  8
STANDARD
 62
     7
  5
117
 10
-18.15
 20
23.45
 30
0.0
 40
0.025
  0
CIRCLE
  8
STANDARD
 62
     7
  5
118
 10
-15.75
 20
31.8
 30
0.0
 40
0.025
  0
CIRCLE
  8
STANDARD
 62
     7
  5
119
 10
-15.75
 20
26.8
 30
0.0
 40
0.025
  0
CIRCLE
  8
STANDARD
 62
     7
  5
11A
 10
-15.75
 20
29.35
 30
0.0
 40
0.025
  0
CIRCLE
  8
STANDARD
 62
     7
  5
11B
 10
-15.75
 20
24.35
 30
0.0
 40
0.025
  0
CIRCLE
  8
STANDARD
 62
     7
  5
11C
 10
-15.9
 20
31.5
 30
0.0
 40
0.025
  0
CIRCLE
  8
STANDARD
 62
     7
  5
11D
 10
-15.9
 20
26.5
 30
0.0
 40
0.025
  0
CIRCLE
  8
STANDARD
 62
     7
  5
11E
 10
-15.9
 20
29.05
 30
0.0
 40
0.025
  0
CIRCLE
  8
STANDARD
 62
     7
  5
11F
 10
-15.9
 20
24.05
 30
0.0
 40
0.025
  0
CIRCLE
  8
STANDARD
 62
     7
  5
120
 10
-15.75
 20
28.75
 30
0.0
 40
0.025
  0
CIRCLE
  8
STANDARD
 62
     7
  5
121
 10
-15.75
 20
23.75
 30
0.0
 40
0.025
  0
CIRCLE
  8
STANDARD
 62
     7
  5
122
 10
-16.1
 20
26.5
 30
0.0
 40
0.025
  0
CIRCLE
  8
STANDARD
 62
     7
  5
123
 10
-15.6
 20
23.75
 30
0.0
 40
0.025
  0
LINE
  8
STANDARD
  6
SMALL_DASH
 62
     7
  5
125
 10
-15.15
 20
31.8
 30
0.0
 11
-15.15
 21
31.5
 31
0.0
  0
LINE
  8
STANDARD
  6
SMALL_DASH
 62
     7
  5
126
 10
-15.15
 20
26.8
 30
0.0
 11
-15.15
 21
26.5
 31
0.0
  0
LINE
  8
STANDARD
  6
SMALL_DASH
 62
     7
  5
127
 10
-15.15
 20
29.35
 30
0.0
 11
-15.15
 21
29.05
 31
0.0
  0
LINE
  8
STANDARD
  6
SMALL_DASH
 62
     7
  5
128
 10
-15.15
 20
24.35
 30
0.0
 11
-15.15
 21
24.05
 31
0.0
  0
LINE
  8
STANDARD
  6
SMALL_DASH
 62
     7
  5
129
 10
-16.25
 20
31.5
 30
0.0
 11
-16.25
 21
31.2
 31
0.0
  0
LINE
  8
STANDARD
  6
SMALL_DASH
 62
     7
  5
12A
 10
-16.45
 20
26.5
 30
0.0
 11
-16.45
 21
26.2
 31
0.0
  0
LINE
  8
STANDARD
  6
SMALL_DASH
 62
     7
  5
12B
 10
-16.3
 20
29.05
 30
0.0
 11
-16.3
 21
28.75
 31
0.0
  0
LINE
  8
STANDARD
  6
SMALL_DASH
 62
     7
  5
12C
 10
-16.3
 20
24.05
 30
0.0
 11
-16.3
 21
23.75
 31
0.0
  0
LINE
  8
STANDARD
  6
SMALL_DASH
 62
     7
  5
12D
 10
-15.4
 20
28.75
 30
0.0
 11
-15.4
 21
28.45
 31
0.0
  0
LINE
  8
STANDARD
  6
SMALL_DASH
 62
     7
  5
12E
 10
-15.3
 20
23.75
 30
0.0
 11
-15.3
 21
23.45
 31
0.0
  0
LINE
  8
STANDARD
 62
     7
  5
12F
 10
-18.3
 20
31.3
 30
0.0
 11
-18.3
 21
31.0
 31
0.0
  0
LINE
  8
STANDARD
 62
     7
  5
130
 10
-18.65
 20
26.3
 30
0.0
 11
-18.65
 21
25.85
 31
0.0
  0
LINE
  8
STANDARD
 62
     7
  5
131
 10
-18.3
 20
28.55
 30
0.0
 11
-18.3
 21
28.25
 31
0.0
  0
LINE
  8
STANDARD
 62
     7
  5
132
 10
-18.15
 20
23.55
 30
0.0
 11
-18.15
 21
23.1
 31
0.0
  0
TEXT
  8
STANDARD
 62
     7
  5
133
 10
-18.26
 20
22.96
 30
0.0
 40
0.08
  1
1.000
  7
STYLE1
 72
     1
 11
-18.15
 21
23.0
 31
0.0
 73
     2
  0
TEXT
  8
STANDARD
 62
     7
  5
134
 10
-18.41
 20
30.86
 30
0.0
 40
0.08
  1
1.000
  7
STYLE1
 72
     1
 11
-18.3
 21
30.9
 31
0.0
 73
     2
  0
TEXT
  8
STANDARD
 62
     7
  5
135
 10
-18.76
 20
25.71
 30
0.0
 40
0.08
  1
1.000
  7
STYLE1
 72
     1
 11
-18.65
 21
25.75
 31
0.0
 73
     2
  0
TEXT
  8
STANDARD
 62
     7
  5
136
 10
-18.41
 20
28.11
 30
0.0
 40
0.08
  1
1.000
  7
STYLE1
 72
     1
 11
-18.3
 21
28.15
 31
0.0
 73
     2
  0
TEXT
  8
STANDARD
 62
     7
  5
137
 10
-15.71
 20
22.96
 30
0.0
 40
0.08
  1
3.000
  7
STYLE1
 72
     1
 11
-15.6
 21
23.0
 31
0.0
 73
     2
  0
TEXT
  8
STANDARD
 62
     7
  5
138
 10
-16.01
 20
30.86
 30
0.0
 40
0.08
  1
3.000
  7
STYLE1
 72
     1
 11
-15.9
 21
30.9
 31
0.0
 73
     2
  0
TEXT
  8
STANDARD
 62
     7
  5
139
 10
-16.21
 20
25.71
 30
0.0
 40
0.08
  1
3.000
  7
STYLE1
 72
     1
 11
-16.1
 21
25.75
 31
0.0
 73
     2
  0
TEXT
  8
STANDARD
 62
     7
  5
13A
 10
-15.86
 20
28.11
 30
0.0
 40
0.08
  1
3.000
  7
STYLE1
 72
     1
 11
-15.75
 21
28.15
 31
0.0
 73
     2
  0
TEXT
  8
STANDARD
 62
     7
  5
13B
 10
-18.568
 20
32.41
 30
0.0
 40
0.08
  1
SEARCH_VEL = POSITIVE
  7
STYLE1
 11
-18.6
 21
32.45
 31
0.0
 73
     2
  0
TEXT
  8
STANDARD
 62
     7
  5
13C
 10
-18.568
 20
27.41
 30
0.0
 40
0.08
  1
SEARCH_VEL = POSITIVE
  7
STYLE1
 11
-18.6
 21
27.45
 31
0.0
 73
     2
  0
TEXT
  8
STANDARD
 62
     7
  5
13D
 10
-18.568
 20
29.96
 30
0.0
 40
0.08
  1
SEARCH_VEL = POSITIVE
  7
STYLE1
 11
-18.6
 21
30.0
 31
0.0
 73
     2
  0
TEXT
  8
STANDARD
 62
     7
  5
13E
 10
-18.568
 20
24.96
 30
0.0
 40
0.08
  1
SEARCH_VEL = POSITIVE
  7
STYLE1
 11
-18.6
 21
25.0
 31
0.0
 73
     2
  0
TEXT
  8
STANDARD
 62
     7
  5
13F
 10
-18.568
 20
32.26
 30
0.0
 40
0.08
  1
LATCH_VEL = NEGATIVE
  7
STYLE1
 11
-18.6
 21
32.3
 31
0.0
 73
     2
  0
TEXT
  8
STANDARD
 62
     7
  5
140
 10
-18.568
 20
27.26
 30
0.0
 40
0.08
  1
LATCH_VEL = NEGATIVE
  7
STYLE1
 11
-18.6
 21
27.3
 31
0.0
 73
     2
  0
TEXT
  8
STANDARD
 62
     7
  5
141
 10
-18.568
 20
29.81
 30
0.0
 40
0.08
  1
LATCH_VEL = POSITIVE
  7
STYLE1
 11
-18.6
 21
29.85
 31
0.0
 73
     2
  0
TEXT
  8
STANDARD
 62
     7
  5
142
 10
-18.568
 20
24.81
 30
0.0
 40
0.08
  1
LATCH_VEL = POSITIVE
  7
STYLE1
 11
-18.6
 21
24.85
 31
0.0
 73
     2
  0
TEXT
  8
STANDARD
 62
     7
  5
143
 10
-18.568
 20
32.11
 30
0.0
 40
0.08
  1
USE_INDEX = FALSE
  7
STYLE1
 11
-18.6
 21
32.15
 31
0.0
 73
     2
  0
TEXT
  8
STANDARD
 62
     7
  5
144
 10
-18.568
 20
27.11
 30
0.0
 40
0.08
  1
USE_INDEX = TRUE
  7
STYLE1
 11
-18.6
 21
27.15
 31
0.0
 73
     2
  0
TEXT
  8
STANDARD
 62
     7
  5
145
 10
-18.568
 20
29.66
 30
0.0
 40
0.08
  1
USE_INDEX = FALSE
  7
STYLE1
 11
-18.6
 21
29.7
 31
0.0
 73
     2
  0
TEXT
  8
STANDARD
 62
     7
  5
146
 10
-18.568
 20
24.66
 30
0.0
 40
0.08
  1
USE_INDEX = TRUE
  7
STYLE1
 11
-18.6
 21
24.7
 31
0.0
 73
     2
  0
POLYLINE
  8
STANDARD
 62
     7
  5
147
 66
     1
 10
0.0
 20
0.0
 30
0.0
 70
     1
  0
VERTEX
  8
STANDARD
 62
     7
  5
148
 10
-19.0
 20
22.8
 30
0.0
  0
VERTEX
  8
STANDARD
 62
     7
  5
149
 10
-19.0
 20
25.3
 30
0.0
  0
VERTEX
  8
STANDARD
 62
     7
  5
14A
 10
-12.0
 20
25.3
 30
0.0
  0
VERTEX
  8
STANDARD
 62
     7
  5
14B
 10
-12.0
 20
22.8
 30
0.0
  0
VERTEX
  8
STANDARD
 62
     7
  5
14C
 10
-19.0
 20
22.8
 30
0.0
  0
SEQEND
  8
0
  5
14D
  0
POLYLINE
  8
STANDARD
 62
     7
  5
14E
 66
     1
 10
0.0
 20
0.0
 30
0.0
 70
     1
  0
VERTEX
  8
STANDARD
 62
     7
  5
14F
 10
-19.0
 20
30.3
 30
0.0
  0
VERTEX
  8
STANDARD
 62
     7
  5
150
 10
-19.0
 20
32.8
 30
0.0
  0
VERTEX
  8
STANDARD
 62
     7
  5
151
 10
-12.0
 20
32.8
 30
0.0
  0
VERTEX
  8
STANDARD
 62
     7
  5
152
 10
-12.0
 20
30.3
 30
0.0
  0
VERTEX
  8
STANDARD
 62
     7
  5
153
 10
-19.0
 20
30.3
 30
0.0
  0
SEQEND
  8
0
  5
154
  0
POLYLINE
  8
STANDARD
 62
     7
  5
155
 66
     1
 10
0.0
 20
0.0
 30
0.0
 70
     1
  0
VERTEX
  8
STANDARD
 62
     7
  5
156
 10
-19.0
 20
27.8
 30
0.0
  0
VERTEX
  8
STANDARD
 62
     7
  5
157
 10
-19.0
 20
30.3
 30
0.0
  0
VERTEX
  8
STANDARD
 62
     7
  5
158
 10
-12.0
 20
30.3
 30
0.0
  0
VERTEX
  8
STANDARD
 62
     7
  5
159
 10
-12.0
 20
27.8
 30
0.0
  0
VERTEX
  8
STANDARD
 62
     7
  5
15A
 10
-19.0
 20
27.8
 30
0.0
  0
SEQEND
  8
0
  5
15B
  0
POLYLINE
  8
STANDARD
 62
     7
  5
15C
 66
     1
 10
0.0
 20
0.0
 30
0.0
 70
     1
  0
VERTEX
  8
STANDARD
 62
     7
  5
15D
 10
-19.0
 20
25.3
 30
0.0
  0
VERTEX
  8
STANDARD
 62
     7
  5
15E
 10
-19.0
 20
27.8
 30
0.0
  0
VERTEX
  8
STANDARD
 62
     7
  5
15F
 10
-12.0
 20
27.8
 30
0.0
  0
VERTEX
  8
STANDARD
 62
     7
  5
160
 10
-12.0
 20
25.3
 30
0.0
  0
VERTEX
  8
STANDARD
 62
     7
  5
161
 10
-19.0
 20
25.3
 30
0.0
  0
SEQEND
  8
0
  5
162
  0
TEXT
  8
STANDARD
 62
     7
  5
163
 10
-17.018
 20
24.96
 30
0.0
 40
0.08
  1
HOME_OFFSET = 3.000
  7
STYLE1
 11
-17.05
 21
25.0
 31
0.0
 73
     2
  0
TEXT
  8
STANDARD
 62
     7
  5
164
 10
-17.018
 20
32.41
 30
0.0
 40
0.08
  1
HOME_OFFSET = 3.000
  7
STYLE1
 11
-17.05
 21
32.45
 31
0.0
 73
     2
  0
TEXT
  8
STANDARD
 62
     7
  5
165
 10
-17.018
 20
27.41
 30
0.0
 40
0.08
  1
HOME_OFFSET = 3.000
  7
STYLE1
 11
-17.05
 21
27.45
 31
0.0
 73
     2
  0
TEXT
  8
STANDARD
 62
     7
  5
166
 10
-17.018
 20
29.96
 30
0.0
 40
0.08
  1
HOME_OFFSET = 3.000
  7
STYLE1
 11
-17.05
 21
30.0
 31
0.0
 73
     2
  0
TEXT
  8
STANDARD
 62
     7
  5
167
 10
-17.018
 20
24.81
 30
0.0
 40
0.08
  1
HOME = 1.000
  7
STYLE1
 11
-17.05
 21
24.85
 31
0.0
 73
     2
  0
TEXT
  8
STANDARD
 62
     7
  5
168
 10
-17.018
 20
32.26
 30
0.0
 40
0.08
  1
HOME = 1.000
  7
STYLE1
 11
-17.05
 21
32.3
 31
0.0
 73
     2
  0
TEXT
  8
STANDARD
 62
     7
  5
169
 10
-17.018
 20
27.26
 30
0.0
 40
0.08
  1
HOME = 1.000
  7
STYLE1
 11
-17.05
 21
27.3
 31
0.0
 73
     2
  0
TEXT
  8
STANDARD
 62
     7
  5
16A
 10
-17.018
 20
29.81
 30
0.0
 40
0.08
  1
HOME = 1.000
  7
STYLE1
 11
-17.05
 21
29.85
 31
0.0
 73
     2
  0
POLYLINE
  8
STANDARD
 62
     7
  5
16B
 66
     1
 10
0.0
 20
0.0
 30
0.0
  0
VERTEX
  8
STANDARD
 62
     7
  5
16C
 10
-15.5
 20
31.9
 30
0.0
  0
VERTEX
  8
STANDARD
 62
     7
  5
16D
 10
-15.35
 20
32.05
 30
0.0
  0
VERTEX
  8
STANDARD
 62
     7
  5
16E
 10
-15.2
 20
32.05
 30
0.0
  0
SEQEND
  8
0
  5
16F
  0
POLYLINE
  8
STANDARD
 62
     7
  5
170
 66
     1
 10
0.0
 20
0.0
 30
0.0
  0
VERTEX
  8
STANDARD
 62
     7
  5
171
 10
-15.5
 20
31.9
 30
0.0
  0
VERTEX
  8
STANDARD
 62
     7
  5
172
 10
-15.439503
 20
31.938498
 30
0.0
  0
VERTEX
  8
STANDARD
 62
     7
  5
173
 10
-15.461502
 20
31.960497
 30
0.0
  0
VERTEX
  8
STANDARD
 62
     7
  5
174
 10
-15.5
 20
31.9
 30
0.0
  0
SEQEND
  8
0
  5
175
  0
TEXT
  8
STANDARD
 62
     7
  5
176
 10
-15.118
 20
32.01
 30
0.0
 40
0.08
  1
OVERSHOOT
  7
STYLE1
 11
-15.15
 21
32.05
 31
0.0
 73
     2
  0
POLYLINE
  8
STANDARD
 62
     7
  5
177
 66
     1
 10
0.0
 20
0.0
 30
0.0
  0
VERTEX
  8
STANDARD
 62
     7
  5
178
 10
-15.877391
 20
27.029352
 30
0.0
  0
VERTEX
  8
STANDARD
 62
     7
  5
179
 10
-15.7
 20
27.3
 30
0.0
  0
VERTEX
  8
STANDARD
 62
     7
  5
17A
 10
-15.5
 20
27.3
 30
0.0
  0
SEQEND
  8
0
  5
17B
  0
POLYLINE
  8
STANDARD
 62
     7
  5
17C
 66
     1
 10
0.0
 20
0.0
 30
0.0
  0
VERTEX
  8
STANDARD
 62
     7
  5
17D
 10
-15.877391
 20
27.029352
 30
0.0
  0
VERTEX
  8
STANDARD
 62
     7
  5
17E
 10
-15.826008
 20
27.07937
 30
0.0
  0
VERTEX
  8
STANDARD
 62
     7
  5
17F
 10
-15.852028
 20
27.096424
 30
0.0
  0
VERTEX
  8
STANDARD
 62
     7
  5
180
 10
-15.877391
 20
27.029352
 30
0.0
  0
SEQEND
  8
0
  5
181
  0
POLYLINE
  8
STANDARD
 62
     7
  5
182
 66
     1
 10
0.0
 20
0.0
 30
0.0
  0
VERTEX
  8
STANDARD
 62
     7
  5
183
 10
-15.877391
 20
29.579352
 30
0.0
  0
VERTEX
  8
STANDARD
 62
     7
  5
184
 10
-15.7
 20
29.85
 30
0.0
  0
VERTEX
  8
STANDARD
 62
     7
  5
185
 10
-15.5
 20
29.85
 30
0.0
  0
SEQEND
  8
0
  5
186
  0
POLYLINE
  8
STANDARD
 62
     7
  5
187
 66
     1
 10
0.0
 20
0.0
 30
0.0
  0
VERTEX
  8
STANDARD
 62
     7
  5
188
 10
-15.877391
 20
29.579352
 30
0.0
  0
VERTEX
  8
STANDARD
 62
     7
  5
189
 10
-15.826008
 20
29.62937
 30
0.0
  0
VERTEX
  8
STANDARD
 62
     7
  5
18A
 10
-15.852028
 20
29.646424
 30
0.0
  0
VERTEX
  8
STANDARD
 62
     7
  5
18B
 10
-15.877391
 20
29.579352
 30
0.0
  0
SEQEND
  8
0
  5
18C
  0
POLYLINE
  8
STANDARD
 62
     7
  5
18D
 66
     1
 10
0.0
 20
0.0
 30
0.0
  0
VERTEX
  8
STANDARD
 62
     7
  5
18E
 10
-15.877391
 20
32.129352
 30
0.0
  0
VERTEX
  8
STANDARD
 62
     7
  5
18F
 10
-15.7
 20
32.4
 30
0.0
  0
VERTEX
  8
STANDARD
 62
     7
  5
190
 10
-15.5
 20
32.4
 30
0.0
  0
SEQEND
  8
0
  5
191
  0
POLYLINE
  8
STANDARD
 62
     7
  5
192
 66
     1
 10
0.0
 20
0.0
 30
0.0
  0
VERTEX
  8
STANDARD
 62
     7
  5
193
 10
-15.877391
 20
32.129352
 30
0.0
  0
VERTEX
  8
STANDARD
 62
     7
  5
194
 10
-15.826008
 20
32.17937
 30
0.0
  0
VERTEX
  8
STANDARD
 62
     7
  5
195
 10
-15.852028
 20
32.196424
 30
0.0
  0
VERTEX
  8
STANDARD
 62
     7
  5
196
 10
-15.877391
 20
32.129352
 30
0.0
  0
SEQEND
  8
0
  5
197
  0
POLYLINE
  8
STANDARD
 62
     7
  5
198
 66
     1
 10
0.0
 20
0.0
 30
0.0
  0
VERTEX
  8
STANDARD
 62
     7
  5
199
 10
-15.877391
 20
24.579352
 30
0.0
  0
VERTEX
  8
STANDARD
 62
     7
  5
19A
 10
-15.7
 20
24.85
 30
0.0
  0
VERTEX
  8
STANDARD
 62
     7
  5
19B
 10
-15.5
 20
24.85
 30
0.0
  0
SEQEND
  8
0
  5
19C
  0
POLYLINE
  8
STANDARD
 62
     7
  5
19D
 66
     1
 10
0.0
 20
0.0
 30
0.0
  0
VERTEX
  8
STANDARD
 62
     7
  5
19E
 10
-15.877391
 20
24.579352
 30
0.0
  0
VERTEX
  8
STANDARD
 62
     7
  5
19F
 10
-15.826008
 20
24.62937
 30
0.0
  0
VERTEX
  8
STANDARD
 62
     7
  5
1A0
 10
-15.852028
 20
24.646424
 30
0.0
  0
VERTEX
  8
STANDARD
 62
     7
  5
1A1
 10
-15.877391
 20
24.579352
 30
0.0
  0
SEQEND
  8
0
  5
1A2
  0
TEXT
  8
STANDARD
 62
     7
  5
1A3
 10
-15.418
 20
27.26
 30
0.0
 40
0.08
  1
HOME SWITCH RELEASES
  7
STYLE1
 11
-15.45
 21
27.3
 31
0.0
 73
     2
  0
TEXT
  8
STANDARD
 62
     7
  5
1A4
 10
-15.418
 20
29.81
 30
0.0
 40
0.08
  1
HOME SWITCH RELEASES
  7
STYLE1
 11
-15.45
 21
29.85
 31
0.0
 73
     2
  0
TEXT
  8
STANDARD
 62
     7
  5
1A5
 10
-15.418
 20
32.36
 30
0.0
 40
0.08
  1
HOME SWITCH RELEASES
  7
STYLE1
 11
-15.45
 21
32.4
 31
0.0
 73
     2
  0
TEXT
  8
STANDARD
 62
     7
  5
1A6
 10
-15.418
 20
24.81
 30
0.0
 40
0.08
  1
HOME SWITCH RELEASES
  7
STYLE1
 11
-15.45
 21
24.85
 31
0.0
 73
     2
  0
ENDSEC
  0
EOF
